Oops, an error
Loading. Please wait.

Triad Tab

by Tool
ver1
ver1

Whole song

Interactive

More versions @911Tabs.com
5,519 views 18 this week
3 commentsread comments
1 2 3 4 5
worth learning
x 7
add to favorites launch autoscroll
font size
0
reset
Autoscroll
+/-
esc
set tempo
stop
WARNING: You are trying to view
                                    content from Ultimate-Guitar.com
                                    in an unauthorized application,
                                    which is prohibited.

                                    Please use an official Ultimate
                                    Guitar Tabs application for iPhone,
                                    iPad or Android to access legitimate
                                    chords, guitar, bass, and drum tabs
                                    from Ultimate-Guitar.com database.

                                    Type "ultimate guitar tabs" in Apple
                                    App Store's or Android Market's
                                    search to find the application.
tabed by:$GUITARPRODIGY$

artist:tool
song title: Triad
album:lateralus
2001 volcano records
track:#11

tuning: (d,a,d,e,b,g) drop-d everybody!

~~~~~~~~~~~~~~~~~~~~~~~~~~~~~~~~~~~~~~~~~~~~~~~~~~~~~~~~~~~~~~~~~~~~~~~~~~~~~~~
                                T ~R ~I ~A ~D

intro:

e:----------------------------------------------------------------
b:----------------------------------------------------------------
g:----------------------------------------------------------------
d:-2-2--2-2--2-2-------------2-2--2-2--2-2------------------------ 
a:-2-2--2-2--2-2-------------2-2--2-2--2-2------------------------
d:-2-2--2-2--2-2-2h3-2p0h2---2-2--2-2--2-2--2h3-2h3-2p0h2---------

repeat this riff for about 1:20/or less.

begining of solo:

e:-----------------------------------------------------------------------------
b:-----------------------------------------------------------------------------
g:-----------------------------------------------------------------------------
d:-----------------------------------------------------------------------------
a:-----------------------------------------------------------------------------
d://///////////////////////////////////////////////////////////////////////////

use a wah & also use your pick to slide down the e-string with!

e:-----------------------------------------------------------------------------
b:-----------------------------------------------------------------------------
g:-----------------------------------------------------------------------------
d:-----------------------------------------------------------------------------
a:-----------------------------------------------------------------------------
d:\\\\\\\\\\\\\\\\\\\\\\\\\\\\\\\\\\\\\\\\\\\\\\\\\\\\\\\\\\\\\\\\\\\\\\\\\\\\\

It took me a while to figure out weather or not this intro to the solo is
pick sliding but it is,and it sounds totally bitch'n when played with a wah
and some heavy distortion.

e:-----------------------------------------------------------------------------
b:-12-12-10-11/9/7/5***-----3h5--3h5-3~~~-----12-10-11--7h9-7h8-7-7/5----------
g:-----------------------------------------------------------------------------
d:-----------------------------------------------------------------------------
a:-----------------------------------------------------------------------------
d:-----------------------------------------------------------------------------

e:-----------------------------------------------------------------------------
b:-----------------------------------------------------------------------------
g:-----------------------------------------------------------------------------
d:-----------------------------------------------------------------------------
a:-----------------------------------------------------------------------------
d:\\\\\\\\\\\\\\\\\\\\\\\\\\\\\\\\\\\\\\\\\\\\\\\\\\\\\\\\\\\\\\\\\\\\\\\\\0-2-
pick slide up.

wait about 8 secounds...

e:-----------------------------------------------------------------------------
b:-----------------------------------------------------------------------------
g:-----------------------------------------------------------------------------
d:-----------------------------------------------------------------------------
a:-----------------------------------------------------------------------------
d://///////////////////////\\\\\\\\\\\\\\\\\\\\\\\\\\\\\\\\\\\\\\\\\\\\\\\\\\\\
  pick slide                                                       let it ring!
  >>>>>>>>>>>>>>>>>down>>> <<<<<<<<<<<<<<<<<<<<<<<<<<<<<<<<<than up<<<<<<<<<<<<

e:---------------------------------------------------------------------------
b:---------------------------9-7-9-7~~~9-7-9-7~~~-9-7-9-5/7-3-5\\\\\12~~~----
g:-9~9~7***--12-10--12-10~~~-------------------------------------------------
d:---------------------------------------------------------------------------
a:---------------------------------------------------------------------------
d:---------------------------------------------------------------------------

e:-------------------------
b:-12-12-10-11\9\7\5~~~----
g:-------------------------
d:-------------------------
a:-------------------------
d:-------------------------

And thats the end of the amazing lead...

e:-------------------------------------------------------
b:-------------------------------------------------------
g:-------------------------------------------------------
d:-2-2--2-2--2-2-----------2-2--2-2--2-2-----------------
a:-2-2--2-2--2-2-----------2-2--2-2--2-2-----------------
d:-2-2--2-2--2-2-2h3-2p0h2-2-2--2-2--2-2-2h3-2h3-2p0h2---

Repeat this riff for a while:note that alot of the bass guitar and
background effects interfeire with the sound of the guitar so in a way
it will sound like Adam is playing different riffs but don't let this 
confuse or get in your way.Just keep playing this riff at the same rythm &
pase for a couple more minutes or so.
If it's not toooooooooo hard figure out the timeing yourself.

Start this when the drums bang in real loud!!!
e:-----------------------------------------------------------------------------
b:-----------------------------------------------------------------------------
g:-----------------------------------------------------------------------------
d:-2-2-5--2-2--2-2--2-2--2-2--2-2--2-2--2-2--2-2--555/777--2-2-----------------
a:-2-2-5--2-2--2-2--2-2--2-2--2-2--2-2--2-2--2-2--555/777--2-2-----------------
d:-2-2-3--2-2--2-2--2-2--2-2--2-2--2-2--2-2--2-2--333/555--2-2---2h3-2p0h2-----

e:-----------------------------------------------------------------------------
b:-----------------------------------------------------------------------------
g:-----------------------------------------------------------------------------
d:-777\555--2-2------------777\555--2-2------------555\777---------------------
a:-777\555--2-2------------777\555--2-2------------555\777---------------------
d:-555\333--2-2--2h3-2p0h2-555\333--2-2--2h3-2p0h2-333\555--2-2h3-2h3-2-2h3-2h3

e:------------------------------------------------------------------------
b:------------------------------------------------------------------------
g:------------------------------------------------------------------------ 4x
d:------------------------------------------------------------------------
a:------------------------------------------------------------------------
d:-2-2h3-2h3--2-2h3-2h3--2-2h3-2h3--2-2h3-2h3--2-2h3-2h3--2-2h3-2h3-------


e:-----------------------------------------------------------------------------
b:-----------------------------------------------------------------------------
g:-----------------------------------------------------------------------------
d:-----------------------------------------------------------------------------
a:-----------------------------------------------------------------------------
d:-2-2-2-2h3-2h3--2-2-2-2h3-2h3--2-2-2-2h3-2h3--2-2-2-2h3-2h3--2-2-2-2h3-2h3---
P.M............................................................................
play this until the drums start to kick in heavilly.


e:-----------------------------------------------------------
b:-----------------------------------------------------------
g:-----------------------------------------------------------
d:-2-2--2-2--2-2------------2-2--2-2--2-2-------------------- 5x
a:-2-2--2-2--2-2------------2-2--2-2--2-2--------------------
d:-2-2--2-2--2-2-2h3-2p0h3--2-2--2-2--2-2-2h3-2h3-2p0h3------

e:-------------------------------------------------------------------------
b:-------------------------------------------------------------------------
g:-------------------------------------------------------------------------
d:-555/777--2-2------------777/555--2-2------------777/555--2-2------------ 3x
a:-555/777--2-2------------777/555--2-2------------777/555--2-2------------
d:-333/555--2-2-2h3-2p0h3--555/333--2-2-2h3-2p0h3--555/333--2-2-2h3-2p0h3--

e:-----------------------------------------------------------------------------
b:-----------------------------------------------------------------------------
g:-----------------------------------------------------------------------------
d:-555/777---------------------------------------------------------------------
a:-555/777---------------------------------------------------------------------
d:-333/555--2~~~2~~~2~~~2~~~---222-333-2-3-2-3--222-333-2-3-2-3-222-333-2-3-2-3
           use wah.........    turn off wah....................................

e:----------------------------------------------------------------------------
b:----------------------------------------------------------------------------
g:----------------------------------------------------------------------------
d:----------------------------------------------------------------------------
a:----------------------------------------------------------------------------
d:-222-333-2-3-2-3--222-333-2-3-2-3-2-3-2-3-2-3-2-3--2-3-2-3-2-3-2-3-2-3-2-3--
                           P.M....................   use wah...................

e:-----------------------------------------------------------------------------
b:-----------------------------------------------------------------------------
g:-----------------------------------------------------------------------------
d:--------------------------------------2--------------------------------------
a:--------------------------------------2--------------------------------------
d:-3-2-3-2-3-2-3-2-3-2-3-2-3-2-3-2-3-2--2--------------------------------------
......................................

I remeber geting home and playing this song and something in it 
just did'nt sound right,so I now took the time to correct some of the
timeing,techniques,leads,and just lots of errors I made while typeing
out and writting this tab.I could honestly say now that this tab is 100%
correct in every form.If anyone has any songs they would like to learn or
any questions reguarding this tab or TOOL E-MAIL me at senorjacob@msn.com


For all the tool lovers reading this bueatiful tab just to let ya'll know 
that I know more about this band than any other guy my age i've studied and
listened to the band for years so come to me first if you need any questions
of this band answered or go to this website www.INNUENDOCORNECOPRIA.com
                                              (sagacious inerpretations)
Besides from that have a great time with this
bad ass six min.long metal solo...
comments
print report bad tab
3 comments total.
0 reply
$GUITARPRODIGY$ wrote on February 1 2003, 12:00 am

senorjacob@msn.com

0 reply
Stranger wrote on March 31 2004, 12:00 am

that's total;y worn. you left out major song sections. and Drop D tuning doesn't include g as the e string

0 reply
Ribica wrote on June 29 2007, 05:33 am

Maybe this tab ain't so good, but i'm gonna give it a 4 because, unlike all the other pricks on this site, he tryed to tab it out himself, and not copied it from tooltabs.net
Good job mate.

I want to post or [tab]
guest
You may want to rate the tab now too:
select rating
Please do not post tabs as comments. Select "correction" instead!