Oops, an error
Loading. Please wait.

Telstar Tab

ver2
ver2

Whole song

More versions @911Tabs.com
10,816 views 84 this week
1 commentread comment
1 2 3 4 5
excellent!
x 5
add to favorites launch autoscroll
font size
0
reset
Autoscroll
+/-
esc
set tempo
stop
WARNING: You are trying to view
                                    content from Ultimate-Guitar.com
                                    in an unauthorized application,
                                    which is prohibited.

                                    Please use an official Ultimate
                                    Guitar Tabs application for iPhone,
                                    iPad or Android to access legitimate
                                    chords, guitar, bass, and drum tabs
                                    from Ultimate-Guitar.com database.

                                    Type "ultimate guitar tabs" in Apple
                                    App Store's or Android Market's
                                    search to find the application.
BAND: The Tornadoes (produced by Joe Meek)
SONG: Telstar
ALBUM: Vampires, Cowboys, Spacemen & Spooks (and various others)

Tabbed March 2010
gm_beech@hotmail.com


G|----------------------------1----2---|
D|-----4------4----4----5--------------|


e|--------------------------------------------|
B|----------------------------3--2--0-----0---|
G|-----2-------------------------------2------|
D|--(2)--------2---4--------2-----------------|
A|--------------------------------------------|
E|--------------------------------------------|

E|-------------------------0---|
B|----3--2--0-----0------------|
G|------------2----------------|
D|--2-----------------2--------|
A|-----------------------------|
E|-----------------------------|

e|--2--------0-------0-----------------------|
B|-----------------------3-----2------2--0---|
G|----------------2--------------------------|
D|--------------------------------3-4--------|
A|-------------------------------------------|
E|-------------------------------------------|

e|------------------------------------------------|
B|--2--------2-----3--2--0----0-------------------|
G|--------------------------2------1--2--1--------|
D|-------------------------------4---------4-—2---|
A|------------------------------------------------|
E|------------------------------------------------|

e|----------------------------------------------|
B|------------------------------3--2--0-----0---|
G|--2------------------------------------2------|
D|------------2---4----------2------------------|
A|----------------------------------------------|
E|----------------------------------------------|

E|-------------------------0---|
B|----3--2--0-----0------------|
G|------------2----------------|
D|--2-----------------2--------|
A|-----------------------------|
E|-----------------------------|


e|--2--------0-------0-----------------------|
B|-----------------------3-----2------2--0---|
G|----------------2--------------------------|
D|--------------------------------3-4--------|
A|-------------------------------------------|
E|-------------------------------------------|

e|-------------------------------------------|
B|--2--------2-----3--2--0----0--0-2-0---0---|
G|--------------------------2----------2-----|
D|-------------------------------------—-----|
A|-------------------------------------------|
E|-------------------------------------------|

e|-12-12-12-12-14-12-------------9----9-----|
B|-----------------------10--12----12-------|
G|--------------------------------------9---|
D|------------------------------------------|
A|------------------------------------------|
E|------------------------------------------|

e|----7-9-9-7-9-10-9—-9-7----7-9-7---|
B|-10---------------------10---------|
G|-----------------------------------|
D|-----------------------------------|
A|-----------------------------------|
E|-----------------------------------|

e|-9-10-12-12-12-12-14-12------------9----9-----|
B|---------------------------10--12----12-------|
G|------------------------------------------9---|
D|----------------------------------------------|
A|----------------------------------------------|
E|----------------------------------------------|

e|----7-9-9-7-9-10-9—-9-7----7-9-7--------10---|
B|-10---------------------10----------9--------|
G|----------------------------------9---9------|
D|---------------------------------------------|
A|---------------------------------------------|
E|---------------------------------------------|

e|--------------------------------------------|
B|----------------------------3--2--0-----0---|
G|-----2-------------------------------2------|
D|--(2)--------2---4--------2-----------------|
A|--------------------------------------------|
E|--------------------------------------------|


E|-------------------------0---|
B|----3--2--0-----0------------|
G|------------2----------------|
D|--2-----------------2--------|
A|-----------------------------|
E|-----------------------------|

e|--2--------0-------0-----------------------|
B|-----------------------3-----2------2--0---|
G|----------------2--------------------------|
D|--------------------------------3-4--------|
A|-------------------------------------------|
E|-------------------------------------------|

e|-------------------------------------------|
B|--2--------2-----3--2--0----0--0-2-0---0---|
G|--------------------------2----------2-----|
D|-------------------------------------—-----|
A|-------------------------------------------|
E|-------------------------------------------|

e|-12-12-12-12-14-12-------------9----9-----|
B|-----------------------10--12----12-------|
G|--------------------------------------9---|
D|------------------------------------------|
A|------------------------------------------|
E|------------------------------------------|

e|----7-9-9-7-9-10-9—-9-7----7-9-7--------10---|
B|-10---------------------10----------9--------|
G|----------------------------------9---9------|
D|---------------------------------------------|
A|---------------------------------------------|
E|---------------------------------------------|

e|---------------------------------|
B|-----------------8--7------------|
G|--7-------------------9---7--9---|
D|------7--9---7-------------------|
A|---------------------------------|
E|---------------------------------|

e|-----------------------------|
B|-----8--7---------------10---|
G|-----------9---7--9----------|
D|--7------------------7-------|
A|-----------------------------|
E|-----------------------------|


e|-------------------------------------------------|
B|--12-------10------------------------------------|
G|-------------------14--12----11-----------11-9---|
D|---------------12--------------------------------|
A|----------------------------------13--14---------|
E|-------------------------------------------------|

e|-------------------------------------------------------|
B|-------------------------------------------------------|
G|--11-------11----12-11--9-------------11--9------------|
D|--------------------------12--14---14-------12-14-12---|
A|-------------------------------------------------------|
E|-------------------------------------------------------|

e|-----------------|
B|-----------15~---|
G|------14~--------|
D|-12~-------------|
A|-----------------|
E|-----------------|
1 comment total.
0 reply
Kraziekhat wrote on February 7 2013, 04:08 am

A kick-ass tab. Excellent. KK.

I want to post or [tab]
guest
You may want to rate the tab now too:
select rating
Please do not post tabs as comments. Select "correction" instead!