Oops, an error
Loading. Please wait.

What Is Hip Bass Tab

ver1
ver1

Whole song

Interactive

More versions @911Tabs.com
17,854 views 60 this week
no commentswrite comment
1 2 3 4 5
worth learning
x 6
Autoscroll
+/-
esc
set tempo
stop
Hey! There's an official Ultimate Guitar app which is ideal
for learning songs when you're away from computer. Get the app
WARNING: You are trying to view
                                    content from Ultimate-Guitar.com
                                    in an unauthorized application,
                                    which is prohibited.

                                    Please use an official Ultimate
                                    Guitar Tabs application for iPhone,
                                    iPad or Android to access legitimate
                                    chords, guitar, bass, and drum tabs
                                    from Ultimate-Guitar.com database.

                                    Type "ultimate guitar tabs" in Apple
                                    App Store's or Android Market's
                                    search to find the application.
What Is Hip?
Tower Of Power
TablEdited by Dan Nunn
Tuning : E A D G 	Time Signature: 4/4

 |       |       |       |        |       |       |       |        
|--------------------------------|--------------------------------|
|--------------------------------|--------------------------------|
|--------------------------------|----7-7-7-7-7-7-7-7-7-7-7-7-7-7-|
|------------------------------0-|0-0-----------------------------|

 |       |       |       |        |       |       |       |        
|------------------9-------------|--------------------------------|
|--------------------------------|--------------------------------|
|7-7-7-7-7-7-7-7-7---7-7-7-7---7-|7-7-7-7-7-7-7-7-7-7-7-7-7-7-7-7-|
|----------------------------0---|--------------------------------|

 |       |       |       |        |       |       |       |        
|------------------9-------------|--------------------------------|
|--------------------------------|--------------------------------|
|7-7-7-7-7-7-7-7-7---7-7-7-7---7-|7-7-7-7-7-7-7-7-7-7-7-7-7-7-7-7-|
|----------------------------0---|--------------------------------|

 |       |       |       |        |       |       |       |        
|------------------9-------------|--------7-7-----6-6-----7-7-8-8-|
|--------------------------------|--------------------------------|
|7-7-7-7-7-7-7-7-7---7-7-7-7---7-|7-7-7-7-----7-7-----7-7---------|
|----------------------------0---|--------------------------------|

 |       |       |       |        |       |       |       |        
|9-9---------------9-------------|--------9---9-9-9---------------|
|----7-7-8-8-9-9-----------------|--------------------------------|
|----------------7---7-7-7-7---7-|7-7-7-7-------------7-7-7-7-----|
|----------------------------0---|----------------------------7---|

 |       |       |       |        |       |       |       |        
|--------9-9---------------------|--------9---9-9-----------------|
|------------5-------------------|--------------------6-------7---|
|--------------3-3-----------3---|7-7-7-7-------------------------|
|8-8-8-8-----------0-0-0-3-3-----|----------------4-4-----5-5-----|

 |       |       |       |        |       |       |       |        
|--------------------------------|--------------------------------|
|--------7-7-8-9---7-8-9---9-----|--------------------------------|
|----------------------------5---|7-7---7-5-5-6-7---5-6-7---5-7---|
|7-7---7-------------------------|--------------------------------|

 |       |       |       |        |       |       |       |        
|--------------------------------|--------------9-----------------|
|--------------------------------|5-9---101011--------------5-5---|
|9-9---9-7-7-8-9---7-8-9---9-----|------------------7-7-7-8-------|
|--------------------------------|--------------------------------|

 |       |       |       |        |       |       |       |        
|--------------------------------|--------------------------------|
|5-9---101011--1212--------------|--------------------------------|
|------------------10--9-9-------|----7-7-7-7-7-7-7-7-7-7-7-7-7-7-|
|--------------------------13--0-|0-0-----------------------------|

 |       |       |       |        |       |       |       |        
|------------------9-------------|--------------------------------|
|--------------------------------|--------------------------------|
|7-7-7-7-7-7-7-7-7---7-7-7-7---7-|7-7-7-7-7-7-7-7-7-7-7-7-7-7-7-7-|
|----------------------------0---|--------------------------------|

 |       |       |       |        |       |       |       |        
|------------------9-------------|--------------------------------|
|--------------------------------|--------------------------------|
|7-7-7-7-7-7-7-7-7---7-7-7-7---7-|7-7-7-7-7-7-7-7-7-7-7-7-7-7-7-7-|
|----------------------------0---|--------------------------------|

 |       |       |       |        |       |       |       |        
|------------------9-------------|--------7-7-----6-6-----7-7-8-8-|
|--------------------------------|--------------------------------|
|7-7-7-7-7-7-7-7-7---7-7-7-7---7-|7-7-7-7-----7-7-----7-7---------|
|----------------------------0---|--------------------------------|

 |       |       |       |        |       |       |       |        
|9-9---------------9-------------|--------------------------------|
|----7-7-8-8-9-9-----------------|--------------------------------|
|----------------7---7-7-7-7---7-|7-7-7-7-7-7-7-7-7-7-7-7-7-7-7-7-|
|----------------------------0---|--------------------------------|

 |       |       |       |        |       |       |       |        
|------------------9-------------|--------7-7-----7-7-8-8-9-9-1111|
|--------------------------------|--------------------------------|
|7-7-7-7-7-7-7-7-7---7-7-7-7---7-|7-7-7-7-----7-7-----------------|
|----------------------------0---|--------------------------------|

 |       |       |       |        |       |       |       |        
|12121313----------9-------------|--------9---9-9-9---------------|
|--------------------------------|--------------------------------|
|--------7-7-7-7-7---7-7-7-7---7-|7-7-7-7-------------7-7-7-7-----|
|----------------------------0---|----------------------------7---|

 |       |       |       |        |       |       |       |        
|--------5-5---------------------|--------9---9-9-----------------|
|------------5-------------------|----------------6-6-6-6-7-7-8-8-|
|3---3-3-------3-3-----------3---|7-7-7-7-------------------------|
|------------------0-0-0-3-3-----|--------------------------------|

 |       |       |       |        |       |       |       |        
|--------------------------------|--------------------------------|
|9-9---9-7-7-8-8-----------------|--------------------------------|
|------------------0---------5---|7-7---7-5-5-6-7---5-6-7---6-7---|
|--------------------6-6-6-6-----|--------------------------------|

 |       |       |       |        |       |       |       |        
|--------------------------------|--------------------------------|
|--------------------------------|5-9---101011--14----------5-5---|
|9-9---9-7-7-8-9---7-8-9---9-----|------------------7-7-7-8-------|
|--------------------------------|--------------------------------|

 |       |       |       |        |       |       |       |        
|--------------------------------|--------------------------------|
|5-9---101011--12----------------|--------------------------------|
|--------------------------------|0-------2-2-2-0---4---0-4-5-----|
|--------------------------------|--------------------------------|

 |       |       |       |        |       |       |       |        
|----7-8-9-----------------------|--------------------------------|
|------------7-8-8---------------|--------------------------0-----|
|7-----------------7-5-6-7-------|--------2-2-2-0---4---2-4-------|
|--------------------------0-----|5-------------------------------|

 |       |       |       |        |       |       |       |        
|----7-8-9---111213--------------|--------------------------------|
|2-------------------0-----------|--------------------------0-----|
|----------------------6-7-------|0-------2-2-2-0---4---2-4-------|
|------------------13------0-----|--------------------------------|

 |       |       |       |        |       |       |       |        
|----7-8-9-----------------------|--------------------------------|
|------------7-8-9---------------|------------------------0-2-----|
|7-----------------7-5-6-7-------|0-------2-2-2-0---4-0-----------|
|--------------------------0-----|--------------------------------|

 |       |       |       |        |       |       |       |        
|----------------------------0---|--------------------------------|
|----1-1-2-2-4-------2-2-4-4-----|--------------------------------|
|2-------------3-3-3-------------|----7-7-7-7-7-7-7-7-7-7-7-7-7-7-|
|------------------------------0-|0-0-----------------------------|

 |       |       |       |        |       |       |       |        
|------------------9-------------|--------------------------------|
|--------------------------------|--------------------------------|
|7-7-7-7-7-7-7-7-7---7-7-7-7---7-|7-7-7-7-7-7-7-7-7-7-7-7-7-7-7-7-|
|----------------------------0---|--------------------------------|

 |       |       |       |        |       |       |       |        
|------------------9-------------|--------------------------------|
|--------------------------------|--------------------------------|
|7-7-7-7-7-7-7-7-7---7-7-7-7---7-|7-7-7-7-7-7-7-7-7-7-7-7-7-7-7-7-|
|----------------------------0---|--------------------------------|

 |       |       |       |        |       |       |       |        
|------------------9-------------|--------7-7-----6-6-----7-7-8-8-|
|--------------------------------|--------------------------------|
|7-7-7-7-7-7-7-7-7---7-7-7-7---7-|7-7-7-7-----7-7-----7-7---------|
|----------------------------0---|--------------------------------|

 |       |       |       |        |       |       |       |        
|9-9---------------9-------------|--------------------------------|
|----7-7-8-8-9-9-----------------|--------------------------------|
|----------------7---7-7-7-7---7-|7-7-7-7-7-7-7-7-7-7-7-7-7-7-7-7-|
|----------------------------0---|--------------------------------|

 |       |       |       |        |       |       |       |        
|------------------9-------------|--------7-7-----7-7-8-8-9-9-1111|
|--------------------------------|--------------------------------|
|7-7-7-7-7-7-7-7-7---7-7-7-7---7-|7-7-7-7-----7-7-----------------|
|----------------------------0---|--------------------------------|

 |       |       |       |        |       |       |       |        
|12121313----------9-------------|--------9---9-9-----------------|
|--------------------------------|--------------------------------|
|--------7-7-7-7-7---7-7-7-7---7-|7-7-7-7---------7-7-7-7-2-2-2---|
|----------------------------0---|--------------------------------|

 |       |       |       |        |       |       |       |        
|--------5-5-0-------------------|--------9---9-9-----1-------2---|
|--------------------------------|--------------------------------|
|3-3-3-3-------3-3-----------3---|7-7-7-7-----------------0-0-----|
|------------------0-0-0-3-3-----|----------------4-4-------------|

 |       |       |       |        |       |       |       |        
|--------------------------------|--------------------------------|
|--------7-7-8-9---7-8-9---9-----|--------------------------------|
|----------------------------5---|7-7---7-5-5-6-7---5-6-7---5-7---|
|7-7---7-------------------------|--------------------------------|

 |       |       |       |        |       |       |       |        
|--------------------------------|--------------------------------|
|--------------------------------|5-9---101011--14----------5-5---|
|9-9---9-7-7-8-9---7-8-9---9-----|------------------7-7-7-8-------|
|--------------------------------|--------------------------------|

 |       |       |       |        |       |       |       |        
|0-4---5-5-6---7-7-0-----0-------|--------------------------------|
|----------------------4---4---2-|--------0-0-1-2---------0-0-1-2-|
|--------------------------------|--------------------------------|
|--------------------------------|--------------------------------|

 |       |       |       |        |       |       |       |        
|--------------------------------|--------------------------------|
|--------0-0-1-2---2---1-2-0-----|------------------------------0-|
|------------------------------4-|--------2-2-3-4---------2-2-4---|
|--------------------------------|--------------------------------|

 |       |       |       |        |       |       |       |        
|--------------------------------|--------------------------------|
|------------------0---0-0-1---2-|--------------------------------|
|--------2-2-3-4-----------------|------7-------7-------7-------7-|
|--------------------------------|--------------------------------|

 |       |       |       |        |       |       |       |        
|--------------------------------|--------------------------------|
|--------------------------------|--------------------------------|
|------7-------7-------7-------7-|7-------------------------------|
|--------------------------------|--------------------------------|

 |       |       |       |        |       |       |       |        
|--------------7-7---8---9-------|--------------7-7---8---9-------|
|--------------------------------|--------------------------------|
|--------------------------------|5-5-6-6-7-7---------------------|
|----------------------------7-7-|------------7---------------7-7-|

 |       |       |       |        |       |       |       |        
|--------------7-7---8---9---7-7-|7---8---8-9---7-7---8---10------|
|--------------------------------|--------------------------------|
|5-5-6-6-7-7---------------------|--------------------------------|
|------------7-------------------|----------------------------7-7-|

 |       |       |       |        |       |       |       |        
|--------------7-7---8---9-------|--------------7-7---8---9-------|
|--------------------------------|--------------------------------|
|5-5-6-6-7-7-----------------7-7-|--------7-7---------------------|
|------------7-------------------|0-0-7-7-----7---------------7-7-|

 |       |       |       |        |       |       |       |        
|--------------7-7---8---9-------|--------------------------------|
|----------------------------7-7-|7-7-9-9-------------------------|
|5-5-6-6-7-7---------------------|--------7-7-----7-7---5-5-5-7---|
|------------7-------------------|--------------------------------|

 |       |       |       |        |       |       |       |        
|--------------7-7---8---9-------|--------------7-7---8---9-------|
|--------------------------------|--------------------------------|
|7-------7-7---------------------|5-5-6-6-7-7---------------------|
|--7---7-----7---------------7-7-|------------7---------------7-7-|

 |       |       |       |        |       |       |       |        
|--------------7-7---8---9-------|--------------------------------|
|----------------------------7-7-|7-7-9-9-------------------------|
|5-5-6-6-7-7---------------------|--------7-7-----7-7---5-5-5-7---|
|------------7-------------------|--------------------------------|

 |       |       |       |        |       |       |       |        
|--------------7-7---8---9-------|--------------7-7---8---9-------|
|--------------------------------|--------------------------------|
|7-7-7-7-5-5-7-------------------|5-5-6-6-7-7---------------------|
|----------------------------7-7-|------------7---------------7-7-|

 |       |       |       |        |       |       |       |        
|--------------7-7---8---9-------|--------------------------------|
|----------------------------7-7-|7-7-9-9-------------------------|
|5-5-6-6-7-7---------------------|--------7-7-----7-7---5-5-5-7---|
|------------7-------------------|--------------------------------|

 |       |       |       |        |       |       |       |        
|--------------7-7---8---9-----11|10--12--1213--11111112--13------|
|--------------------------------|--------------------------------|
|7-7-7-7-5-5-7-------------------|--------------------------------|
|--------------------------------|----------------------------7-7-|

 |       |       |       |        |       |       |       |        
|--------------7-7---8---9-------|--------------------------------|
|----------------------------7-7-|7-7-9-9-------------------------|
|5-5-6-6-7-7---------------------|--------7-7-----7-7---5-5-5-7---|
|------------7-------------------|--------------------------------|

 |       |       |       |        |       |       |       |        
|--------------------------------|--------------7-7---8---9-------|
|--------------------------------|--------------------------------|
|--7-7---5---5-------------------|7-7-----7-7---------------------|
|--------------4-4-4-5---5-5-7---|----7-7-----7---------------7-7-|

 |       |       |       |        |       |       |       |        
|--------------7-7---8---9-------|--------------------------------|
|----------------------------7-7-|7-7-9-9-------------------------|
|7-7-----7-7---------------------|--------7-7-----7-7---5-5-5-7---|
|----7-7-----7-------------------|--------------------------------|

 |       |       |       |        |       |       |       |        
|--------------------------------|--------------7-7---8---9-------|
|--------------------------------|--------------------------------|
|7-7-7-7-------------------------|7-7-----7-7---------------------|
|--------4---4-4-4-4-5---5-5-7---|----7-7-----7---------------7-7-|

 |       |       |       |        |       |       |       |        
|--------------7-7---8---9-------|--------------------------------|
|----------------------------7-7-|7-7-9-9-------------------------|
|5-5-6-6-7-7---------------------|--------7-7-----7---7-5-5-5-7---|
|------------7-------------------|--------------------------------|

 |       |       |       |        |       |       |       |        
|--------------------------------|--------------------------------|
|--------------------------------|--------0-0-1-2---------0-0-1-2-|
|7-7-7---7-----7-7-7-7-7-5-5-6-7-|--------------------------------|
|--------------------------------|--------------------------------|

 |       |       |       |        |       |       |       |        
|--------------------------------|--------------------------------|
|--------0-0-1-2-2-2---1-1-0-----|------------------------------0-|
|------------------------------4-|--------2-2-3-4---------2-2-4---|
|--------------------------------|--------------------------------|

 |       |       |       |        |       |       |       |        
|--------------------------------|--------------------------------|
|----------------------0-0-1---2-|--------------------------------|
|--------2-2-3-4-4-4-------------|------7-------7-------7-------7-|
|--------------------------------|--------------------------------|

 |       |       |       |        |       |       |       |        
|--------------------------------|--------------------------------|
|--------------------------------|--------------------------------|
|------7-------7-------7---------|--------------------------------|
|------------------------------7-|7-------------------------------|

 |       |       |       |        
|--------------------------------|
|--------------------------------|
|7-------------------------------|
|--------------------------------|


Created with TablEdit http://www.tabledit.com/
comments
print report bad tab
I want to post or [tab]
guest
You may want to rate the tab now too:
select rating
Please do not post tabs as comments. Select "correction" instead!