Oops, an error
Loading. Please wait.

The Lord Of The Wasteland Tab

ver1
ver1

Intro

Whole song

Interactive

More versions @911Tabs.com
480 views 3 this week
no commentswrite comment
1 2 3 4 5
please rate
add to favorites launch autoscroll
font size
0
reset
Autoscroll
+/-
esc
set tempo
stop
Contributor
Difficulty
Tuning
intermediate
D G C F A D
WARNING: You are trying to view
                                    content from Ultimate-Guitar.com
                                    in an unauthorized application,
                                    which is prohibited.

                                    Please use an official Ultimate
                                    Guitar Tabs application for iPhone,
                                    iPad or Android to access legitimate
                                    chords, guitar, bass, and drum tabs
                                    from Ultimate-Guitar.com database.

                                    Type "ultimate guitar tabs" in Apple
                                    App Store's or Android Market's
                                    search to find the application.
-------------------------------------------------------------------------------
                   The Lord of the Wasteland - Toxic Holocaust
-------------------------------------------------------------------------------
Tabbed by: MeTAL SOLDIER 
E-mail:

Tuning:DGCFAd

d|--------------------------------------------------------------------------|
A|--------------------------------------------------------------------------|
F|--------------------------------------------------------------------------|
C|--2-----2-----------------------------------------------------------------|
G|--2-----2------------2----------------------------------------------------|
D|--0--3--0---0--3--5-----5--3--0--0--2--3----------------------------------|


d|--------------------|
A|--------------------|
F|--------------------|
C|--2-----------------|
G|--2-----------------|
D|--0-----------------|



d|--------------------------------------------------------------------------|
A|--------------------------------------------------------------------------|
F|--------------------------------------------------------------------------|
C|--2-----2-----------------------------------------------------------------|
G|--2-----2------------2----------------------------------------------------|
D|--0--3--0---0--3--5-----5--3--0--0--2--3----------------------------------|


d|--------------------|
A|--------------------|
F|--------------------|
C|--2-----------------|
G|--2-----------------|
D|--0-----------------|



d|--------------------------------------------------------------------------|
A|--------------------------------------------------------------------------|
F|--------------------------------------------------------------------------|
C|--2-----2-----------------------------------------------------------------|
G|--2-----2------------2----------------------------------------------------|
D|--0--3--0---0--3--5-----5--3--0--0--2--3----------------------------------|



d|--------------------------------------------------------------------------|
A|--------------------------------------------------------------------------|
F|--------------------------------------------------------------------------|
C|---7-7-7-7-7/8---7-7-7-7-7\6---3------------------------------------------|
G|---7-7-7-7-7/8---7-7-7-7-7\6---5------------------------------------------|
D|---5-5-5-5-5/6---5-5-5-5-5\4---3------------------------------------------|



d|--------------------------------------------------------------------------|
A|--------------------------------------------------------------------------|
F|--------------------------------------------------------------------------|
C|--2-----2-----------------------------------------------------------------|
G|--2-----2------------2----------------------------------------------------|
D|--0--3--0---0--3--5-----5--3--0--0--2--3----------------------------------|

d|--------------------|
A|--------------------|
F|--------------------|
C|--2-----------------|
G|--2-----------------|
D|--0-----------------|



d|--------------------------------------------------------------------------|
A|--------------------------------------------------------------------------|
F|--------------------------------------------------------------------------|
C|--2-----2-----------------------------------------------------------------|
G|--2-----2------------2----------------------------------------------------|
D|--0--3--0---0--3--5-----5--3--0--0--2--3----------------------------------|

d|--------------------|
A|--------------------|
F|--------------------|
C|--2-----------------|
G|--2-----------------|
D|--0-----------------|




d|--------------------------------------------------------------------------|
A|--------------------------------------------------------------------------|
F|--------------------------------------------------------------------------|
C|--2-----2-----------------------------------------------------------------|
G|--2-----2------------2----------------------------------------------------|
D|--0--3--0---0--3--5-----5--3--0--0--2--3----------------------------------|

d|--------------------|
A|--------------------|
F|--------------------|
C|--2-----------------|
G|--2-----------------|
D|--0-----------------|



d|-----------------------------------------------|
A|-----------------------------------------------|
F|---5-5-5-5-5-5--3/7--4-4-4-4-4-----------------|
C|---5-5-5-5-5-5--5/7--4-4-4-4-4--3--------------|
G|---3-3-3-3-3-3--3/5--2-2-2-2-2--5--------------|
D|--------------------------------3--------------|



d|--------------------------------------------------------------------------|
A|--------------------------------------------------------------------------|
F|--------------------------------------------------------------------------|
C|--2-----2-----------------------------------------------------------------|
G|--2-----2------------2----------------------------------------------------|
D|--0--3--0---0--3--5-----5--3--0--0--2--3----------------------------------|

d|--------------------|
A|--------------------|
F|--------------------|
C|--2-----------------|
G|--2-----------------|
D|--0-----------------|



d|--------------------------------------------------------------------------|
A|--------------------------------------------------------------------------|
F|--------------------------------------------------------------------------|
C|--2-----2-----------------------------------------------------------------|
G|--2-----2------------2----------------------------------------------------|
D|--0--3--0---0--3--5-----5--3--0--0--2--3----------------------------------|

d|--------------------|
A|--------------------|
F|--------------------|
C|--2-----------------|
G|--2-----------------|
D|--0-----------------|



d|--------------------------------------------------------------------------|
A|--------------------------------------------------------------------------|
F|--------------------------------------------------------------------------|
C|---7-7-7-7-7/8---7-7-7-7-7\6---3------------------------------------------|
G|---7-7-7-7-7/8---7-7-7-7-7\6---5------------------------------------------|
D|---5-5-5-5-5/6---5-5-5-5-5\4---3------------------------------------------|



d|--------------------------------------------------------------------------|
A|--------------------------------------------------------------------------|
F|--------------------------------------------------------------------------|
C|--2-----2-----------------------------------------------------------------|
G|--2-----2------------2----------------------------------------------------|
D|--0--3--0---0--3--5-----5--3--0--0--2--3----------------------------------|



d|-----------------------------------------------|
A|-----------------------------------------------|
F|---5-5-5-5-5-5--3/7--4-4-4-4-4-----------------|
C|---5-5-5-5-5-5--5/7--4-4-4-4-4--3--------------|
G|---3-3-3-3-3-3--3/5--2-2-2-2-2--5--------------|
D|--------------------------------3--------------|



d|---------------------------------------------------------------------------|
A|---------------------------------------------------------------------------|
F|-----3-------5-------3-------5-------7--------3-------5-------3-------5----|
C|-----3-------5-------3-------5-------7--------3-------5-------3-------5--5-|
G|0-0--1--0-0--3--0-0--1--0-0--3--0-0--5----0-0-1--0-0--3--0-0--1--0-0--3--5-|
D|-------------------------------------------------------------------------3-|
  * *     * *     * *     * *     * *       * *    * *     * *     * *   


d|--------------------------------------------------------------------------|
A|--------------------------------------------------------------------------|
F|--------------------------------------------------------------------------|
C|-------2-------2--5/4----5-------5----------------------------------------|
G|-------2-------2--5/4----5-------5----------------------------------------|
D|--0-0--0--0-0--0--3/2--0-3--0-0--7----------------------------------------|
    * *     * *          *    * *



d|---------------------------------------------------------------------------|
A|---------------------------------------------------------------------------|
F|---------------------------------------------------------------------------|
C|------9-------9--10/9----10-------12-----------12--------12--14/12--12--10-|
G|------9-------9--10/9----10-------12-----------12--------12--14/12--12--10-|
D|-7-7--7--7-7--7---8/7--0--8--0-0--10----10-10--10-10-10--10--12/10--10---8-|
   * *     * *           *     * *         *  *      * *      


d|---------------------------------------------------------------------------|
A|---------------------------------------------------------------------------|
F|---------------------------------------------------------------------------|
C|------9-------9--10/9----10-------12-----------12--------12--14/12--12--10-|
G|------9-------9--10/9----10-------12-----------12--------12--14/12--12--10-|
D|-7-7--7--7-7--7---8/7--0--8--0-0--10----10-10--10-10-10--10--12/10--10---8-|
   * *     * *           *     * *         *  *      *  *



d|--------------------------------------------------------------------------|
A|--------------------------------------------------------------------------|
F|-------9-------9-------9-------9--9/10------------------------------------|
C|-------9-------9-------9-------9--9/10------------------------------------|
G|--7-7--7--7-7--7--7-7--7--7-7--7--7/8-------------------------------------|
D|--------------------------------------------------------------------------|
    * *     * *     * *     * * 



d|--------------------------------------------------------------------------|
A|--------------------------------------------------------------------------|
F|-------7-------7-------7-------7--7/8-------------------------------------|
C|-------7-------7-------7-------7--7/8-------------------------------------|
G|--5-5--5--5-5--5--5-5--5--5-5--5--5/6-------------------------------------|
D|--------------------------------------------------------------------------|
    * *     * *     * *     * *



d|-----------------------------------------------------------------------------|
A|-----------------------------------------------------------------------------|
F|--8-7-5------------8-7-5-----------8-7-5------------6--5--3------------------|
C|--------8-7-5--7--------8-7-5--5---------8-7-5--7------------6--5--3------2--|
G|---------------7---------------5----------------7-------------------------2--|
D|---------------5---------------3----------------5---------------------3b--0--|




************************************

| /   slide up
| \   slide down
| h   hammer-on
| p   pull-off
| ~   vibrato
| +   harmonic
| x   Mute note
| b   Bend
| pb  Pre-bend
| br  Bend release
| pbr Pre-bend release
| brb Bend release bend

************************************
comments
We did not receive enough feedback on this tab! Please rate:
print report bad tab
1 2 3 4 5
I want to post or [tab]
guest
You may want to rate the tab now too:
select rating
Please do not post tabs as comments. Select "correction" instead!