Oops, an error
Loading. Please wait.

Dueling Ninjas Tab

ver2
ver2

Whole song

Interactive

More versions @911Tabs.com
28,007 views 12 this week
1 commentread comment
1 2 3 4 5
excellent!
x 5
add to favorites launch autoscroll
font size
0
reset
Autoscroll
+/-
esc
set tempo
stop
Contributor
Difficulty
advanced
WARNING: You are trying to view
                                    content from Ultimate-Guitar.com
                                    in an unauthorized application,
                                    which is prohibited.

                                    Please use an official Ultimate
                                    Guitar Tabs application for iPhone,
                                    iPad or Android to access legitimate
                                    chords, guitar, bass, and drum tabs
                                    from Ultimate-Guitar.com database.

                                    Type "ultimate guitar tabs" in Apple
                                    App Store's or Android Market's
                                    search to find the application.
================================================================================
         Title : Dueling Ninjas
        Artist : Trace Bundy
         Album : Adapt
Transcribed by : Aidor
================================================================================

Just a couple of things to point out, firstly the tab isnt exactly spaced as it should
played, they're just spaced so that its readable, you should know how the song supposed
sound and shouldn't need me to space everything out right musically. Secondly, this song
LOTS of hammer-ons & pull-offs, and theres no way in hell i was going to write out all
h's & p's in the tab. Again, if you're planning on learning this, you should know how
meant to sound & therefore you shouldn't need me to write them.

For Reference:

Trace Bundys Version
====================
http://www.youtube.com/watch?v=XyY4LNkxOW0

My Version
==========
http://www.youtube.com/watch?v=KfHVrTAeaoU

My Slow Version
===============
http://www.youtube.com/watch?v=XO5K8W5G9PQ


TUNING - This song is in a tuning known as DADGAD for the obvious reason of thats how
strings are tuned. The 2 'E' strings are tuning down 1 tone to 'D' & the 'B' string is
down 1 tone to 'A'

e - d
B - A
G - G
D - D
A - A
E - D

Capo on 4th Fret

Legend
------
/ \  = slide up/down
<12> = natural harmonic


D|-----7----0--4--0--2--5--2--0----------------------------------------------------|
A|----0--------------------------5--0--3--5--3--0--3-------0--3--0-----------------|
G|---2-----------------------------------------------------------------------------|
D|--0---------------------------------------------------------------5--3--0--------|
A|-0-------------------------------------------------------------------------------|
D|0--------------------------------------------------------------------------------|


D|-----7----0--4--0--2--5--2--0----------------------------------------------------|
A|----0--------------------------5--0--3--5--3--0--3-------0--3--0-----------------|
G|---2-----------------------------------------------------------------------------|
D|--0---------------------------------------------------------------5--3--0--------|
A|-0-------------------------------------------------------------------------------|
D|0--------------------------------------------------------------------------------|


D|---4--0--5--0--7--0--8--0--5--0--7--0--7/8\7--0--5--0--3--0--5--0--2--0--3--0--3/5\3--0--2--0--------|
A|-----------------------------------------------------------------------------------------------3--0--|
G|-----------------------------------------------------------------------------------------------------|
D|-----------------------------------------------------------------------------------------------------|
A|0--------------------8---------------------------------------10--------------------------------------|
D|0--------------------8---------------------------------------10--------------------------------------|


D|8--0--5--0--7--0--7/8\7--0--5--0--3--0--5--0--2--0--3--0--3/5\3--0--2--0-----------------------------|
A|--------------------------------------------------------------------------3--0--1--0-----------------|
G|--------------------------------------------------------------------------------------3-0-2-0--------|
D|----------------------------------------------------------------------------------------------3-0----|
A|8---------------------------------------10-----------------------------------------------------------|
D|8---------------------------------------10-----------------------------------------------------------|


D|5-0-3-0-2-0-3-0-5-0-3-0-2-0-3-0-5-0-3-0-2-0--------------------------------------|
A|--------------------------------------------3-0-1-0------------------------------|
G|----------------------------------------------------3-0-2-0----------------------|
D|------------------------------------------------------------3-0------------------|
A|0--------------------------------------------------------------------------------|
D|0--------------------------------------------------------------------------------|


D|5-0-3-0-2-0-3-0-5-0-3-0-2-0------------------------------------------------------|
A|----------------------------3-0-1-0----------------------------------------------|
G|------------------------------------3-0-2-0--------------------------------------|
D|--------------------------------------------3-0-2-0------------------------------|
A|0---------------------------------------------------3-0-1-0----------------------|
D|0-----------------------------------------------------------3-0------------------|


D|5-0-3-0-2-0-3-0-5-0-7-0-8-0-7-0-5-0-3-0-2-0--------------------------------------|
A|--------------------------------------------3-0-1-0------------------------------|
G|----------------------------------------------------3-0-2-0----------------------|
D|------------------------------------------------------------3-0------------------|
A|0--------------------------------------------------------------------------------|
D|0--------------------------------------------------------------------------------|


D|5-0-3-0-2-0-3-0-5-0-3-0-2-0------------------------------------------------------|
A|----------------------------3-0-1-0----------------------------------------------|
G|------------------------------------3-0-2-0--------------------------------------|
D|--------------------------------------------3-0-2-0------------------------------|
A|0---------------------------------------------------3-0-1-0----------------------|
D|0-----------------------------------------------------------3-0------------------|


D|5-0-3-0-2-0-3-0-5-0-2-0-5-0-2-0-5-0-3-0-2-0-3-0-5-0-2-0-5-0-2-0------------------|
A|---------------------------------------------------------------------------------|
G|---------------------------------------------------------------------------------|
D|---------------------------------------------------------------------------------|
A|3-------------------------------5------------------------------------------------|
D|3-------------------------------5------------------------------------------------|


D|3-0-5-0-3-0-2-0-3-0-5-0-3-0-2-0-5-0-3-0-2-0--------------------------------------|
A|--------------------------------------------3-0-1-0------------------------------|
G|----------------------------------------------------3-0-2-0----------------------|
D|------------------------------------------------------------3-0------------------|
A|3---------------5---------------0------------------------------------------------|
D|3---------------5---------------0------------------------------------------------|


D|5-0-3-0-2-0-3-0-5-0-2-0-5-0-2-0-5-0-3-0-2-0-3-0-5-0-2-0-5-0-2-0------------------|
A|---------------------------------------------------------------------------------|
G|---------------------------------------------------------------------------------|
D|---------------------------------------------------------------------------------|
A|3-------------------------------5------------------------------------------------|
D|3-------------------------------5------------------------------------------------|


D|3-0-5-0-3-0-2-0-3-0-5-0-3-0-5-0-7-0-5-0-7-0-5-0-7-0-4-0-5-0-4-0-5-0-----5-0-----2-0-----2-0-----|
A|--------------------------------------------------------------------4-0-----4-0-----4-0-----4-0-|
G|------------------------------------------------------------------------------------------------|
D|------------------------------------------------------------------------------------------------|
A|3---------------5---------------7---------------------------------------------------------------|
D|3---------------5---------------7---------------------------------------------------------------|


D|5-0-4-0-2-0-4-0-5-0-4-0-2-0-4-0-5-0-4---------------<5>--------------------------|
A|--------------------------------------2-0-4-0-4/5--------------------------------|
G|---------------------------------------------------------------------------------|
D|---------------------------------------------------------------------------------|
A|0--------------------------------------------------------------------------------|
D|0--------------------------------------------------------------------------------|


D|4-0-----4-0-----4-0-----4-0-5-0-2-0-----2-0-----2-0-----2-0-4-0------------------|
A|----5-0-----5-0-----5-0-------------4-0-----4-0-----4-0--------------------------|
G|---------------------------------------------------------------------------------|
D|---------------------------------------------------------------------------------|
A|0---------------4---------------7------------------------------------------------|
D|0---------------4---------------7------------------------------------------------|


D|----4-0-----4-0-----4-0-----4-0--------------------------------------------------|
A|2-0-----2-0-----2-0-----2-0---------5-0-----5-0-----4-0-----4-0------------------|
G|--------------------------------2-0-----2-0-----2-0-----2-0----------------------|
D|---------------------------------------------------------------------------------|
A|9---------------4---------------7------------------------------------------------|
D|9---------------4---------------7------------------------------------------------|


D|--------------------------------------------------2-0-4--------------------------|
A|--------2-0-4-0-4/5\4-2-0-4-0---------2-0-4-0-5-0--------------------------------|
G|2-0-4-0-----------------------2-0-4-0--------------------------------------------|
D|---------------------------------------------------------------------------------|
A|5-----------------------------0-----------------------4--------------------------|
D|5-----------------------------0-----------------------4--------------------------|


D|------------------------------------------2-0-4-0-5-0-7-0-5-0--------------------|
A|--------2-0-4-0-4/5\4-2-0-4-0-2-0-4-0-5-0----------------------------------------|
G|2-0-4-0--------------------------------------------------------------------------|
D|---------------------------------------------------------------------------------|
A|5-----------------------------7--------------------------------------------------|
D|5-----------------------------7--------------------------------------------------|


D|4-0-----4-0-----4-0-----4-0-5-0-2-0-----2-0-----2-0-----2-0-4-0------------------|
A|----5-0-----5-0-----5-0-------------4-0-----4-0-----4-0--------------------------|
G|---------------------------------------------------------------------------------|
D|---------------------------------------------------------------------------------|
A|0---------------4---------------7------------------------------------------------|
D|0---------------4---------------7------------------------------------------------|


D|----4-0-----4-0-----4-0-----4-0--------------------------------------------------|
A|2-0-----2-0-----2-0-----2-0---------5-0-----5-0-----4-0-----4-0------------------|
G|--------------------------------2-0-----2-0-----2-0-----2-0----------------------|
D|---------------------------------------------------------------------------------|
A|9---------------4---------------7------------------------------------------------|
D|9---------------4---------------7------------------------------------------------|


D|--------------------------------------------------2-0-4--------------------------|
A|--------2-0-4-0-4/5\4-2-0-4-0---------2-0-4-0-5-0--------------------------------|
G|2-0-4-0-----------------------2-0-4-0--------------------------------------------|
D|---------------------------------------------------------------------------------|
A|5-----------------------------0-----------------------4--------------------------|
D|5-----------------------------0-----------------------4--------------------------|


D|------------------------------------------2-0-4-0-5-0-7-0-5-0-4-0-5-0-----5-0-----2-0-----2-0--|
A|--------2-0-4-0-4/5\4-2-0-4-0-2-0-4-0-5-0-----------------------------4-0-----4-0-----4-0------|
G|2-0-4-0----------------------------------------------------------------------------------------|
D|-----------------------------------------------------------------------------------------------|
A|5-----------------------------7----------------------------------------------------------------|
D|5-----------------------------7----------------------------------------------------------------|

D|5-0-4-0-2-0-4-0-5-0-4-0-2-0-4-0-5-0-4-0-2-0-----2-0-4-0-5-0-7-0------------------|
A|--------------------------------------------2-0----------------------------------|
G|---------------------------------------------------------------------------------|
D|---------------------------------------------------------------------------------|
A|0--------------------------------------------------------------------------------|
D|0--------------------------------------------------------------------------------|


D|8--0--5--0--7--0--7/8\7--0--5--0--3--0--5--0--2--0--3--0--3/5\3--0--2--0---------|
A|--------------------------------------------------------------------------3--0---|
G|---------------------------------------------------------------------------------|
D|---------------------------------------------------------------------------------|
A|8---------------------------------------10---------------------------------------|
D|8---------------------------------------10---------------------------------------|


D|8--0--5--0--7--0--7/8\7--0--5--0--3--0--5--0--2--0--3--0--3/5\3--0--2--0-----------------------------|
A|--------------------------------------------------------------------------3--0--1--0-----------------|
G|--------------------------------------------------------------------------------------3-0-2-0--------|
D|----------------------------------------------------------------------------------------------3-0----|
A|8---------------------------------------10-----------------------------------------------------------|
D|8---------------------------------------10-----------------------------------------------------------|


D|5-0-3-0-2-0-3-0-5-0-3-0-2-0------------------------------------------------------|
A|----------------------------3-0-1-0----------------------------------------------|
G|------------------------------------3-0-2-0--------------------------------------|
D|--------------------------------------------3-0-2-0------------------------------|
A|0---------------------------------------------------3-0-1-0----------------------|
D|0-----------------------------------------------------------3-0------------------|


D|5-0-3-0-2-0-3-0-5-0-3-0-2-0------------------------------------------------------|
A|----------------------------3-0-1-0----------------------------------------------|
G|------------------------------------3-0-2-0--------------------------------------|
D|--------------------------------------------3-0-2-0------------------------------|
A|0---------------------------------------------------3-0-1-0----------------------|
D|0-----------------------------------------------------------3-0------------------|

In this next section the '*' indicates on what note the harmonics are played. Also the
that say <21> are more than likely to be way past the last fret on your guitar, so you'll
to find them. watch my video (the link above) to see what i mean, cos its hard to explain.


                                  *                               *               *
*       *
D|5-0-3-0-2-0-3-0-5-0-3-0-2-0-3-0-5-0-3-0-2-0-3-0-5-0-3-0-2-0-3-0-5-0-3-0-2-0-3-0-5-0-3-0-2-0-3-0-5-0-3-0-2-0---------|
A|------------------------------------------------------------------------------------------------------------3-0-1-0-|
G|-------------------------------<21>----------------------------<12>-------------------------------------------------|
D|-------------------------------------------------------------------------------<21>------------<12>-----------------|
A|0--------------------------------------------------------------------------------------<21>-------------------------|
D|0-------------------------------------------------------------------------------------------------------------------|


D|------------|
A|------------|
G|3-0-2-0-----|
D|--------3-0-|
A|------------|
D|------------|

                                  *                               *               *
*       *
D|5-0-3-0-2-0-3-0-5-0-3-0-2-0-3-0-5-0-3-0-2-0-3-0-5-0-3-0-2-0-3-0-5-0-3-0-2-0-3-0-5-0-3-0-2-0-3-0-5-0-3-0-2-0---------|
A|------------------------------------------------------------------------------------------------------------3-0-1-0-|
G|-------------------------------<21>----------------------------<12>-------------------------------------------------|
D|-------------------------------------------------------------------------------<21>------------<12>-----------------|
A|0--------------------------------------------------------------------------------------<21>-------------------------|
D|0-------------------------------------------------------------------------------------------------------------------|


D|------------|
A|------------|
G|3-0-2-0-----|
D|--------3-0-|
A|------------|
D|------------|


                                  *               *               *               *
*       *
D|5-0-3-0-2-0-3-0-5-0-3-0-2-0-3-0-5-0-3-0-2-0-3-0-5-0-3-0-2-0-3-0-5-0-3-0-2-0-3-0-5-0-3-0-2-0-3-0-5-0-3-0-2-0---------|
A|-------------------------------<22>-------------------------------------------------------------------------3-0-1-0-|
G|-----------------------------------------------<21>------------<12>-------------------------------------------------|
D|-------------------------------------------------------------------------------<21>------------<12>-----------------|
A|0--------------------------------------------------------------------------------------<21>-------------------------|
D|0-------------------------------------------------------------------------------------------------------------------|


D|------------|
A|------------|
G|3-0-2-0-----|
D|--------3-0-|
A|------------|
D|------------|


                                  *               *               *               *
*       *
D|5-0-3-0-2-0-3-0-5-0-3-0-2-0-3-0-5-0-3-0-2-0-3-0-5-0-3-0-2-0-3-0-5-0-3-0-2-0-3-0-5-0-3-0-2-0-3-0-5-0-3-0-2-0---------|
A|-------------------------------<22>-------------------------------------------------------------------------3-0-1-0-|
G|-----------------------------------------------<21>------------<12>-------------------------------------------------|
D|-------------------------------------------------------------------------------<21>------------<12>-----------------|
A|0--------------------------------------------------------------------------------------<21>-------------------------|
D|0-------------------------------------------------------------------------------------------------------------------|


D|------------|
A|------------|
G|3-0-2-0-----|
D|--------3-0-|
A|------------|
D|------------|


D|5-0-3-0-2-0-3-0-5-0-2-0-5-0-2-0-5-0-3-0-2-0-3-0-5-0-2-0-5-0-2-0------------------|
A|---------------------------------------------------------------------------------|
G|---------------------------------------------------------------------------------|
D|---------------------------------------------------------------------------------|
A|3-------------------------------5------------------------------------------------|
D|3-------------------------------5------------------------------------------------|


D|3-0-5-0-3-0-2-0-3-0-5-0-3-0-2-0-5-0-3-0-2-0--------------------------------------|
A|--------------------------------------------3-0-1-0------------------------------|
G|----------------------------------------------------3-0-2-0----------------------|
D|------------------------------------------------------------3-0------------------|
A|3---------------5---------------0------------------------------------------------|
D|3---------------5---------------0------------------------------------------------|


D|5-0-3-0-2-0-3-0-5-0-2-0-5-0-2-0-5-0-3-0-2-0-3-0-5-0-2-0-5-0-2-0------------------|
A|---------------------------------------------------------------------------------|
G|---------------------------------------------------------------------------------|
D|---------------------------------------------------------------------------------|
A|3-------------------------------5------------------------------------------------|
D|3-------------------------------5------------------------------------------------|


D|3-0-5-0-3-0-2-0-3-0-5-0-3-0-5-0-7-0-5-0-7-0-5-0-7-0-4-0-5-0-4-0-5-0-----5-0-----2-0-----2-0-----|
A|--------------------------------------------------------------------4-0-----4-0-----4-0-----4-0-|
G|------------------------------------------------------------------------------------------------|
D|------------------------------------------------------------------------------------------------|
A|3---------------5---------------7---------------------------------------------------------------|
D|3---------------5---------------7---------------------------------------------------------------|


D|5-0-4-0-2-0-4-0-5-0-4-0-2-0-4-0-5-0-4---------------<5>--------------------------|
A|--------------------------------------2-0-4-0-4/5--------------------------------|
G|---------------------------------------------------------------------------------|
D|---------------------------------------------------------------------------------|
A|0--------------------------------------------------------------------------------|
D|0--------------------------------------------------------------------------------|


D|4-0-----4-0-----4-0-----4-0-5-0-2-0-----2-0-----2-0-----2-0-4-0------------------|
A|----5-0-----5-0-----5-0-------------4-0-----4-0-----4-0--------------------------|
G|---------------------------------------------------------------------------------|
D|---------------------------------------------------------------------------------|
A|0---------------4---------------7------------------------------------------------|
D|0---------------4---------------7------------------------------------------------|


D|----4-0-----4-0-----4-0-----4-0--------------------------------------------------|
A|2-0-----2-0-----2-0-----2-0---------5-0-----5-0-----4-0-----4-0------------------|
G|--------------------------------2-0-----2-0-----2-0-----2-0----------------------|
D|---------------------------------------------------------------------------------|
A|9---------------4---------------7------------------------------------------------|
D|9---------------4---------------7------------------------------------------------|


D|--------------------------------------------------2-0-4--------------------------|
A|--------2-0-4-0-4/5\4-2-0-4-0---------2-0-4-0-5-0--------------------------------|
G|2-0-4-0-----------------------2-0-4-0--------------------------------------------|
D|---------------------------------------------------------------------------------|
A|5-----------------------------0-----------------------4--------------------------|
D|5-----------------------------0-----------------------4--------------------------|


D|------------------------------------------2-0-4-0-5-0-7-0-5-0--------------------|
A|--------2-0-4-0-4/5\4-2-0-4-0-2-0-4-0-5-0----------------------------------------|
G|2-0-4-0--------------------------------------------------------------------------|
D|---------------------------------------------------------------------------------|
A|5-----------------------------7--------------------------------------------------|
D|5-----------------------------7--------------------------------------------------|


D|4-0-----4-0-----4-0-----4-0-5-0-2-0-----2-0-----2-0-----2-0-4-0------------------|
A|----5-0-----5-0-----5-0-------------4-0-----4-0-----4-0--------------------------|
G|---------------------------------------------------------------------------------|
D|---------------------------------------------------------------------------------|
A|0---------------4---------------7------------------------------------------------|
D|0---------------4---------------7------------------------------------------------|


D|----4-0-----4-0-----4-0-----4-0--------------------------------------------------|
A|2-0-----2-0-----2-0-----2-0---------5-0-----5-0-----4-0-----4-0------------------|
G|--------------------------------2-0-----2-0-----2-0-----2-0----------------------|
D|---------------------------------------------------------------------------------|
A|9---------------4---------------7------------------------------------------------|
D|9---------------4---------------7------------------------------------------------|


D|--------------------------------------------------2-0-4--------------------------|
A|--------2-0-4-0-4/5\4-2-0-4-0---------2-0-4-0-5-0--------------------------------|
G|2-0-4-0-----------------------2-0-4-0--------------------------------------------|
D|---------------------------------------------------------------------------------|
A|5-----------------------------0-----------------------4--------------------------|
D|5-----------------------------0-----------------------4--------------------------|


D|---------------------------------------------------------------------------------|
A|--------2-0-4-0-4/5\4-2-0-4-0---------2-0-4-0-4/5\4-2-0-4-0----------------------|
G|2-0-4-0-----------------------2-0-4-0--------------------------------------------|
D|---------------------------------------------------------------------------------|
A|2-----------------------------4--------------------------------------------------|
D|2-----------------------------4--------------------------------------------------|


D|------------------------------------------2-0-4-0-5-0-7-0-5-0-4-0-5-0-----5-0-----2-0-----2-0--|
A|--------2-0-4-0-4/5\4-2-0-4-0-2-0-4-0-5-0-----------------------------4-0-----4-0-----4-0------|
G|2-0-4-0----------------------------------------------------------------------------------------|
D|-----------------------------------------------------------------------------------------------|
A|5-----------------------------7----------------------------------------------------------------|
D|5-----------------------------7----------------------------------------------------------------|


D|----7-0-----2-0-----7-0-----2-0-----7-0-----2-0-----7-0-----2-0------------------|
A|4-0-----4-0-----4-0-----4-0-----4-0-----4-0-----4-0-----4-0----------------------|
G|---------------------------------------------------------------------------------|
D|---------------------------------------------------------------------------------|
A|---------------------------------------------------------------------------------|
D|---------------------------------------------------------------------------------|


D|5-0-4-0-2-0-4-0-5-0-4-0-2-0-4-0-5-0-4-----------------------0--------------------|
A|--------------------------------------2-0-4-0-4/5----------5---------------------|
G|----------------------------------------------------------0--------2-------------|
D|---------------------------------------------------------0-----4--------4--------|
A|0-------------------------------------------------------0----------------0-------|
D|0-------------------------------------------------------------------------0------|
comments
print report bad tab
1 comment total.
0 reply
a2peter318 wrote on January 3 2010, 05:45 pm

the first line is just a little off it is actually
D|-----7----0--4--0--2--5--2--0----------------------------------------------------|
A|----0--------------------------5--0--3--5--3--0--3--0-----------------------------|
G|---2---------------------------------------------------5--3------------------------|
D|--0---------------------------------------------------------------5--3--0--------|
A|-0-------------------------------------------------------------------------------|
D|0--------------------------------------------------------------------------------|

D|-----7----0--4--0--2--5--2--0----------------------------------------------------|

I want to post or [tab]
guest
You may want to rate the tab now too:
select rating
Please do not post tabs as comments. Select "correction" instead!