Oops, an error
Loading. Please wait.

An Paistin Fionn Tab

11,039 views 29 this week
no commentswrite comment
1 2 3 4 5
excellent!
x 1
add to favorites launch autoscroll
font size
0
reset
Autoscroll
+/-
esc
set tempo
stop
Contributor
WARNING: You are trying to view
                                    content from Ultimate-Guitar.com
                                    in an unauthorized application,
                                    which is prohibited.

                                    Please use an official Ultimate
                                    Guitar Tabs application for iPhone,
                                    iPad or Android to access legitimate
                                    chords, guitar, bass, and drum tabs
                                    from Ultimate-Guitar.com database.

                                    Type "ultimate guitar tabs" in Apple
                                    App Store's or Android Market's
                                    search to find the application.
Traditional Irish - An Páistín Fionn

Song is played in 6/8

00:00
E||-----------1-------|-----------1-------|
B||-------------------|-------------------|
G||-------------------|--------3-------3--|
D||--------3-------3--|-----3-------------|
A||-----3-------------|--1----------------|
E||--1----------------|-------------------|

-----------1-------|-----------------1--|
-------------------|--------------1-----|
--------3-------3--|-----------3--------|
-----3-------------|--------5-----------|
--0----------------|-----5--------------|
-------------------|--3-----------------|

-----------1-------|-----------1-------|
-------------------|-------------------|
-------------------|--------3-------3--|
--------3-------3--|-----3-------------|
-----3-------------|--1----------------|
--1----------------|-------------------|

-------------1----|---------------|
------------------|--1------------|
--------5---------|--2------------|
-----5------------|--3------------| Repeat twice
--3---------------|--3------------|
------------------|--1------------|

00:31
-----------1-------|-----------1-------|
-------------------|--------1-------1--|
-------------------|-----3-------------|
--------3-------3--|--1----------------|
-----3-------------|-------------------|
--1----------------|-------------------|

-----------1-------|-----------1-------|
-------------------|-------------------|
--------3-------3--|-------------------|
-----3-------------|--------3-------3--|
--1----------------|-----3-------------|
-------------------|--1----------------|
 
--------1---------|-------------1----|
------------------|------------------|
------------------|--------3---------|
------------------|-----3------------|
-----3-------0----|--1---------------|
--1---------------|------------------|

-------------1----|--1------------|
------------------|--1------------|
--------3---------|--2------------|
-----3------------|--3------------|
--0---------------|--3------------|
------------------|--1------------|

1:10
-----------1-------|-----------1-------|
-------------------|-------------------|
-------------------|--------3-------3--|
--------3-------3--|-----3-------------|
-----3-------------|--1----------------|
--1----------------|-------------------|

-----------1-------|-----------------1--|
-------------------|--------------1-----|
--------3-------3--|-----------3--------|
-----3-------------|--------5-----------|
--0----------------|-----5--------------|
-------------------|--3-----------------|

-----------1-------|-----------1-------|
-------------------|-------------------|
-------------------|--------3-------3--|
--------3-------3--|-----3-------------|
-----3-------------|--1----------------|
--1----------------|-------------------|

-------------1----|---------------|
------------------|--1------------|
--------5---------|--2------------|
-----5------------|--3------------|
--3---------------|--3------------|
------------------|--1------------|

1:20
-----------1-------|-----------1-------|
-------------------|--------1-------1--|
-------------------|-----3-------------|
--------3-------3--|--1----------------|
-----3-------------|-------------------|
--1----------------|-------------------|

-----------1-------|-----------1-------|
-------------------|-------------------|
--------3-------3--|-------------------|
-----3-------------|--------3-------3--|
--1----------------|-----3-------------|
-------------------|--1----------------|
 
--------1---------|-------------1----|
------------------|------------------|
------------------|--------3---------|
------------------|-----3------------|
-----3-------0----|--1---------------|
--1---------------|------------------|

-------------1----|--1------------|
------------------|--1------------|
--------3---------|--2------------|
-----3------------|--3------------|
--0---------------|--3------------|
------------------|--1------------|

2:04
-----------1-------|-----------1-------|
-------------------|-------------------|
-------------------|--------3-------3--|
--------3-------3--|-----3-------------|
-----3-------------|--1----------------|
--1----------------|-------------------|

-----------1-------|-----------------1--|
-------------------|--------------1-----|
--------3-------3--|-----------3--------|
-----3-------------|--------5-----------|
--0----------------|-----5--------------|
-------------------|--3-----------------|

-----------1-------|-----------1-------|
-------------------|-------------------|
-------------------|--------3-------3--|
--------3-------3--|-----3-------------|
-----3-------------|--1----------------|
--1----------------|-------------------|

-------------1----|---------------|
------------------|--1------------|
--------5---------|--2------------|
-----5------------|--3------------|
--3---------------|--3------------|
------------------|--1------------|

2:14
-----------1-------|-----------1-------|
-------------------|--------1-------1--|
-------------------|-----3-------------|
--------3-------3--|--1----------------|
-----3-------------|-------------------|
--1----------------|-------------------|

-----------1-------|-----------1-------|
-------------------|-------------------|
--------3-------3--|-------------------|
-----3-------------|--------3-------3--|
--1----------------|-----3-------------|
-------------------|--1----------------|
 
--------1---------|-------------1----|
------------------|------------------|
------------------|--------3---------|
------------------|-----3------------|
-----3-------0----|--1---------------|
--1---------------|------------------|

-------------1----|--1------------|
------------------|--1------------|
--------3---------|--2------------|
-----3------------|--3------------|
--0---------------|--3------------|
------------------|--1------------|

2:26
-----------1-------|------------------|
-------------------|------------------|
-------------------|------------------|
--------3-------3--|------------------|
-----3-------------|----------3----3--|
--1----------------|--1----1----------|

-----------1-------|-------------1----|
-------------------|------------------|
--------3-------3--|--------5---------|
-----3-------------|-----5------------|
--1----------------|--3---------------|
-------------------|------------------|

-----------1-------|-----------------|
-------------------|-----------------|
-------------------|--------3--------|
--------3-------3--|-----3-----------|
-----3-------------|--1--------------|
--1----------------|-----------------|

-----------1-------|-------------1----|
-------------------|------------------|
-------------------|--------3---------|
--------3-------3--|-----3------------|
-----3-------------|--1---------------|
--1----------------|------------------|

-----------1-------|-------------1----|
-------------------|------------------|
-------------------|------------------|
--------3-------3--|------------------|
-----3-------------|----------3-------|
--1----------------|--1----1----------|

-----------1-------|-------------1----|
-------------------|------------------|
--------3-------3--|--------5---------|
-----3-------------|-----5------------|
--1----------------|--3---------------|
-------------------|------------------|

-------------1----|------------1----|
------------------|-----------------|
------------------|-----------------|
--------3---------|-------3---------|
-----3------------|--1--------------|
--1---------------|-----------------|

------------1----|---------------|
-----------------|--1------------|
-----------------|--2------------|
-------3---------|--3------------|
--3--------------|--3------------|
-----------------|--1------------|

2:48
-----------1-------|-----------1-------|
-------------------|-------------------|
-------------------|--------3-------3--|
--------3-------3--|-----3-------------|
-----3-------------|--1----------------|
--1----------------|-------------------|

-----------1-------|-----------------1--|
-------------------|--------------1-----|
--------3-------3--|-----------3--------|
-----3-------------|--------5-----------|
--0----------------|-----5--------------|
-------------------|--3-----------------|

-----------1-------|-----------1-------|
-------------------|-------------------|
-------------------|--------3-------3--|
--------3-------3--|-----3-------------|
-----3-------------|--1----------------|
--1----------------|-------------------|

-------------1----|---------------|
------------------|--1------------|
--------5---------|--2------------|
-----5------------|--3------------|
--3---------------|--3------------|
------------------|--1------------|

2:58
-----------1-------|-----------1-------|
-------------------|--------1-------1--|
-------------------|-----3-------------|
--------3-------3--|--1----------------|
-----3-------------|-------------------|
--1----------------|-------------------|

-----------1-------|-----------1-------|
-------------------|-------------------|
--------3-------3--|-------------------|
-----3-------------|--------3-------3--|
--1----------------|-----3-------------|
-------------------|--1----------------|
 
--------1---------|-------------1----|
------------------|------------------|
------------------|--------3---------|
------------------|-----3------------|
-----3-------0----|--1---------------|
--1---------------|------------------|

-------------1----|--1------------|
------------------|--1------------|
--------3---------|--2------------|
-----3------------|--3------------|
--0---------------|--3------------|
------------------|--1------------|

3:39
-----------1-------|-----------1-------|
-------------------|-------------------|
-------------------|--------3-------3--|
--------3-------3--|-----3-------------|
-----3-------------|--1----------------|
--1----------------|-------------------|

-----------1-------|-----------------1--|
-------------------|--------------1-----|
--------3-------3--|-----------3--------|
-----3-------------|--------5-----------|
--0----------------|-----5--------------|
-------------------|--3-----------------|

-----------1-------|-----------1-------|
-------------------|-------------------|
-------------------|--------3-------3--|
--------3-------3--|-----3-------------|
-----3-------------|--1----------------|
--1----------------|-------------------|

-------------1----|---------------|
------------------|--1------------|
--------3---------|--2------------|
-----3------------|--3------------|
--3---------------|--3------------|
------------------|--1------------|

3:49
-----------1-------|-----------1-------|
-------------------|--------1-------1--|
-------------------|-----3-------------|
--------3-------3--|--1----------------|
-----3-------------|-------------------|
--1----------------|-------------------|

-----------1-------|-----------1-------|
-------------------|-------------------|
--------3-------3--|-------------------|
-----3-------------|--------3-------3--|
--1----------------|-----3-------------|
-------------------|--1----------------|
 
--------1---------|-------------1----|
------------------|------------------|
------------------|--------3---------|
------------------|-----3------------|
-----3-------0----|--1---------------|
--1---------------|------------------|

-------------1----|--1------------|
------------------|--1------------|
--------3---------|--2------------|
-----3------------|--3------------|
--0---------------|--3------------|
------------------|--1------------|

4:01
-----------1-------|------------------|
-------------------|------------------|
-------------------|------------------|
--------3-------3--|------------------|
-----3-------------|----------3----3--|
--1----------------|--1----1----------|

-------------------|-------------1----|
-----------1-------|------------------|
--------3-------3--|--------5---------|
-----3-------------|-----5------------|
--1----------------|--3---------------|
-------------------|------------------|

-----------1-------|-------------1----|
-------------------|------------------|
-------------------|--------3---------|
--------3-------3--|-----3------------|
-----3-------------|--1---------------|
--1----------------|------------------|

-----------1-------|-------------1----|
-------------------|------------------|
-------------------|--------3---------|
--------3-------3--|-----3------------|
-----3-------------|--1---------------|
--1----------------|------------------|

-----------1-------|-----------1--------|
-------------------|--------------------|
-------------------|--------------------|
--------3-------3--|--------3-----3-----|
-----3-------------|-----3-----------3--|
--1----------------|--1-----------------|

-------------1----|-----------1--------|
------------------|--------------------|
--------3---------|--------5-----5-----|
-----3------------|-----5-----------5--|
--1---------------|--3-----------------|
------------------|--------------------|

-----------1--------|-------------1----|
--------------------|------------------|
--------------------|--------3---------|
--------3-----3-----|-----3------------|
-----3-----------3--|--1---------------|
--1-----------------|------------------|

-------------1----|---------------|
------------------|--1------------|
--------5---------|--2------------|
-----5------------|--3------------|
--3---------------|--3------------|
------------------|--1------------|

4:23
-----------1-------|-----------1-------|
-------------------|-------------------|
-------------------|--------3-------3--|
--------3-------3--|-----3-------------|
-----3-------------|--1----------------|
--1----------------|-------------------|

-----------1-------|-----------------1--|
-------------------|--------------1-----|
--------3-------3--|-----------3--------|
-----3-------------|--------5-----------|
--0----------------|-----5--------------|
-------------------|--3-----------------|

-----------1-------|-----------1-------|
-------------------|-------------------|
-------------------|--------3-------3--|
--------3-------3--|-----3-------------|
-----3-------------|--1----------------|
--1----------------|-------------------|

-------------1----|---------------|
------------------|--1------------|
--------5---------|--2------------|
-----5------------|--3------------|
--3---------------|--3------------|
------------------|--1------------|

4:33
||-----------1-------|-----------1-------|
||-------------------|--------1-------1--|
||-------------------|-----3-------------|
||--------3-------3--|--1----------------|
||-----3-------------|-------------------|
||--1----------------|-------------------|

-----------1-------|-----------1-------|
-------------------|-------------------|
--------3-------3--|-------------------|
-----3-------------|--------3-------3--|
--1----------------|-----3-------------|
-------------------|--1----------------|
 
--------1---------|-------------1----|
------------------|------------------|
------------------|--------3---------|
------------------|-----3------------|
-----3-------0----|--1---------------|
--1---------------|------------------|

-------------1----|--1------------||
------------------|--1------------||
--------3---------|--2------------|| Play twice
-----3------------|--3------------||
--0---------------|--3------------||
------------------|--1------------||

comments
We did not receive enough feedback on this tab! Please rate:
print report bad tab
1 2 3 4 5
I want to post or [tab]
guest
You may want to rate the tab now too:
select rating
Please do not post tabs as comments. Select "correction" instead!