Oops, an error
Loading. Please wait.

Impossibilium Tab

649 views 1 this week
1 commentread comment
1 2 3 4 5
excellent!
x 1
Autoscroll
+/-
esc
set tempo
stop
Contributor
WARNING: You are trying to view
                                    content from Ultimate-Guitar.com
                                    in an unauthorized application,
                                    which is prohibited.

                                    Please use an official Ultimate
                                    Guitar Tabs application for iPhone,
                                    iPad or Android to access legitimate
                                    chords, guitar, bass, and drum tabs
                                    from Ultimate-Guitar.com database.

                                    Type "ultimate guitar tabs" in Apple
                                    App Store's or Android Market's
                                    search to find the application.
-----------------------------------------------------------------------
                   Impossibilium – The Tragically Hip
-----------------------------------------------------------------------
Tabbed by: Sean Hartery
Email: cheeseyburgerboy@hotmail.com
Tuning: Standard 
  INTRO
e|----------------|----------------|----------------|----------------|
B|------------3---|--3-----3-----3-|------3-----3---|--3-----3-----3-|     
G|------0-------0^^0---0-----0-----|--------------0^^0---0-----0-----|
D|----2-----------|------2-----2---|2---2-----------|------2-----2---|
A|--0-----3-------|----------------|--0-----3-------|----------------|
E|3---------------|----------------|----------------|----------------|

e|----------------|----------------|----------------|----------------|
B|------3-----3---|--3-----3-----3-|------3-----3---|--3-----3-----3-|
G|--------------0^^0---0-----0-----|0---0-0-------0^^0---0-----0-----|
D|----2-----------|------2-----2---|--2-------------|------2-----2---|
A|--0-----3-------|----------------|--------3-------|----------------|
E|3---------------|----------------|----------------|----------------|
  Fig. 1                            Pre Verse
e|----------------|----------------|----------------|----------------|
B|------------3---|--3-----3-----3-|------------3---|--3-----3-------|
G|------0-0-----0^^0---0-----0-----|------0-0-----0^^0---0---0---0-0-|
D|----2---2-------|------2-----2---|----2---2-------|------2---2-2-2-|
A|--0-----3-------|----------------|--0-----3-------|----------------|
E|3---------------|----------------|3---------------|----------------|
  Verse 
e|----------------|----------------|----------------|----------------|
B|----------------|----------------|3---------------^3-----3---3-----|
G|5---------------^5---------5-----|4---------------^4-----4---4-----|x
D|7---------------^7---------7-----|5---------------^5-----5---5-----|5
A|----------------|----------------|----------------|----------------|
E|----------------|----------------|----------------|----------------|
  Pre-Chorus                         (1st time only)
e|----------------|----------------|----------------|----------------|
B|------7---------^7-----------7---|----------------|------5-----5---|
G|5-----7---------^7---------------|\5--------------^5---------5-----|x
D|5-----7---------^7---------------|----------------|----7------7----|2
A|------5---------^5---------------|----------------|----------------|
E|----------------|----------------|----------------|----------------|
  (2nd time play this guitar fill)
e|----------------|----------------|----------------|----------------|
B|5---------------^5-------5-5-----|3-----------3---|----------------|
G|5---------------^5-------5-5-----|4---------------|5p4-------------|
D|7---------------^7-------7-7-----|5---------------|------5-----5/7-^
A|----------------|----------------|----------------|----------------|
E|----------------|----------------|----------------|----------------|

e|------------5-3-^3-----------5---|----------------|----------------|
B|----------------|--------------5-^5-----------5\--|5-3-------------|
G|----------------|----------------|----------------|------5\--4---2-|
D|7---------------|----------------|----------------|----------------|
A|----------------|----------------|----------------|----------------|
E|----------------|----------------|----------------|----------------|


Verse 
e|----------------|----------------|----------------|----------------|
B|----------------|----------------|3---------------^3-----3---3-----|
G|5---------------^5---------5-----|4---------------^4-----4---4-----|x
D|7---------------^7---------7-----|5---------------^5-----5---5-----|3
A|----------------|----------------|----------------|----------------|
E|----------------|----------------|----------------|----------------|

  Pre-Chorus                       | (1st time only)
e|----------------|----------------|----------------|----------------|
B|------7---------^7-----------7---|----------------|------5-----5---|
G|5-----7---------^7---------------|\5--------------^5---------5-----|x
D|5-----7---------^7---------------|----------------|----7------7----|2
A|------5---------^5---------------|----------------|----------------|
E|----------------|----------------|----------------|----------------|

Fig. 1                            
e|----------------|----------------|----------------|----------------|
B|------------3---|--3-----3-----3-|------------3---|--3-----3-----3-|
G|------0-0-----0^^0---0-----0-----|------0-0-----0^^0---0-----0-----|x
D|----2---2-------|------2-----2---|----2---2-------|------2-----2---|2
A|--0-----3-------|----------------|--0-----3-------|----------------|
E|3---------------|----------------|3---------------|----------------|

e|----------------|----------------|----------------|----------------|
B|----------------|----------------|----------------|----------------|
G|2-----5---------|----------------|2-----5---------|----------------|
D|2-----5---------|----------------|2-----5---------|----------------|
A|0-----3-----5---^5-----------5---|0-----3-----5---^5-------5-555---|
E|------------3---^3-----------3---|------------3---^3-------3-333---|
  To Coda 
e|----------------|----------------|----------------|----------------|
B|----------------|----------------|------------3---^3---------------|
G|----------------|----------------|------------2---^2---------------|
D|2-----5---------|----------------|2-----5-----0---^0---5-----------|
A|0-----3-----5---^5-----555-5-5\--|0-----3---------|----5-----------|
E|------------3---^3-----333-3-----|----------------|----3-----------|
  Guitar Fill
e|5---------------^5---------------|----------------|--------3-5-----|
B|5---------------^5---------------|/8--------------^--------------5-|
G|5---------------^5---------------|----------------|----------------|
D|7---------------^7---------------|----------------|----------------|
A|7---------------^7---------------|----------------|----------------|
E|5---------------^5---------------|----------------|----------------|
             (*that’s a 2 then 0 not 20)             D.S. al Coda
e|----------------|----------------|----------------|----------------|
B|5---------------|5p435-p35-p35/--^8---5-5-5\3-1-3-^3---------------|
G|----------------|----------------|0---------------|--------------20|*
D|----------------|----------------|----------------|----------------|
A|----------------|----------------|----------------|----------------|
E|----------------|----------------|----------------|----------------|






Verse 
e|----------------|----------------|----------------|----------------|
B|----------------|----------------|3---------------^3-----3---3-----|
G|5---------------^5---------5-----|4---------------^4-----4---4-----|x
D|7---------------^7---------7-----|5---------------^5-----5---5-----|3
A|----------------|----------------|----------------|----------------|
E|----------------|----------------|----------------|----------------|

  Pre-Chorus                       | (1st time only)
e|----------------|----------------|----------------|----------------|
B|------7---------^7-----------7---|----------------|------5-----5---|
G|5-----7---------^7---------------|\5--------------^5---------5-----|x
D|5-----7---------^7---------------|----------------|----7------7----|2
A|------5---------^5---------------|----------------|----------------|
E|----------------|----------------|----------------|----------------|

Fig. 1                            
e|----------------|----------------|----------------|----------------|
B|------------3---|--3-----3-----3-|------------3---|--3-----3-----3-|
G|------0-0-----0^^0---0-----0-----|------0-0-----0^^0---0-----0-----|x
D|----2---2-------|------2-----2---|----2---2-------|------2-----2---|2
A|--0-----3-------|----------------|--0-----3-------|----------------|
E|3---------------|----------------|3---------------|----------------|

e|----------------|----------------|----------------|----------------|
B|----------------|----------------|----------------|----------------|
G|2-----5---------|----------------|2-----5---------|----------------|
D|2-----5---------|----------------|2-----5---------|----------------|
A|0-----3-----5---^5-----------5---|0-----3-----5---^5-------5-555---|
E|------------3---^3-----------3---|------------3---^3-------3-333---|
  To Coda              
e|----------------|                                                       
B|----------------|
G|----------------|
D|2-----5---------|
A|0-----3-----5---|
E|------------3---|
  Coda                      (all twelve’s)          
e|----------------|--------------------|------------------------|
B|5-5-5-5-5-5-5---|/5-5-5-5/12---12-12-^12-12-12--1212-12-12-12-^
G|----------------|--------------------|------------------------|
D|----------------|--------------------|------------------------|
A|----------------|--------------------|------------------------|
E|----------------|--------------------|------------------------|
                           (ten)         
e|-------------------|-------------------|----------------|
B|12-----12-----12---^12-8-h10\5-8-----8-^8-5---3-5-------^
G|-------------------|-------------------|----------------|
D|-------------------|-------------------|----------------|
A|-------------------|-------------------|----------------|
E|-------------------|-------------------|----------------|





e|----------------|------------00\0-^--0-0-0-\0---\0---|
B|5---5\--3-3-5---|-----------------|--------------0---|
G|----------------|2----------------|------------------|
D|----------------|-----------------|------------------|
A|----------------|-----------------|------------------|
E|----------------|-----------------|------------------|
                                                                         
e|\0--0\0--05---5-7-^7-----7-------7-^
B|------------------|----------------|
G|------------------|----------------|
D|------------------|----------------|
A|------------------|----------------|
E|------------------|----------------|
  Outro
e|7---------------|----------------|----------------|----------------|
B|----------------|----------------|----------------|----------------|
G|----------------|----------------|0---------------^0---------------|
D|----------------|----------------|0---------------^0---------------|
A|----------------|----------------|----------------|----------------|
E|----------------|----------------|----------------|----------------|

e|----------------|----------------|----------------|----------------|
B|----------------|------------3---|----------------|3-----3---5-----|
G|2---------------^2-------0---5-4-^4---------------|----------------|
D|2---------------^2-------0---5---|--------------5-|----5-----------|    
A|----------------|----------------|----------------|----------------|
E|----------------|----------------|----------------|----------------|

e|----------------|----------------|----------------|-----------------|
B|----------------|1-----1---3-----|0---------------|-----------------|
G|2---------------|----------------|0---------------^0----------------|
D|2---------------|----------------|0---------------^0----------5-----|
A|0---------------|----------------|----------------|----/5h7---------|
E|----------------|----------------|----------------|-----------------|

e|----------------||
B|1---------------||
G|2---------------||
D|2---------------||
A|0---------------||
E|----------------||

| ^  hold note through
| /  slide up
| \  slide down
| h  hammer-on
| p  pull-off
| ~  vibrato
| +  harmonic
| x  Mute note
=======================================================================
comments
We did not receive enough feedback on this tab! Please rate:
1 2 3 4 5
1 comment total.
0 reply
ultimatelefty wrote on December 31 2011, 12:34 pm

I love this song thanks man!

I want to post or [tab]
guest
You may want to rate the tab now too:
select rating
Please do not post tabs as comments. Select "correction" instead!