Oops, an error
Loading. Please wait.

Drive By Tab

ver1
ver1

Whole song

Interactive

Video

More versions @911Tabs.com
37,129 views 36 this week
no commentswrite comment
1 2 3 4 5
accurate
x 6
Autoscroll
+/-
esc
set tempo
stop
Contributor
WARNING: You are trying to view
                                    content from Ultimate-Guitar.com
                                    in an unauthorized application,
                                    which is prohibited.

                                    Please use an official Ultimate
                                    Guitar Tabs application for iPhone,
                                    iPad or Android to access legitimate
                                    chords, guitar, bass, and drum tabs
                                    from Ultimate-Guitar.com database.

                                    Type "ultimate guitar tabs" in Apple
                                    App Store's or Android Market's
                                    search to find the application.
#-----------------------------------------------------------------------------#
#-- File created with Instab - http://www.pconline.com/~smcarey/instab.html --#
#-----------------------------------------------------------------------------#

Author/Artist: Train
Title: Drive By

* Play in relatively same position as tab.

Acoustic Drop c# Tuning (c# ab db gb bb eb)
Bedroom* Tuning (eb A D G B E)


------|-----|--|--------------------------------------------------------------|
------|-----|--|--------------------------------------------------------------|
------|-14--|--|--------------------------------------------------------------|
------|-----|4x|--------------------------------------------------------------|
------|-17--|--|--------------------------------------------------------------|
------|-----|--|--------------------------------------------------------------|
       Intro Pluck

------|-----|--|-----|--|----|--|-----|--|------------------------------------|
------|-----|--|-----|--|----|--|-----|--|------------------------------------|
------|-14--|--|-15--|--|-10-|--|-17--|--|------------------------------------|
------|-----|4x|-----|4x|----|4x|-----|4x|------------------------------------|
------|-17--|--|-17--|--|-12-|--|-19--|--|------------------------------------|
------|-----|--|-----|--|----|--|-----|--|------------------------------------|
       Verse Pluck

------|-----|--|-----|--|-----|--|-----|--|-----------------------------------|
------|-----|--|-----|--|-----|--|-----|--|-----------------------------------|
------|-14--|--|-15--|--|-14--|--|-14--|--|-----------------------------------|
------|-----|4x|-----|4x|-----|4x|-----|4x|-----------------------------------|
------|-17--|--|-17--|--|-17--|--|-12--|--|-----------------------------------|
------|-----|--|-----|--|-----|--|-----|--|-----------------------------------|
       Verse End Pluck

------|-----|--|----|--|-----|--|-----|--|------------------------------------|
------|-----|--|----|--|-----|--|-----|--|------------------------------------|
------|-15--|--|-10-|--|-17--|--|-14--|--|------------------------------------|
------|-----|4x|----|4x|-----|4x|-----|4x|------------------------------------|
------|-13--|--|-8--|--|-15--|--|-12--|--|------------------------------------|
------|-----|--|----|--|-----|--|-----|--|------------------------------------|
       Chorus Pluck

------|--------------------------------------|--------------------------------|
------|-10---10---12--------10---12----------|--------------------------------|
------|-9----10---10---12---9----10---12-----|--------------------------------|
------|-10---12---12---14---11---12---14-----|--------------------------------|
------|-12---12---13---15---12---13---15-----|--------------------------------|
------|-------------------------------x------|--------------------------------|
       Bridge Chords Arpeggio        Strum
comments
print report bad tab
I want to post or [tab]
guest
You may want to rate the tab now too:
select rating
Please do not post tabs as comments. Select "correction" instead!