Oops, an error
Loading. Please wait.

Chapter Of The Forest Tab

1,548 views 18 this week
2 commentsread comments
1 2 3 4 5
excellent!
x 3
Autoscroll
+/-
esc
set tempo
stop
Contributor
Difficulty
novice
Hey! There's an official Ultimate Guitar app which is ideal
for learning songs when you're away from computer. Get the app
WARNING: You are trying to view
                                    content from Ultimate-Guitar.com
                                    in an unauthorized application,
                                    which is prohibited.

                                    Please use an official Ultimate
                                    Guitar Tabs application for iPhone,
                                    iPad or Android to access legitimate
                                    chords, guitar, bass, and drum tabs
                                    from Ultimate-Guitar.com database.

                                    Type "ultimate guitar tabs" in Apple
                                    App Store's or Android Market's
                                    search to find the application.
Trevor Hall
Chapter of the forest
Standard tuning
Capo on 1st

I couldn't find a tab for this song anywhere so I decided to make my own. Very
simple and beautiful song, enjoy :) 

(This is from a live version, so it's not exactly the same as the version on the album but fairly close)

Intro
E|-----------------0----------0------------------------0-----------0-------------0--------|
B|--3----5------8---------12-----------3---1p0------5-----------8------------12-----------|
G|--0----0-----0---------0------------0---0----0---0-----------0------------0-------------|
D|----------------------------------------------------------------------------------------|
A|--3----5----7--------10------------3------------5-----------7-----------10--------------|
E|----------------------------------------------------------------------------------------|

E|--------------------0---------0-----------0----------|
B|----3---1p0------5---------8----------12-------------|
G|---0---0----0---0---------0----------0---------------|
D|-----------------------------------------------------|
A|--3------------5---------7---------10----------------|
E|-----------------------------------------------------|

Trevor starts singing here and just plays this for the rest of the song
E|-------0---------0---------0-----------0---------|
B|----3---------5---------8----------12------------|
G|---0---------0---------0----------0--------------| repeat till the end
D|-------------------------------------------------|
A|--3---------5---------7---------10---------------|
E|-------------------------------------------------|

[Verse 1]
I meet my Lord down by the river side
It hits me almost every time
Beauty runs so deep, that its hard to sleep at night
This is the chapter of the forest
Every line, and every chorus
From my heart it comes a pouring
Into every single melody
Flame without the smoke
On this holy poetry i swear i'll never choke
Because I only speak of Narmada
Hara hara everyday
Make my love down at her waters
Calling on the mountain starter

[Chorus]
No more books, no more empty words
No more running away from her
I now learn from the wind and rain
From the song of the lion's mane
And as it touches and sun and moon
I sit back and behold that tomb
Of glory upon her name
We say hara hara hara Narmada

[Verse 2]
Well the one simple perspires
With a face that burns like fire
That's where I lay my body down
Yeah, and in my dream I heard the lesson
Of the vault that holds the heavens in
So now I gaze upon the crowd, yeah
You see my woman she is stainless
I slip her at the base
Touch the face, all the Gods come out the mountain
Sweet embrace
You see her song it can't be heard
Unless you let go of the world
So I laid it all down
And I behold what I heard

[Chorus]
No more books, no more empty words
No more running away from her
I now learn from the wind and rain
From the song of the lion's mane
And as it touches the sun and moon
I sit back and behold her tomb
All glory upon her name
We say hara hara hara Narmada

End

Please message me if there are any mistakes and I will fix them:)
comments
We did not receive enough feedback on this tab! Please rate:
print report bad tab
1 2 3 4 5
2 comments total.
0 reply
mschuster324 wrote on July 21 2014, 03:51 pm

i believe the lyrics are "on this holy poetry i swear i'll never choke"

0 reply
NatePostula wrote on July 29 2014, 10:48 pm

Thank you, updated :)

I want to post or [tab]
guest
You may want to rate the tab now too:
select rating
Please do not post tabs as comments. Select "correction" instead!