Oops, an error
Loading. Please wait.

Mars People Meets The Trinitron Tab

835 views 1 this week
no commentswrite comment
1 2 3 4 5
excellent!
x 2
Autoscroll
+/-
esc
set tempo
stop
Contributor
Difficulty
intermediate
Hey! There's an official Ultimate Guitar app which is ideal
for learning songs when you're away from computer. Get the app
WARNING: You are trying to view
                                    content from Ultimate-Guitar.com
                                    in an unauthorized application,
                                    which is prohibited.

                                    Please use an official Ultimate
                                    Guitar Tabs application for iPhone,
                                    iPad or Android to access legitimate
                                    chords, guitar, bass, and drum tabs
                                    from Ultimate-Guitar.com database.

                                    Type "ultimate guitar tabs" in Apple
                                    App Store's or Android Market's
                                    search to find the application.
I got these off Trinitron's official myspace for free, and I figured I'd
share them with UG as Trinitron doesn't have any tabs as of now on
here.

I did NOT tab this and take no credit, all credit should go to Gabriel
Rodriguez.

Myspace:
http://www.myspace.com/tmtmp
(copy&paste)


._._._._._._._. CZECH OUT THESE SPOTS ON THIS KOZMIK GEER-AF

~~~~~~~~~~~~~~~~


intro
E--7-7----------------------------|
B--7-7----------------------------|
G--0-0--7---9----11h12p11----4----|
D--x-x--7---10---10----------4----|
A--7-7--0---x----x-----------5----|
E-------7---8----9-----------3----|


tapping riff 1
E-----------------------------------------------|--------------|
B----------------------------12-----------------|--------15----|
G------12-----9--11-----------------------------|--------------|
D----9--------------------9------9---14-14-14---|--9/12--14----|
A--------12---------12-----------10-------------|--------------|
E--8--------8-----------8--------8--------------|--------------|
   L L R R  L L  R  R   L L  R   L   R  R  R       L L   R

E--------------|---------------------|---------------|------------------------|
B---12---------|-----------------12--|---------------|---------12p5h7--12-----|
G--------------|----------12p0h4-----|---------------|--12p5h9----------------|
D-----12-------|-12p0h4h5--------12--|---------------|-----------------12-----|
A--------5--12-|---------------------|------10/------|------------------------|
E-3------------|---------------------|--7---10/------|------------------------|
  L R R  L  R    R    L L R    L R      L   R           R  L L R  L L  R

transition (tap)
E----------------------------|
B-----------------------12---|
G-------------4/7p0--9-------|
D-5p0-----9p0----------------|
A------7---------------------|
E----------------------------|
  L    L  R   L L    L  R

tapping riff 2
E---------------------------------------------------------|-----------------------|
B---------------------------------------------------------|-----------------------|
G-----12--------12--11-12-------12---------12--11--12-----|----12------12--11--12-|
D--------9--------------------------9---------------------|-------9---------------|
A-----------12-------------------------12-----------------|---------12------------|
E--8-------------------------8----------------------------|--9--------------------|
   L  R  L  R   R   R  R

E-----------------------------------------------------------------------|
B---12--------------------------12-----12------------------12p5h7--12---|
G------------------------12p0h4---------------------12p5h9--------------|
D-----12--------12p0h4h5--------12--------12-----------------------12---|
A--------5--12-------------------------------5--12----------------------|
E-3----------------------------------3----------------------------------|


pre-tapping riff
E---------------------------h10-----|
B-----------------------------------|
G--7p0----h12p0-----h11p0h9---------|
D------h9-------h10-----------------|
A-----------------------------------|
E-----------------------------------|
   L   L   R     L   R    L  R

loop previous riff while playing:
E---0-------------0-------------------------|
B---0-------------7----[12]--------[7]------|
G---7-------------0---------[12]-------[7]--|
D---0----------7--7-------------------------|
A---7------7/8----8-------------------------|
E---8-------------0-------------------------|

E---0---------------0----[12]---------------|
B---0---------------0--------[12]--[7]------|
G---7---------------0------------------[7]--|
D---0-----------12--12----------------------|
A---7-----12/14-----14----------------------|
E---8---------------0-----------------------|


pickup
E------------------|
B------------------|
G------------------|
D--7---7------7----|
A--9---9------9----|
E--10--10-----10---|

"1 2 + 3" chords
E--7----0-------------------|--5---|--7-------|
B--8----7----12----8----7---|--7---|--10------|
G--7----0----12----9----7---|--5---|--8-------|
D--9----9----10----9----7---|--7---|--7-------|
A--7----9----12----x----x---|--6---|--9-------|
E------------------8----7---|------|----------|


E-------7--7--7---7p5-----3h5p3p0------5--5--5----------------2--5/------|
B-----5----5--5-------8p5------------0----3--3--------------3------------|
G---5------5--5--------------------5------5--5---2-4-2p0-----------------|
D--------------------------------------------------------4---------------|
A------------------------------------------------------------------------|
E------------------------------------------------------------------------|

E--------12-------12-------12-------12------------10-10-10--10/12p0----------15---|
B-----15----15-------15-------15-------15-------8----8--8-----------10/12---------|
G--12----------12-------12-------12-------12--9------9--9-----------------12------|
D---------------------------------------------------------------------------------|
A---------------------------------------------------------------------------------|
E---------------------------------------------------------------------------------|


E--7-------0------|
B--5-------3------|
G--5-------0---7--|
D--7-------4---7--|
A------3/5-5---x--|
E--------------7--|


tap this
E--------------------12p0-----------------------------------19p0--------------------|
B-------------12p0h8---------12p0--------------------17p0h5---------17p0h-----------|

--
G------12p0h9--------------9---------12-------16p0h5-------------5-----------16----|
D----9-----------------------------9-------5------------------------------5--------|
A----------------------------------------------------------------------------------|
E--8-------------------------------------5-----------------------------------------|
   L L R    L R    L R     L R     L R   L L  R    L R    L R    L  R     L  R

E------------------7-15/17-7-15p0-------------------------------------------------------

---
B-----------7-17p0----------------7h15--------------5--17-p0--5--15-p0--5--12-p0

--5--15---------------------------------------------------------------------------------|
G----7-16p0---------------------------------5--16p0-------------------------------------|

----
D------------------------------------------------------------------------------------------|
A--7--------------------------------------5------------------------------------------------|
E------------------------------------------------------------------------------------------|
   L L R    L R    L R  R  L R    L R     L L  R    L  R      L  R      L  R      L  R

variation
E--------------------12p0-----------------------------------19p0--------------------|
B-------------12p0h8-12------12p0--------------------17p0h5---------17p0h-----------|

---
G------12p0h9-12-----------9-12------12-------16p0h5-16-----19---5--16-------

16----------------------------------------------------------------------------------|
D----9-12--------------------------9-12----5------------------------------5---------|
A-----------------------------------------------------------------------------------|
E--8-------------------------------------5------------------------------------------|
   L L R    L R    L R     L R     L R   L L  R    L R    L R    L  R     L  R

E------------------7-15/17-7-15p0-------------------------------------------------------

---
B-----------7-17p0----------------7h17--------------5--17-p0--5--15--p0--5-12-p0

--5--15-------------------------------------------------------------------------------|
G----7-16p0---16----------------------------5--16p0----16-----------------------------|

-----------------------------------------------------------------------------------------|
D-----------------------------------17---------------------------14--------12--------14--|

--
A--7--------------------------------------5------------------------------------------------|
E------------------------------------------------------------------------------------------|
   L L R    L R    L R  R  L R    L R     L L  R    L  R      L  R       L R      L  R

tap transition
E-------------------------------|
B----------------------------12-|
G------12-----9--11-------------|
D----9--------------------9-----|
A--------12---------12----------|
E--8--------8-----------8-------|
   L L R R  L L  R  R   L L  R


E---------------------------------------------------------|
B---------------------------------------------------12----|
G--7-7--7/9p0-5-5-5/7p0--------12-----9--11---------------|
D--X-X--X-----X-X-X----------9--------------------9-------|
A--7-7--7-----5-5-5--------------12---------12------------|
E--------------------------8--------8-----------8---------|

E----------------------------------------------------------|------------------|
B---------------------------------------8------------------|------------------|
G--7---7/9p0--5---5h7p5p0--4----7---7/9-9--5---4h5p4p0--4--|--7---7/9p0--5----|

--
D--X---X------X------------5----X---X------X------------5--|--X---X------X---|
A--7---7------5------------3----7---7------5------------3--|--7---7------5/--|
E----------------------------------------------------------|-----------------|

E--------------------12p0-----------------------------------19p0-----------|
B-------------12p0h8---------12p0--------------------17p0h5---------17-----|
G------12p0h9--------------9---------12-------16p0h5-------------5---------|
D----9-----------------------------9-------5-------------------------------|
A--------------------------------------------------------------------------|
E--8-------------------------------------5---------------------------------|
   L L R    L R    L R     L R     L R


E--7-7--------------------------------|
B--7-7--------------------------------|
G--0-0--7---9-----11-----11h12p11-----|
D--x-x--7---10----10-----10-----------|
A--7-7--0---x-----x------x------------|
E-------7---8-----9------9------------|

E--7-7-------------------------------|
B--7-7-------------------------15----|
G--0-0--7---9-----11-----11/16-16----|
D--x-x--7---10----10-----10----------|
A--7-7--0---x-----x------x-----------|
E-------7---8-----9------9-----------|


ending
E-------------------------------------------------------------------|
B-----3-5p3p0------------------------3-5p3p0-------------------3----|
G----------------2-4p2p0-------------------------2-4p2p0-----4------|
D--4----------4----------2-5-2-0---4----------4----------2/5--------|
A--5----------5--------------------5----------5---------------------|
E--3----------3--------------------3----------3---------------------|

E-------------------------------------------------------------------|
B-----3-5p3p0------------------------3-5p3p0------------------------|
G--4----------4--2-4p2p0-----------4----------4--2-4p2p0------------|
D--5----------5----------2-5-2-0---5----------5----------2-5-2-0----|
A--3----------3--------------------3----------3---------------------|
E-------------------------------------------------------------------|





._._._._._._._. DRAGON SKIN, FOR YOUR HANDS!

~~~~~~~~~~~~~~~~~~~~~~~~~~~~~~~~


intro
E--------------------------------------------------|
B--------------------------------------------------|
G------9-0--------------------9-0------------------|
D---11-----9---------------11-----9----------------|
A------------11-10------------------11-10----------|
E-9----------------9/----9----------------9-9/-----|


Part A
E---------------------------------------------------------------------|
B---------------------------------------------------------------------|
G------9-0----------------9-0----------------9-0---------9--9--9--9---|
D---11-----9-0---------11-----9-0---------11-----9-0-----9--9--9--9---|
A--------------10-----------------10-0---------------10--10-10-10-10--|
E-9----------------9--------------------9----------------8--8--8--8---|

E----------------------------------------------------------------|
B-------------------------------------12-------------------------|
G------9-0----------------9-0------------------9-0-----0---9-----|
D---11-----9-0---------11-----9-------------11-----9-0-----11----|
A--------------10---------------10/11----------------------x-----|
E-9----------------9----------------------9----------------9-----|

E---------------------------------------------------------------------|
B---------------------------------------------------------------------|
G------9-0----------------9-0----------------9-0---------9--9--9--9---|
D---11-----9-0---------11-----9-0---------11-----9-0-----9--9--9--9---|
A--------------10-----------------10-0---------------10--10-10-10-10--|
E-9----------------9--------------------9----------------8--8--8--8---|

E-----------------------------------------------------------------|
B-------------------------------------12--------------------------|
G------9-0----------------9-0------------------9-0-----0---8--8---|
D---11-----9-0---------11-----9-------------11-----9-0-----x--x---|
A--------------10---------------10/11----------------------x--x---|
E-9----------------9----------------------9----------------7--8---|


Part B
E-------------------------------------------------------------------|
B--9-9-9--5-5-5-----------------9-9-9-9/12--5-5-5-------------------|
G--x-x-x--x-x-x--5-5-5--6-6-6---x-x-x-------x-x-x-5-5-5--6-6-6-6-6--|
D--x-x-x--x-x-x--4-4-4--7-7-7---x-x-x-------x-x-x-4-4-4--7-7-7-7-7--|
A--7-7-7--4-4-4--6-6-6--7-7-7---7-7-7-------4-4-4-6-6-6--7-7-7-7-7--|
E----------------4-4-4--5-5-5---------------------4-4-4--5-5-5-5-5--|


Play part A then part B then...

E------------------------------------------------------|-------|
B--------9------------5/7p0----------------------------|-------|
G----------8-------------------------4------------8-9--|--5----|
D------------9-------------------4/6---6------4/6------|--4----|
A--7-777--------4-444----------6------------6----------|--6----|
E----------------------------4------------4------------|--4----|


looping time
layer 1
E---------------------------------------------------------------------|
B---------------------------------------------------------------------|
G---------------------------------------------------------------------|
D------6-------6-------6-------6-------9-------9-------9-------9------|
A----7---7---7---7---7---7---7---7---7---7---7---7---7---7---7---7----|
E--9-------9-------9-------9-------8-------8-------8-------8----------|
  PM . . . . . .

layer 2
E-------------------------------------------------------------------------------------|
B--12-12-12-14-14-14-14-14-12-12-12-14-14-14-14-14-8-8-8-8-9-9-9-9-8-8----------------|

8-8-9-9-9-9---------------------------------------------------------------------------|
G-------------------------------------------------------------------------------------|
D-------------------------------------------------------------------------------------|
A-------------------------------------------------------------------------------------|
E-------------------------------------------------------------------------------------|

E-------------------------------------------------------------------------------------|
B--12-12-12-14-14-14-14-14-12-12-12-14-14-14-14-14-8-8-8-8-9-9-9-9--------------------|

--------------------------------------------------------------------------------------|
G------------------------------------------------------------------8-8-8-8-9-9-9-9----|
D-------------------------------------------------------------------------------------|
A-------------------------------------------------------------------------------------|
E-------------------------------------------------------------------------------------|

layer 3
E--12-12-12-15-15-15-12-12-12-15-15-15-16-16-16-15-15-15-12-12-15-15-

15-12-12-12-12-------------------------------------------------------------------------|
B--------------------------------------------------------------------------------------|
G--------------------------------------------------------------------------------------|
D--------------------------------------------------------------------------------------|
A--------------------------------------------------------------------------------------|
E--------------------------------------------------------------------------------------|


E--------------------------------------------|
B--------------------------------------------|
G--1---------1-----1-------4-----4-------4---|
D--2---------2-----2-------2-----2-------2---|
A--4-4-4-4-4-4-4-4-4-4-4-4-3-3-3-3-3-3-3-3---|
E--------------------------------------------|

bass solo then

E--------------------------------------------------------------|
B--------------------------------------------------------------|
G-------9-0--------9-0-------9-0------8/11------8-0------8-0---|
D----11---------11--------11-------10--------10-------10-------|
A--------------------------------------------------------------|
E--9---------9----------9--------8---------8--------8----------|


listen for strumming patterns
E-------------|
B-------------|
G--9----8-----|
D--11---8-----|
A--x----10----|
E--9----8-----|

transition
E--------------------------------|
B--------------------------------|
G-------9-------8------8------6--|
D----11------10------7------6----|
A--------------------------------|
E--9-------8-------7------5------|


E------------------------------------------------------|---------|
B--------9------------5/7p0----------------------------|---------|
G----------8-------------------------4------------8-9--|--8-8-8--|
D------------9-------------------4/6---6------4/6------|--7-7-7--|
A--7-777--------4-444----------6------------6----------|---------|
E----------------------------4------------4------------|--8-8-8--|

E-----------------------|
B-----------------------|
G------9-0--------------|
D---11-----9------------|
A------------11-10------|
E-9----------------9/---|




._._._._._._._._. BEAR GRYLLS ATE MY FUCKIN' TURTLE!

~~~~~~~~~~~~~~~~~~~~~~~~

main riff (save the main riff as a loop)  (tap this)
E----------------------------|
B--------------8--8---8------|
G--5-7-----------------------|
D------5-7-------------------|
A----------5-7----7---7------|
E----------------------------|
   L R L R L R R  R   R

Sometime while you're playing the main riff, layer this over the main

riff
E-----------------|
B-----------------|
G--9-12-----------|
D-------9-12------|
A------------9-10-|
E-----------------|
   L R  L R  L


E---------------------------------------------------------------------------|
B--8--8-8-8--0-000-0---------3-3-3--8--8-8-8--0-000-0-----------------------|
G--x--x-x-x--2-222-2--4-4-4--4-4-4--x--x-x-x--2-222-2--4-4-4--4-4-4--4-4----|
D--x--x-x-x--x-xxx-x--x-x-x--x-x-x--x--x-x-x--x-xxx-x--x-x-x--x-x-x--x-x----|

x2
A--7--7-7-7--2-222-2--3-3-3--3-3-3--7--7-7-7--2-222-2--3-3-3--3-3-3--3-3----|
E-------------------------------------------------------------5-5-5--5-5----|

trigger main riff loop at x2 speed while playing this
E---------------------------------------------|
B--8--0-----3---3---8--0----------------------|
G--x--2--4--4---4---x--2--4--4-4-4-4-4-4-4----|
D--x--x--x--x---x---x--x--x--x-x-x-x-x-x-x----|
A--7--2--3--3---3---7--2--3--3-3-3-3-3-3-3----|
E------------------------------5-5-5-5-5-5----|


main riff (again, but picked)               this chord is triggered
E-------------------------------------=+=-----12----|  during the main riff
B---------------8--8--8---------------=+=-----12----|
G--5-77------------x--x---------------=+=-----12----|
D-------55h7-------x--x---------------=+=-----------|
A------------5-7---7--7---------------=+=-----------|
E-------------------------------------=+=-----------|


space crap
E----------------------------------------------------------------------|
B--7-7---7---7---------------------------------------------------------|
G--8-8b9-8b9-8b9-------------------------------------12-12-12-11-11/---|
D----------------5-5-5-5-5---------------------------------------------|
A----------------6-6-7-7-7--7/9-9-9-9/10-10-10-10/12-------------------|
E----------------------------------------------------------------------|

E---------------------------------------------------------|
B--7-7---7---7--------------------------------------------|
G--8-8b9-8b9-8b9---------------------------7--9-9/12-0----|
D----------------5-5-5-5-5---------------9----------------|
A----------------6-6-7-7-7--7/9-9-9-9/10------------------|
E---------------------------------------------------------|

E----------------------------------------------------------------------|
B--7-7---7---7---------------------------------------------------------|
G--8-8b9-8b9-8b9-------------------------------------12-12-12-11-11/---|
D----------------5-5-5-5-5---------------------------------------------|
A----------------6-6-7-7-7--7/9-9-9-9/10-10-10-10/12-------------------|
E----------------------------------------------------------------------|

E-----------------------------------------------------------------------|
B--7-7---7---7----------------------------------------------------------|
G--8-8b9-8b9-8b9--------------------------------------------------------|
D----------------5-5-5-5-5----------------------------------------------|
A----------------6-6-7-7-7--7/9-9-9-9/10-10-10-10/12-12-12-12/14-14-14--|
E-----------------------------------------------------------------------|


main riff (again, picked)
E----------------------------|
B--------------8--8---8------|
G--5-7-----------------------|
D------5-7-------------------|
A----------5-7----7---7------|
E----------------------------|

transition
E------------------------------------|
B------------------------------------|
G-------------9-9-9-9----------------|
D---------------------9-9-9-9--------|
A--7-7-7-7-7------------------7~~~---|
E------------------------------------|


~bass solo~


tap this
   ^
E--7---10p7p0h7-10p7--10/12--12-12p5-12p5-----|
B--7-------p0h7-------------------------------|
G--0----9p0------9p0--------------------------|
D--x-------------------9/12--12-12p4-12p4-----|
A--7-------p0h7-------------------------------|
E---------------------------------------------|
        R L L L  R     R R   R  R  L R  L

last time (strummed)
E--7--10-10--7---10--12-12--12------|--7--10-10--7----|
B--7--x--x---7---x---12-12--12------|--7--x--x---7----|
G--0--9--9---0---9---0--0---0-------|--0--9--9---0----|
D--x---------x-------x--x---x-------|--x---------x----|
A--7---------7-------12-12--12------|--7---------7----|
E-----------------------------------|-----------------|





._._._._._._._. YOUR SASQUATCH STOLE LINT FROM MY BEAR'S POCKET

~~~~~~~~~~~~~


e|----------------------------------|
b|------------------------------12--|
g|-------11----7--------------------|
d|-------------------7-----9/10-----|
a|--10------------------------------|
e|----------------------------------|

e|----------------------------------------|
b|----------------------------------------|
g|------9--7-----------------9--7---------|
d|--------------7-7h9--------------7-7h5--|
a|--7--------------------7----------------|
e|----------------------------------------|

e|-------------------------10---------------------------------|
b|------12-12----12-12--12----12------10-10-----10-10--10/12--|
g|----9--------9--------------------7---------7---------------|
d|--10-------10-------------------9---------9-----------------|
a|------------------------------------------------------------|
e|------------------------------------------------------------|

e|------------------|------------------10p8p7---|---------------------------------------|
b|----8-8--8-8---8--|-----7-7-----7-7---------8-|-----7-----7-7-----7-------7--------7--|

---
g|---5----5-----5---|---4-------4---------------|---4-----4-------4---4---4---7---4--4-

--
d|--7----7-----7----|-5-------5-----------------|-5-----5-------5-------5-------5----5---|
a|------------------|---------------------------|----------------------------------------|
e|------------------|---------------------------|----------------------------------------|

e|---------------|------------------------3h5p0--|---------------------------|
b|---12--8---7---|------7p0-5p0-0-3-0-5-0--------|-----7p0-5p0-0-3-0-5-0-----|
g|---9---9---9---|----4--------------------------|---4-------------------4~--|
d|--10---10--10--|--5----------------------------|-5-------------------------|
a|---------------|-------------------------------|---------------------------|
e|---------------|-------------------------------|---------------------------|


e|---------------|
b|--12-----7-----|                   10
g|--9--x8--4--x8-|  x2 last time let 11   ring once and follow with
d|--10-----5-----|                   x    harmonics on the 7th fret.
a|---------------|                   10
e|---------------|

e|--------------|--------------|
b|-----------12-|--------------|
g|--4-4-4h5-----|-----------11-|
d|--5-5-5----12-|--4-4-4h5-----|  x2 2nd time  end harmonics 7th fret
a|--3-3-3-------|--5-5-5----12-|
e|--------------|--3-3-3-------|
    strum    R              R


tap tap tap-a-roo
e|---------------------------|
b|----------10-------12\10---|
g|------------9--------------|
d|----9p0h5----9p0---12\10---|
a|--7--------------3---------|
e|---------------------------|
    L R   L R RR   L R
                      R  R  R    R  R    R  R  R    R R
e|-----------------------------|---------------------------|
b|----------10-----------------|--------------------12-----|
g|------------9----------------|---------12-----------12---|
d|----9p0h5----9p0----12-12-12-|-12/14------12/14-8--------|
a|--7--------------------------|-------7-------------------|
e|-----------------5----7------|-8-------------------------|
    L R   L R RR   L    L        L     L          L


e|------------------------------|
b|--8------------12\------12\---|
g|--7----4-------11\------11\---|   follow strumming on the song.
d|--x----5--4/---12\--4/--12\---|
a|--7----3--5/---10\--5/--10\---|
e|----------3/--------3/--------|

  strum - tap
e|--------------|------------|
b|-----------12-|-----------7|
g|--4-4-4h5-----|------------|
d|--5-5-5----12-|--4-4-4h5--7|
a|--3-3-3-------|--5-5-5-----|
e|--------------|--3-3-3-----|

             R              R

tap this
e|----------------------------------------------|
b|------12-12---8-8---7-7----12-12---8-8---7----|
g|----------------------------------------------|
d|------12-12---9-9---7-7----12-12---9-9---7----|
a|--5/7-------7-----7------7-------7-----7------|
e|----------------------------------------------|
    L   R  R  L R R L R

e|--------------------------------------------|
b|-----12-12--8-8--7-7-------12-12---8-8---7--|
g|--------------------------------------------|
d|-----12-12--9-9--7-7-------12-12---7-7---7--|
a|--------------------------------------------|
e|---5-------5----5----5h6h7-------7-----7----|
     L       L    L    L L L

end
e|--------------------|
b|-------------12-----|
g|--4-4-4h5-----------|
d|--5-5-5------12--4--|
a|--3-3-3----------5--|
e|-----------------3--|





._._._._._._._._. THE TIRING TOWN TELLS THE TOWERS TO TEAR TERROR

TILL TONIGHT TICKS TIME TIGHTLY (ALTERATION ASIDE)

~~~~~~~~~~~~~~~~~~~~~~~~

intro
  ^ ^
E--------------------------|--------------------------------------------|
B--------------------------|--------------------------------------------|
G------------7p0-----9p0---|------11p0-------13p0-------15-------17-----|
D-2/11~----5-------7-------|----9---------11---------13-------15--------|
A-2/11~--3-------5---------|--7---------9---------11-------13-----------|
E-0/0----------------------|--------------------------------------------|
         L L R   L L R        L L R     L L  R    L  L  R  L  L  R

transition (tap)
E------------------|------------------------|
B----7-------------|----7--7---7--7--7/-----|
G--------7--7-7/9--|------------------------|
D-----7------------|-----7---7--7--7--7/----|
A--5-----7--7-7/9--|--5---------------------|
E--3---------------|--3---------------------|
   L RR  R  R R R     L RR R R

E----------------------------------------------------------          |
B----------------------------------------------------------          |
G------------------------12p0----------------------12p0----          |
D-------12-------12/14-9-----------12------12/14-9---------          |
A----10-------10----------------10------10-----------------          |
E--8--------8-----------------8-------8--------------------          | x2
   L L  R   L L  R  R  L R    L L  R  L L  R  R  L R                 |
E--------------------------------------------------                  |
B----------------------7----------------------7----                  |
G-------------------7----------------------7-------                  |
D------12------7\5-----7------12------7\5-----7----                  |
A----9-------9------7-------9-------9------7-------                  |
E--7-------7--------------7-------7----------------                  |
   L L R   L R L L  R  R  L L R   L R L L  R  R

E---------------------------------------------------|
B---------------------------------------------------|
G--------------------------------------------7p0----| x2
D-------12------10\9p0-9p0------9------7/9-4--------|
A----10-------9---------------7------5--------------|
E--8--------7---------------5------3----------------|
   L L  R   L L R  R   R    L L R  L L R R L R

E---------------------------------------------------      |----------------|
B---------------------------------------------------      |----------------|
G-------12----------------------9------7/9---7p0---- x2   |----------------|
D-------12------10\9p0-9p0------9------7/9-4--------      |------7------7--|
A----10-------9---------------7------5--------------      |----5------5----|
E--8--------7---------------5------3----------------      |--3------3------|


~3/4 section~

record this loop
E----------------------------|
B----------------------------|
G----------7p0---------7p0---|
D----7p0h4-------7p0h4-------| x2
A--5-----------5-------------|
E----------------------------|
   L R   L R   L R   L R
                 +
E--------------|-------------|---------------|
B--------------|-------------|---------------|
G----------7p0-|---------7p0-|----------7p0--|
D----7p0h4-----|---7p0h4-----|----7p0h4------|
A--------------|-2-----------|--5------------|
E--5-----------|-------------|---------------|
   L R   L R     L R   L R

E--------------|-------------|-------------|---------------|
B--------------|-------------|-------------|---------------|
G----------7p0-|---------7p0-|---------7p0-|----------7p0--|
D----5p0h4-----|---7p0h4-----|---7p0h4-----|----7p0h4------|
A--------------|-------------|-2-----------|--5------------|
E--3-----------|-5-----------|-------------|---------------|

trigger the loop at x2 speed                      last time
E----------|---------|----------|----------||--------------------------------|
B----------|---------|----------|----------||----------5-5-5-5-7-7-7-7-7-7---|
G----------|---------|----------|----------||----------x-x-x-x-x-x-x-x-x-x---|
D----4---4-|---4---4-|----4---4-|----4---4-||--4-4-4-4-4-4-4-4-4-4-4-4-4-4---|
A----------|---------|--2---2---|--5---5---||--5-5-5-5-5-5-5-5-5-5-5-5-5-5---|
E--3---3---|-5---5---|----------|----------||--------------------------------|


tap this                                 strum this
E--------------------------------------|----------------------------|
B-----------------8p0-----10p0----12---|----------------------------|
G----------9p0-------------------------|-------7-7------------------|
D----9p0--------5----------------------|--9-9--5-5--7-7-------------|
A--------7-------------7-------5-------|--7-7-------5-5--7-7--9-9---|
E--8-----------------------------------|-----------------5-5--7-7---|
   L R   L R    L R    L  R    L  R

						           R

 R
E-----------------------------|-------------------------------------|
B-----------------------------|-------------------------------------|
G------------------12-11------|------------------12-11--------------|
D----12p5h7-12p7h9-------12---|----12p5h7-12p7h9-------12--12--12---|
A--7--------------------------|-------------------------------------|
E-----------------------------|--8-------------------------8---7----|
   L R  L L R  L L R  R  R       L R  L L R  L L R  R  R   L   L


E-----------------5/7-7-7p0----------------5/7--7/---|
B----------------------------------------------------|
G----------4p0h2--5/7-7-7p0----------4p0h2-5/7--7/---|
D----4p0h2---------------------4p0h2-----------------|
A----------------------------------------------------|
E--3-------------------------3-----------------------|
   L R   L R   L  R R R R    L R   L R   L R R  R

   ^  L R  R  R  L  ^ L R R  R L  ^ L R R  ^ L  R  R       ^ L R R  ^ L R  R   ^
E--------------------------------------------------------|--------------------------|
B-------------------------------------8-8----------------|-----8-8------------------|
G-----9-12/14\12p9----7-9/11\9p7----4--------4--9--9-----|---4--------4-9--9---4----|

--
D--10---------------7-------------5---9-9--5-------------|-5---9-9--5----------5---|
A--8----------------5-------------3--------3----10-10----|-3--------3---10-10--3---|
E--------------------------------------------------------|-------------------------|

whammy action
E----------------------------------------------|---------------------|
B----------------------------------------------|---------------------|
G----5---5------5---5--------------------------|----9------12--------|
D--3---3---3--3---3---3----5---5------5---5----|--7---7/10----10-----|
A------------------------3---3---3--3---3---3--|---------------------|
E----------------------------------------------|---------------------|

E----------------------------------------------------------------|-----------|
B----------------------------------------------------------------|-----------|
G---9-----9------12-------12------9-----9------12-------12-------|--5-5------|
D-7---7-7---7/10----10-10----10-7---7-7---7/10----10-10----10----|--3-3--5---|
A----------------------------------------------------------------|-------3---|
E----------------------------------------------------------------|-----------|





._._._._._._._._._._. OTTER POP! POP! POP! (TIERRA LUNA)

~~~~~~~~~~~~~~~~~~~~


Intro riff (tap)
E---------------------------------------------------------------------------------------|
B--------------------------------------------------------------------8------------------|
G--(2)------7-------7-------7-------7--------7p2-----7p2-------9p0h5----------9-9-------|

9------------------------------------------------------------------------------| x2
D--(3)----7---7---7---7---7---7---7---7------------------------------7---------|
A--(5)--7-------7-------7-------7----------7-------7-------7/10----------7/10--|
E----------------------------------------5-------5-------5-------------5-------|
 Hold 235 chord, pull off 7's		 L R R L         L R R R   L R

E---------------------------------|-----------------------------------|
B---------------------------------|-----------------------------------|
G--5------12-9--------------------|----------12-9---------------------|
D--7-7/12------9h10p0-9p0-9/12p0--|--5--7/12------9h10p0-9p0-9/12p0---|
A--8------------------------------|--7--------------------------------|
E---------------------------------|--8--------------------------------|


Intro riff ("second" guitar)
E--5--------------------10------|
B--6--------10-------10----10---|
G--7-----10----10-10------------|
D--7--12------------------------|
A-------------------------------|
E-------------------------------|
 hold chord


transition
E-------------------------------------|
B-------------------------------------|
G-----4--5--7-----4--------5-------7--|
D--5--5--7--6--5--5----7-------6------|
A--7--7--8--7--7--7--8---8---7---7----|
E--8-----------8----------------------|


chord/pull off sections (hold chords, pull offs with right hand)
   ^                       ^                       ^           ^
E-----------------------------------------------------------------12---------|
B----13-12-------13-12-------13-12-------13-12-------13--------------12------|
G----------12----------12--4-------12----------12--5----12-----7--------12---| x2
D--5----------12-----------5----------12-----------7-------12--6-------------|
A--7-----------------------7-----------------------8-----------7-------------|
E--8-------------------------------------------------------------------------|


(hold chords, pull offs with right hand)
    ^                         ^                            ^                          ^
E---5---12----------------12--3--12------------------------------------------------------

---------------12------------------------------------------------------------------------|
B---5------13----------13-----5-----13------------------------------------------------5--|

-12-------12-------12--------------------------------------------------------|
G---5---------14-12-14--------5--------14-12/14-12---------5--12-12-12-12\9--|

9/12-12---4-----12/14----12-------12-----------------------------------------------------| x2
D---7-------------------------3--------------------12/14---5--------------------------5--|

-----------------------------------------------------------------------------------------|
A---8-------------------------5----------------------------3--------------------------3--|

--------------------------------------------------------------|
E----------------------------------------------------------5--|

---------------------

last time
    ^                         ^                            ^                         ^
E---5---12----------------12--5--12-----------------------------------------------------

12----12-12/15-12------------------------------------------------------------------------|
B---5------13----------13-----5-----13-----------------------------------------------5---|

---13-------------------------------------------------------------------------------|
G---5---------14-12-14--------5--------14-12/14-12---------5--------------------12--|

--4-------------------------------------------------------------------------------------|
D---7-------------------------3--------------------12/14---5--10/12------------------5--|

----------------------------------------------------------------------------------------|
A---8-------------------------5----------------------------3--------10/12------------3--|

---------------------------------------------------------------------------------|
E----------------------------------------------------------5--------------10/12--|

------------------


clean and quiet/slow
   ^           ^               ^             ^
E----12--------------------12------12-------------------------------|
B-------13--------------13------------13--------------13------------|
G--9-------14--7--12/14--------12--------14--9--12/14----12/14------| x3
D--7-----------9---------------10------------9----------------------|
A--8-----------7---------------12------------10---------------------|
E-------------------------------------------------------------------|

last time
   ^           ^               ^    ^
E----12--------------------12------------|
B-------13--------------13---------------|
G--9-------14--7--12/14--------12---9----|
D--7-----------9---------------10---9----|
A--8-----------7---------------12---10---|
E----------------------------------------|


fast transition
E-------------------------------15---3----|
B------------------------------------3----|
G--9--9---7/12---5--5-------12-------4----| x2
D--10-10--x-x----x--x--7/10----------5----|
A--12-12--7/12---5--5----------------5----|
E------------------------------------3----|
		       L    L   R


                                 Trigger this loop...
E-----------------------------|-----------------------------|
B-----------------5-----------|-----------------------------|
G-----------------------------|-----------------------------|
D--2--2-2----5p02-5---2--2-2--|--10-10-10-10-9--9--9--9-----|
A--3--3-3--3----------3--3-3--|--10-10-10-10-10-10-10-10----|
E--1--1-1-------------1--1-1--|--8--8--8--8--8--8--8--8-----|
           L R  L R

tremelo pick these
E--8-8-8-10-10-10-12-12-12--|--8-8-8-8-10-10-10-3-3-3-3-|-12-12-12-12-15-

15-15-15----------------------------------------------------------------------------|
B---------------------------|---------------------------|---------------------------|
G---------------------------|---------------------------|---------------------------|
D---------------------------|---------------------------|---------------------------|
A---------------------------|---------------------------|---------------------------|
E---------------------------|---------------------------|---------------------------|

E--0------------|-------------|-------|------8-10p8p0-|-----------|
B--0-----8--8-8-|-8-8/10-10p0-|-8-8-8-|-8/10----------|-8-8-8-8---|
G--0--7--9--9-9-|-------------|-9-9-9-|---------------|-9-9-9-9---|
D--2--6--7--x-x-|-------------|-x-x-x-|---------------|-x-x-x-x---|
A--3--7--0--8-8-|-------------|-8-8-8-|---------------|-8-8-8-8---|
E---------------|-------------|-------|---------------|-----------|

E--------------------------------------------------------------|
B--------------------------------------------------------------|
G-----9------7--------12------9------9/12------7--------12--9--|
D---7------9-------10-------9------7---------9-------10-----9--|
A-8------7------12--------10-----8---------7------12--------10-|
E--------------------------------------------------------------|

day four...
E--8-------------------------12--12--12--12---|
B--x--8---8--12----------8---10--10--10--10---|
G--9--9---7--10--9---9---7---x---x---x---x----|
D-----10--9--x---10--10--9---10--10--10--10---|
A------------10--8---7---10--8---8---8---8----|
E---------------------------------------------|

E-----------------------12-10----------------------------------------------------|
B-----------------------------13-12-10-------------------13-12--15-13-12---------|
G--------------------9-----------------12-9---7--12--9-------------------12------| x2
D--9-9-7-10-10-10-10-10-------------------10--9--14--10--------------------------|
A--8-8-8-8--8--8--8--------------------------------------------------------------|
E--------------------------------------------------------------------------------|

day four A
E--------12-10------------13--12--------------------------------|----------------|
B-----10--------13-12-----10--10--13-12--13-12-12-13-12-13-12---|-14--15--14-----|

----
G--10-----------10----10--10--10--10-10--9----------------------|-9---12--9-----|
D---------------------------------------------------------------|---------------|
A---------------------------------------------------------------|---------------|
E---------------------------------------------------------------|---------------|

overdrive (switch between day four A riff and this riff)
E--------12-10------------13--12------------------------------------------|
B-----10--------13-12-----10--10--13-12--13--10-12-13--12-15-13-12--------|
G--10-----------10----10--10--10--10-10--9-------------------------12-9---|
D-------------------------------------------------------------------------|
A-------------------------------------------------------------------------|
E-------------------------------------------------------------------------|


Outro
E-----12-----12--------20-------19----|
B-------------------------------------|
G--10-----10-------17-------17--------|
D-------------------------------------|
A-------------------------------------|
E-------------------------------------|






._._._._._._._._._._. HEY, STOP STEALING MONKEYS!

~~~~~~~~~~~~~~~~~~~~~~~~~~~

Intro

tap
E-------------------------------------------------------------      |
B-------------------------------------------------------------      |
G----------5-8-----------5-8/10----------5-8----------5-8--8--      |
D----5h6-8---------5h6-8-----------5h6-8--------5h6-8---------      |
A-------------------------------------------------------------      |
E--4-------------4---------------4------------4---------------      |
   L L   R L R


	    |   x2
E--------------------------------                   ----------|
B--------------8--------------8--                   ----------|
G----5-8p5----------5-8p5--------                          ---|
D----------6-8------------6-8----                   ----------|
A--4--------------4--------------                   ----------|
E--------------------------------                   ----------|
   L L R L L R R

picked
E---------------------.----------11--|------|------|------|
B---------8-----------.-------13-----|------|------|------|
G----5---------3----8-.----12--------|------|------|------|
D---------------------.--------------|------|------|------|
A--4----6----3----8---.-11-----------|------|------|------|
E---------------------.--------------|-6--8-|-4--6-|-2--3-|


have this looping...
E---------------------------|
B---------------------------|
G---------------------------|
D----13----13----13--etc...-|
A-11----11----11------------|
E---------------------------|

...while playing this
E------------------|
B--6-------6-------|
G--5---5---5--5-2--|
D--6---5---6--5-1--|
A--4---6---4--6-x--|
E------4------4-2--|
 pm . . . . . . .


tap
E--------------------------4-8/11p4p0--------------------------4-8p0---------|
B-------------------4-8p4p0-----------------------------4-8p4p0------8p0-----|
G----------------------------8-----------------------------------8-----------|
D----6-10p0-5---8------------------------6-10p0-5---8------------------------|  x8
A--4----------4---8--------------------4----------4---8----------------------|
E----------------------------------------------------------------------------|
   L L R    L L R R L R L  L R R  L    L L R    L L R R L R L  L R   R


E----------------------------|-------------------|--------------------|
B--------8--8-----------8-8--|-------------------|--------------------|
G--5-----------5-8p5---------|-------------3h5h6-|---------6p0h3h5----|
D--------8--8--------6--8-8--|--10p0h3h5h6-------|-6p0-3h5---------6--|
A-----6----------------------|-------------------|--------------------|
E--4-----------4-------------|-------------------|--------------------|
   L  L  R  R  L R L L  R R     R    L L R L L R   R   L L R   L L R

E------------8--8------------------------------8--8-----------------11------|--------------|
B------------------------------9p0------------------------------------------|-----------8--|
G--5h6-8-----------5h6-8-------------5h6-8-----------5h6-8------------------|-5h6----------|

8---------------------------------------------------------------------------------------|
D--------6---8--8--------6---8-------------6---8--8--------6---8/10---------|-------5---|

-8--
A--4---------------4-----------------4---------------4----------------------|-4-------4----|
E----------6---------------6-----------------6---------------6--------------|--------------|
   L L R L L R  R  L L R L L R R     L L R L L R  R  L L R L L R R  R         L L R

L L R

strum
E--0----------------------------------.--0---------------------------------|
B--4-------------------------------0--.--4---------------------------------|
G--0------0-----0------------------5--.--0------0-----0-----------------5--|
D--3----0-----3-----0-----0-----0--6--.--3----0-----3-----0-----0----------|
A--0--3-----4-----6-----0-----3----6--.--0--3-----4-----6-----0------------|
E---------------------3-----4------0--.---------------------3-----4--6--4--|

E---------------------------------------------------------------------------|
B--------------------------------6------------------------------------------|
G--------------5-----------5-6-8----8---------6-8-10/12p8--------6-8-10/13--|
D--------5-6-8----8--5-6-8-------------6-8-10-------------6-8-10------------|
A--4-6-8--------------------------------------------------------------------|
E---------------------------------------------------------------------------|
   L L R L L R L  R  L L R L L R L  R  L L R  L L R  R  L L L R  L L R  R

========

record this in dl-4 (chord in brackets is chord being held) *tap*
E-[8-]-13p8------------13p8------------13p8-----------13p8------------13p8-------

--
B-[8-]------13p8------------13p8------------13p8-----------13p8-------------13p8-

--
G-[10]------------13p10-----------13p10-----------13p10----------13p10-----------

---
D------------------------------------------------------------------------------|
A------------------------------------------------------------------------------|
E------------------------------------------------------------------------------|
  hold chord   tap 13's

*x2 speed previous riff, then overdub the next riffs into 2nd dl-4

layer 1
E-------------------------------------------------------------|
B-------------------------------------------------------------|
G------0-------0-------0-------0------------------------------|
D----------------------------------------10----------10-------|
A--4-4---4-4-4---4-8-8---8-8-8---8-11-11----11-11-11----11-11-|
E-------------------------------------------------------------|

layer 2
E-----------------------------------|
B-----------------------------------|
G--5-5-5-5---8-8-8-8---12-12-12-12--|
D--x-x-x-x---x-x-x-x---x--x--x--x---|
A--4-4-4-4---8-8-8-8---11-11-11-11--|
E-----------------------------------|

layer 3
E--------------------------------------------|
B--13-13-13-13\9-9-9-9-9-9/13-13-13-13-13-13-|
G--------------------------------------------|
D--------------------------------------------|
A--------------------------------------------|
E--------------------------------------------|

stop overdub, play chords over loop
E-------------------|
B-------------------|
G--5-5---5-5---5-5--|
D--x-x---x-x---x-x--|
A--4-4---x-x---x-x--|
E--------6-6---4-4--|


upstrokes
E---------------------------------------------------------------------|
B--8---9------------8---9------------8---9------------8---9-----------|
G--10--10--9---10---10--10--9---10---0---0---8---10---0---0---8---10--| x4
D--11--11--11--11---11--11--11--11---10--10--10--10---10--10--10--10--|
A--0---0---0---0----0---0---0---0----11--11--11--11---11--11--11--11--|
E------------------------------------0---0---0---0----0---0---0---0---|

E----------|
B--6-------|
G--5---5---|
D--6---5---|
A--4---6---|
E------4---|


E-----------------------------------|----------|
B--8---9------------8---9-----------|--6-------|
G--0---0---8---10---0---0---8---10--|--5-------|
D--10--10--10--10---10--10--10--10--|--6-------|
A--11--11--11--11---11--11--11--11--|--5-------|
E--0---0---0---0----0---0---0---0---|----------|

	     on last part
E----------|--------------|
B--6-------|--------------|
G--5---5---|--------------|
D--6---5---|-6-6-6--------|
A--4---6---|-8-8-8--------|
E------4---|-6-6-6-6-8-3--|


  listen for rhythms
E--------0--0----=---------0--0---11-0----|--------0--0--------------|
B--------11-11---=---------11-11--13-0----|--------11-11-------------|
G--------0--0----=---------0--0-----------|--------0--0--------------|
D--8--8--0--0----=---8--8--0--0-----------|--8--8--0--0----6-6-6-6---|
A--10-10-10-10---=---10-10-10-10----------|--10-10-10-10---8-8-8-8---|
E--8--8--0--0----=---8--8--0--0-----------|--8--8--0--0----6-6-6-6---|


tap (faster)   transition
E-------------------------------------------------------|
B----------------8p0--------------------------8-9-8-----|
G--------8p0h5-------8p5--------------8p0h5---------8---|
D----5h8-------8---------8/10p0---5h8-------8-----------|
A-------------------------------------------------------|
E--4----------------------------4-----------------------|
   L L R R   L R R   R L R R    L L R R   L R R R R R

E----------------------------------------------------|
B----------------8p0--------------------------8-9----|
G--------8p0h5-------8p5--------------8p0h5---8-8----|
D----5h8-------8---------8/10p0---5h8-------8--------|
A----------------------------------------------------|
E--4----------------------------4--------------------|
   L L R R   L R R   R L R R    L L R R   L R R R

tap
E------------------------------------------------------------------|
B----------------9p0-8p0--------------------------8p0--------------|
G----5h8--8/10-----------8p5--------------8p0h5-------8p5----------|
D----6h8--8/10---------------8/10p0---5h8-------8---------8/10p0---|
A--4---------------------------------------------------------------|
E--------------6--------------------4------------------------------|
   L L R  R R  L R   R   R L R R    L L R R   L R R   R L R R

E------------------------8/11p4p0---------------------------------|
B----------------9p0-8p0---------------------------8-9-11-13------|
G----5h8--8/10-----------------------------8p0h5------------------|
D----6h8--8/10------------------------5h8--------8----------------|
A--4--------------------------------------------------------------|
E--------------6--------------------4-----------------------------|
   L L R  R R  L R   R   R R  L     L L R  R   L R R R R  R

E------------------------------------------------------------------|
B----------------9p0-8p0--------------------------8p0--------------|
G----5h8--8/10-----------8p5--------------8p0h5-------8p5----------|
D----6h8--8/10---------------8/10p0---5h8-------8---------8/10p0---|
A--4---------------------------------------------------------------|
E--------------6--------------------4------------------------------|

E------------------------8/11p4p0---|
B----------------9p0-8p0------------|
G----5h8--8/10----------------------|
D----6h8--8/10----------------------|
A--4--------------------------------|
E--------------6--------------------|


more tapping
E------------------------------------------------------------                  |
B------------------------13--------------------------13------                  |
G--------------13p0h8-------13-------------13p0h8-------13---                  |
D-----13p0h10---------13-----------13p0h10--------13---------                  |
A--11---------------------------11---------------------------                  |
E------------------------------------------------------------                  |
   L  R    L   R    L R  R  R   L  R    L  R    L R  R  R                      |


	               |
                                                R  R   R                       |
E------------------------------------------------------------                  |
B---------------------13------------------------14/16--------                  | x2
G--------------13p0h8----13-------------13p0h8---------15----                  |
D-----13p0h10-------------------13p0h10---------8------------                  |
A--11------------------------11-----------------7------------                  |
E------------------------------------------------------------                  |
                                                L                              |


		       |
E-----------------------------------------------------------------------       |
B-----------------------------------------------------------------------       |
G----8--12-13------------12-13---------8--12-13-----------12-13---------       |
D-------------13/15--10--------13-15------------13/15--10-------13-15---       |
A--8-----------------8---------------8-----------------8----------------       |
E-----------------------------------------------------------------------       |
   L L  R  R  R  R   L   R  R  R  R  L L  R  R  R  R   L   R  R  R  R          |

quick tap riff  (even more tapping!)
E-------------------------13----------------------------13--------|
B--------------------9-------13--------------------9-------13-----|
G------------10h13p0-----------------------10h13p0----------------|
D----10h13p0-----------13----------10h13p0-----------13-----------|
A-----------------------------------------------------------------|
E--9-----------------------------9--------------------------------|
   L L  R    L  R    L R  R  R   L L  R    L  R    L R  R  R

E---------------------------------------------------------------|
B------------------------9-11-----------------------11-13-------|
G-------13p0h6-12p0----------------13p0h6-12p0------------------|
D-----6-------------6h11---------6-------------6h11-------------|
A---------------------------------------------------------------|
E---6--------------------------6--------------------------------|
    L L R    L R    L R  R R   L L R    L R    L R  R  R

E--------------------------------------------------------------|
B--------8--8-----------8-8-9-8-------8-8-----------8-8-8-8\---|
G--5-----------5-8p5--------------5--------5-8p5---------------|
D--------8--8--------6--8-8-8-8-------8-8--------6--8-8-8-8\---|
A-----6-----------------------------6--------------------------|
E--4-----------4------------------4--------4-------------------|
   L  L  R  R  L R L L  R R R R


~then play the quick tap riff again~

2nd variation of it
E-------------------------13----------------------------13--------|
B---------------13---9----13-13---------------13---9----13-13-----|
G-------13---10h13p0---13----13-------13---10h13p0---13----13-----|
D----10h13p0-----------13----------10h13p0-----------13-----------|
A-----------------------------------------------------------------|
E--9-----------------------------9--------------------------------|

E---------------------------------------------------------------|
B------------------------9-11-----------------------11-13-------|
G-------13p0h6-12p0----------------13p0h6-12p0------------------|
D-----6-------------6h11---------6-------------6h11-------------|
A---------------------------------------------------------------|
E---6--------------------------6--------------------------------|


last time
E-------------------------13-----.--------------------------13--------|
B--------------------9-------13--.---------------------9--------------|
G------------10h13p0-------------.-------------10h13p0---------13-----|
D----10h13p0-----------13--------.-----10h13p0-----------13-----------|
A--------------------------------.------------------------------------|
E--9-----------------------------.---9--------------------------------|


ending
E----------------------------------------------------4------|
B---------------------8--9------------------------8--4------|
G--5--3--8--5---5--3--8--8----5--3--8--5----5--3--8--5------|
D--x--x--x--x---x--x--x--x----x--x--x--x----x--x--x--6------|
A--4--4--8--x---4--4--8--8----4--4--8--x----4--4--8--6------|
E--------6--4---------6--0----------6--4----------6--4------|






._._._._._._._. THE FAWN TOOK MY SHOES, AND NOW I NEED BLUES CLUES

~~~~~~~~~

E------------------------|---------------------|
B------------------------|---------------------|
G-----------234-456-678--|-987-876-765-654-----|
D------4-3---------------|---------------------|
A--2-5-------------------|---------------------|
E------------------------|---------------------|

my glasses, i can't see without my glasses!
E------7------10101010------7----1010-12-12-----7-----10101010------7-----

1010-12-7---------------------------------------------------------------------------|
B--------8----x-x-x-x--------8---x-x--x--x--------8---x-x-x-x---------8---x-x--x--x-|

-----
G--7h9-----9--8-8-8-8--7h9-----9-8-8--10-10--7h9----9-8-8-8-8---7h9-----9-8-

8--10-5------------------------------------------------------------------------------|
D------------------------------------------------------------------------------------|
A------------------------------------------------------------------------------------|
E------------------------------------------------------------------------------------|


E---------------|-5p0-|--7p0-|-10p0-|-10/12----|
B---------------|-----|------|------|----------|
G---------------|-----|------|------|----------|
D----5-4p0------|-----|------|------|----------|
A--7-------0-5--|-----|------|------|----------|
E---------------|-----|------|------|----------|

E--------------------|------------|
B-------------7-5----|--10--7-----|
G-------7p0---5-5----|--7---7-----|
D----5------0--------|------------|
A--3-----------------|------------|
E--------------------|------------|


tap this
              R R R R   R R   R   R R
E------------------------------------------|
B------------------------------------------|
G-------------------7p0-------7---------7--|
D---------9p0-7/9-5-----7/9-5-----7/9-5----|
A------10-----5---------5-------5-5--------|
E--3/8-------------------------------------|
   L L R  R   L   L     L   L   L L

       R  R     R R   R   R R   R   R     R
E----------------------------------------------|
B------12-------------7---------8---------7----|
G---------12p0---------------------------------|
D---------9p0---7/9-5-7---7/9-5-7---7/9-5-7----|
A------10-------5-------5-5-------5-5----------|
E--3/8-----------------------------------------|
   L L L  L     L   L   L L   L   L L   L


E----------------------------|
B--888--121212--3-3--3-3--7--|
G--xxx--x-x-x---x-x--x-x--x--|
D--xxx--x-x-x---x-x--x-x--x--|
A--777--101010--2-3--2-3--5--|
E----------------------------|

E-----5p0-------7p0----10p0-------10/12--|
B--7-------7-7-------7-------7--7--------|
G--x-------x-x-------x-------x--x--------|
D--x-------x-x-------x-------x--x--------|
A--5-------5-5-------5-------5--5--------|
E----------------------------------------|

E------------------------------------------------------------------------|
B-----------------8p0----------------------------------------------------|
G---------7h9p7p0-------------------------12-----------7/9-------7/12-9--|
D---------------------7p0-7h9p7p0-7p0--------12--------7/9-------7/12-9--|
A--101010------------------------------7/--------5-5-5-------------------|
E--8-8-8-----------------------------------------3-3-3-----3-3-3---------|


E---------------------------------------------------------------------|
B---------------------------------------------------------------------|
G---------------------------------------------------------------------|
D-------------12------9------------12------9---------------9-10-12-9--|

-----------------------------------------------------------------------------------|
A------1010--------10-------1010--------10----------9-9--------------------9-9-----|

10/12\10p0-
E--8-8------8----8------8-8------8----8-------10-10-----10-----------10-10-----10--

----------


E------------------------------|
B------------------------------|
G--6--8--9--8----6--8--9--8----|
D--6--x--9--7----6--x--9--7----|
A--4--9--x--x----4--9--x--x----|
E--5--7--9--7----5--7--9--7----|

E---------------|-------|
B---------------|-------|
G--6--8--8--9---|--6----|
D--6--x--x--9---|--6----|
A--4--9--9--x---|--4----|
E--5--7--8--9---|--5----|
pm . . . . . . .





._._._._._._._. AH HAAHA HA GOES THIS HILARIOUS HYENA

~~~~~~~~~~~~~~~~~~~~

Riff A				R    L
E------------------------------------------------------------|
B-------12p0----10p0-------------------------------15p0------|
G------------4---------11p0----------7----------7------------|
D-----4--------------4----------12----11---------------------|
A---------------------------5-----12------12/14--------------|
E--3----------------------------7----------------------------|
   L  L R    L  R    L R    L   L R   R   R     L  R


E------------------------------------|
B-----------12--------------15-------|
G--------11----11---------7----7-----|
D-----12----------12---14--------14--|
A--10----------------7---------------|
E------------------------------------|
   L  R  L  R  L  R  L R  L R  L R


   R  L    R
E------------------|---------|-------|--10-10----|
B------------------|--12-12--|-12/15-|-----------|
G--9-----9-11p0----|--11-11--|-11/14-|-----------|
D-----7----------4-|---------|-------|--9--9-----|
A----9/12--------5-|---------|-------|--5--5-----|
E--7-------------3-|---------|-------|--3--3-----|
   L R           L    R  R


Riff B					           R
E------------------------------------------------------------|
B-------12p0----10p0-------------------------------15p0------|
G------------4---------11p0------------------------11--------|
D-----4--------------4----------12----11-----------11--------|
A---------------------------5-----12------12/14--------------|
E--3----------------------------7----------------10----------|
   L  L R    L  R    L R    L   L R   R   R      L L


E------------------------------------|
B-----------12--------------15-------|
G--------11----11---------7----7-----|
D-----12----------12---14--------14--|
A--10----------------7---------------|
E------------------------------------|
   L  R  L  R  L  R  L R  L R  L R

E---------------------------------------|--------------|-------------|
B-------------12-12--------------12/15--|--------------|-------------|
G-------------11-11--------------11/14--|--------------|-------------|
D--7-7-7\--4------------7-7--4-4--------|--7-7-7-4--4--|-7-7-7-7--7--|
A--9-9-9\--5------------9-9--5-5--------|--9-9-9-5--5--|-9-9-9-9--9--|
E--7-7-7\--3------------7-7--3-3--------|--7-7-7-3--3--|-7-7-7-7--7--|
             tap w/ R

E--------------------0-0-0-0----------------------|
B--8-8---7-7---3-3---2-2-2-2----------------------|
G--x-x---x-x---x-x---0-0-0-0----------------------|
D--9-9---7-7---4-4---2-2-2-2---7-7--4-4--7-7--4-4-|  x2
A--7-7---5-5---2-2---2-2-2-2---9-9--5-5--9-9--5-5-|
E--------------------0-0-0-0---7-7--3-3--7-7--3-3-|


E------------------------------------------------0---|
B--8-8--7-7--3-3--5-5---8-8--7-7--3-3--5-5---8---2---|
G--x-x--x-x--x-x--x-x---x-x--x-x--x-x--x-x---x---0---|
D--9-9--7-7--4-4--5-5---9-9--7-7--4-4--5-5---9---2---|
A--7-7--5-5--2-2--3-3---7-7--5-5--2-2--3-3---7---2---|
E------------------------------------------------0---|

tap
E------------------------------------------14---|
B--------------------12p0h7h8--15p0h10h12-------|
G-----------11p0h6h7------------------h11--14---|
D--12p0h7h9-------------------------------------|
A-----------------------------------------------|
E-----------------------------------------------|
   R    L L R    L L R    L L  R    L  L   R


(listen for strumming rhythms)
E--0--0---5--5---0-------------0--------------------|
B--3--3---7--7---7-------0---7--------[7]-----------|
G--0--0---6--6---6-----6-----------------[7]--------|
D--4--4---x--x---x--------------------------[7]-----|
A--2--2---5--5---5----------------5*----------------|
E----------------7---7-----5------3*----------------|

E--0--0---5---5-5h7p5-----------0---9----------7-5-------------|
B--3--3---7---7------7p0----0---7---10-----5/7-----7-5/7--3----|
G--0--0---7\6-6-6-----------7---6---11--------------------4----|
D--4--4---x---x-x-----------x---x---12--------------------4----|
A--2--2---5---5-5-----------5---5---9----0----------------x----|
E---------------------------7---7-------------------------3----|


E-----------------------------------------------------------|---------------|
B----------[7]---[7]----------------[7]---------------------|---------------|
G-------[7]---------[7]----------[7]------------12-11-------|---------------|
D----[7]---------------[7]----[7]---------------------12----|---------------|
A-5/-----------9\----------5/------------9-9--12------------|--9-9-9-12-12--|
E-3/-----------7\----------3/------------7-7--10---------10-|--7-7-7-10-10--|


bass solo, then...

tap
 Right hand plays quarter notes, left hand plays triplet-type rhythm
E----------------------------------------------------------|
B---------------12-12-12-12--------------------------------|
G--11-11-11-11---------------14-14-14-14--11-11-11-11------|
D--------------------------7-------------------------------|
A-------------5--------------9-9-9--9-7-9------------------|
E--3-3-3--3-5---7-7-7--7-9----------------7-7-7-9--7--5----|

E--------------------------------------------------------|
B--12-12-12-12--12-12-12-12--15-15-15-15--14-14-15-14----|
G---------------11-11-11-11--14-14-14-14-----------------|
D--12-12-12-12-------------7--------------14-14-14-14----|
A-------------5--------------9-9-9--9-7-9----------------|
E--3-3-3--3-5---7-7-7--7-9----------------7-7-7-9--7--5--|


DANCE~~~!!~!!~!

Loop 1
E-----------------------------------------------|
B-----------------------------------------------|
G-----------------------------------------------|
D------------4-4-4------------------4-4-4-5-----|
A--2-2-2---2-5-5-5-4-4-4--2-2-2---2-5-5-5-7--5--|
E--3-3-3---3-------5-5-5--3-3-3---3----------7--|

Loop 2
E-----------------------------------------|
B------7--7-7-7-5-7-------7--7-7-7-5-7----|
G------7--7-7-7-7-7-------7--7-7-7-7-7----|
D-----------------------------------------|
A-----------------------------------------|
E-----------------------------------------|

Loop 3
E--------------------------------------------------12-12-----------|
B--12-12---12-12---12-12---12-12---12-12---12-12---12-12---12-12---|
G--11-11---11-11---11-11---11-11---11-11---11-11-----------11-11---|
D------------------------------------------------------------------|
A------------------------------------------------------------------|
E------------------------------------------------------------------|

Loop 4
E----------------------------------------------------------------|
B--10-10-1010-7-10---------------10-10-1010-7-10-----------------|
G------------------9h11-9-7-9-7-------------------9h11-9-7-9\11--|
D----------------------------------------------------------------|
A----------------------------------------------------------------|
E----------------------------------------------------------------|

Ending

	(right hand - pull off after each note)
E----------------------------------------------------------------|---0---|
B-----------12--10------------10--15--------15---------------12--|---3---|
G--11---------------11--9/11----------14/16----14--11------------|---4---|
D-----11/12---------------------7-----------------------11/12----|---4---|
A-------------------5-------------9---------9-7-9----------------|---x---|
E--3------------3-5---5-----7-9-------------------7---7-9--5-----|---3---|
  left hand taps bass note





._._._._._._._._._._._._._. PANDA BEAR CITY

~~~~~~~~~~~~~~~~~~~~~~~~~~~~~~

note: most of the song is tapped with exception to the fast

strumming part.

intro
E------------------------------------|
B------------------------------------|
G------------------------------------|
D-----------5-9----------5-9---------|
A----5-10---------5-10---------5-10--|
E--3------3-----3------3-----3-------|
   L L R  L L R L L R  L L R L L R

E-------------------------------------------------------------------------------|
B------------------------------------12-----------------------------------------|
G--------------------------------------------------------------------------12---|
D-----------5-9---------7-9--7-----7-12-----------5-9---------7-9--7-----7-12---|
A----5-10-----------10---------10----------5-10-----------10---------10---------|
E--3------3-----3/7----7----7-----7------3------3-----3/7----7----7-----7-------|
   L L R  L L R L L R  LL R LL R  LL R


   R  R  R R   R
E-------------------------------------------------------------|
B---------------------------15--------------------------12----|
G-------------------------------------------------------------|
D--12-12-1212--12-----------14--12--12-9-9-9--7-7/5--12-------|
A--10-10-1010--10--7-10p7h9-----5---5--5-5-5------------------|
E--8--8--8-8---8----------------3---3--3-3-3------------------|
   L  L  L L   L   L R  L L R                 L L L  R  R

E--------------------------------------------------------------|
B------------------------------15--------------------------12--|
G--------------------------------------------------------------|
D--12-12-1212--12---------7-9--14--12--12-9-9-9--7-7/5--12-----|
A--10-10-1010--10--7-9-10----------5---5--5-5-5----------------|
E--8--8--8-8---8-------------------3---3--3-3-3----------------|
                   L L R  L L  R

E-----------------------------------------------------------------------------|
B------------------------------------------12--------12--------12--------12---|
G--------9-------9-------9-------9-------9---------9---------9---------9------|
D------7-------7-------7-------7------12--------12--------12--------12--------|
A----9-------9-------9-------9------7---------7---------7---------7-----------|
E--7-------7-------7-------7--------------------------------------------------|
   L R L R L R L R                  L R  L R  L R  L R

E---------------------------------------------|
B--------------------12-------------------12--|
G----------9-12-----------------9-12----------|
D-----9-12------9-12-------9-12------9-12-----|
A--10-------------------10--------------------|
E---------------------------------------------|
   L  L R  L R  L R  R


E-------------------------------------|
B------12------5--------12-------15---|
G-------------------------------------|
D------12------5--------12-------14---|
A------------------5/7------7\5-------|
E--3/5-----7h8------------------------|
   L L R   L L R   L L  R   L L  R

                                         or
E-------------------------------------|-----------------|
B------------------------------7-10---|----------7/12---|
G-------------------------------------|-----------------|
D-------12p0---9-------5-7p0----------|--5-7p0---7/12---|
A----10------7---10p0--------5--------|--------5--------|
E--8----------------------------------|-----------------|
   L L  R    L R R     L R   L R R       L R   L R R

listen for rhythm                                       ^
E-----------------------------------------------------------12--|
B-----12----12----12----12---15---12----12---12---12------------|
G-----------------------------------------------------------12--|
D-----12----12----12----12---14---12----12---12---12----7/9-----|
A--10----10----10-----7----7----7-----5----5----5----5--5/7-----|
E--8-----8-----8------5----5----5-----3----3----3----3----------|
   L  R  L  R         L R  L R        L R  L R          L   R

   R                R                R                    R
E-------------------------------------------------------------------------------|
B--8p7-8p7-8p7-8p7--8p7-8p7-8p7-8p7--10p8-10p8-10p8-10p8--12p8------------------|
12p8-12p8-12p8------------------------------------------------------------------|
G--5---------------------------------8------------------------------------------|
D-------------------------------------------------------------------------------|
A-------------------7-----------------------------------------------------------|
E------------------------------------7--------------------8---------------------|
   L L              L L              L  L                 L  L


strum really fast
E--------------------------------------------|
B--7--8--7--8--7-8--8--8-10-7-8--8-10-12-10--|
G--5--5--5--5--x-x--x--8-8--8-8--x-x--x--x---| x3
D--0--0--0--0--x-x--x--x-x--x-x--x-x--x--x---|
A--------------7-7--7--x-x--x-x--x-x--x--x---|
E----------------------7-7--7-7--8-8--8--8---|

E---------------------|
B--7----8----5----4---|
G--5----5----5----5---|
D--0----0----0----0---|
A---------------------|
E---------------------|


outro
E--------------------------------------------------------------------------|-----|
B----------------------------------------------------------------------12--|-----|
G--------------------------------------------------------------------------|-----|
D-----------5-9----------5-9------------------5-9---------7-9--7-----7-12--|-----|
A----5-10---------5-10---------5-10----5-10-----------10---------10--------|--5--|
E--3------3-----3------3-----3-------3------3-----3/7----7----7-----7------|--3--|
comments
We did not receive enough feedback on this tab! Please rate:
print report bad tab
1 2 3 4 5
I want to post or [tab]
guest
You may want to rate the tab now too:
select rating
Please do not post tabs as comments. Select "correction" instead!