Oops, an error
Loading. Please wait.

A Gunshot To The Head Of Tredidation Tab

5,136 views 1 this week
no commentswrite comment
1 2 3 4 5
accurate
x 1
Autoscroll
+/-
esc
set tempo
stop
Contributor
WARNING: You are trying to view
                                    content from Ultimate-Guitar.com
                                    in an unauthorized application,
                                    which is prohibited.

                                    Please use an official Ultimate
                                    Guitar Tabs application for iPhone,
                                    iPad or Android to access legitimate
                                    chords, guitar, bass, and drum tabs
                                    from Ultimate-Guitar.com database.

                                    Type "ultimate guitar tabs" in Apple
                                    App Store's or Android Market's
                                    search to find the application.
A gunshot to the head of trepidation- TRIVIUM

Intro: Gtr.1  (0:00)
e|-----|-----|------|------|
B|-----|-----|------|------|
G|--7--|--6--|---9--|--10--|
D|--x--|--x--|---x--|---x--|
A|--5--|--4--|---7--|---8--|
D|-----|-----|------|------|

e|-----|-----|------|-----------------------|
B|-----|-----|------|-----------------------|
G|--7--|--6--|--12--|--14-------------------|
D|--x--|--x--|---x--|---x--------12\--------|
A|--5--|--4--|--10--|--12--------12\--------|
D|-----|-----|------|------------12\--------|

Gtr.2  (0:00)
e|-----|-----|------|------|
B|--6--|--5--|---8--|--10--|
G|--x--|--x--|---x--|---x--|
D|--3--|--2--|---5--|---7--|
A|-----|-----|------|------|
D|-----|-----|------|------|

e|-----|-----|------|-----------------------|
B|--6--|--5--|--11--|--10-------------------|
G|--x--|--x--|---x--|---x-------------------|
D|--3--|--2--|---8--|---7--------------12\--|
A|-----|-----|------|------------------12\--|
D|-----|-----|------|------------------12\--|

Gtr.1   (0:16)
e|--------------------|----------------------|  --|
B|--------------------|----------------------|    |
G|--7------7\6------6/|9------9/10-----------|    |
D|--x------x-x------x-|x------x--x-----------|    |
A|--5------5\4------4/|7------7/-8-----------|    |
D|----0000-----0000---|--0000------000000000-|    |
Pm    ....     ....      ....      .........      | x2
                                                  |
e|--------------------|----------------------|    |
B|--------------------|----------------------|    |
G|--7------7\6------6/|9------9/12----10-----|    |
D|--x------x-x------x-|x------x--x-----x-----|    |
A|--5------5\4------4/|7------7/10-----8-----|    |
D|----0000-----0000---|--0000----------------|  --|
Pm    ....     ....      ....

Gtr.2   (0:16)
e|--------------------|----------------------|  --|
B|--6------6\5------5/|8------8/10-----------|    |
G|--x------x-x------x-|x------x--x-----------|    |
D|--3------3\2------2/|5------5/-7-----------|    |
A|--------------------|----------------------|    |
D|----0000-----0000---|--0000------000000000-|    |
Pm    ....     ....      ....      .........      | x2
                                                  |
e|--------------------|----------------------|    |
B|--6------6\5------5/|8------8/11----10-----|    |
G|--x------x-x------x-|x------x--x-----x-----|    |
D|--3------3\2------2/|5------5/-8-----7-----|    |
A|--------------------|----------------------|    |
D|----0000-----0000---|--0000----------------|  --|
Pm    ....     ....      ....

Gtr.1   (0:33)
e|--------------------|--------------------|
B|--------------------|--------------------|
G|--------------------|--------------------|   x2
D|-----7-5-7----7-5-7-|-----7-5-7-7-3-5-2--|
A|--55-------77-------|--88----------------|
D|--------------------|--------------------|
Gtr.2   (0:33)
e|--------------------|--------------------|
B|--------------------|--------------------|
G|--------------------|--------------------|   x2
D|--------------------|--------------------|
A|-----8-7-8----8-7-8-|-----8-7-8-8-5-7-3--|
D|--33-------55-------|--77----------------|

Then: Gtr.1
e|------------------|-------------------|
B|------------------|-------------------|
G|------------------|-------------------|   x2
D|----7-5-7---7-5-7-|----7-5-7-7-3-5-2--|
A|--5-------7-------|--8----------------|
D|------------------|-------------------|
Gtr.2
e|------------------|-------------------|
B|------------------|-------------------|
G|------------------|-------------------|   x2
D|------------------|-------------------|
A|----8-7-8---8-7-8-|----8-7-8-8-5-7-3--|
D|--3-------5-------|--7----------------|

Verse: Gtr.1   (0:49)
e|--------------------|----------------------|  --|
B|--------------------|----------------------|    |
G|--7------7\6------6/|9------9/10-----------|    |
D|--x------x-x------x-|x------x--x-----------|    |
A|--5------5\4------4/|7------7/-8-----------|    |
D|----0000-----0000---|--0000------000000000-|    |
Pm    ....     ....      ....      .........      | x2
                                                  |
e|--------------------|----------------------|    |
B|--------------------|----------------------|    |
G|--7------7\6------6/|9------9/12----10-----|    |
D|--x------x-x------x-|x------x--x-----x-----|    |
A|--5------5\4------4/|7------7/10-----8-----|    |
D|----0000-----0000---|--0000----------------|  --|
Pm    ....     ....      ....

Gtr.2   (0:49)
e|--------------------|----------------------|  --|
B|--6------6\5------5/|8------8/10-----------|    |
G|--x------x-x------x-|x------x--x-----------|    |
D|--3------3\2------2/|5------5/-7-----------|    |
A|--------------------|----------------------|    |
D|----0000-----0000---|--0000------000000000-|    |
Pm    ....     ....      ....      .........      | x2
                                                  |
e|--------------------|----------------------|    |
B|--6------6\5------5/|8------8/11----10-----|    |
G|--x------x-x------x-|x------x--x-----x-----|    |
D|--3------3\2------2/|5------5/-8-----7-----|    |
A|--------------------|----------------------|    |
D|----0000-----0000---|--0000----------------|  --|
Pm    ....     ....      ....

Chorus: Gtr.1   (1:05)
e|--------------------|--------------------|
B|--------------------|--------------------|
G|--------------------|--------------------|   x2
D|-----7-5-7----7-5-7-|-----7-5-7-7-3-5-2--|
A|--55-------77-------|--88----------------|
D|--------------------|--------------------|
Gtr.2   (1:05)
e|--------------------|--------------------|
B|--------------------|--------------------|
G|--------------------|--------------------|   x2
D|--------------------|--------------------|
A|-----8-7-8----8-7-8-|-----8-7-8-8-5-7-3--|
D|--33-------55-------|--77----------------|

Then: Gtr.1
e|------------------|-------------------|
B|------------------|-------------------|
G|------------------|-------------------|   x2
D|----7-5-7---7-5-7-|----7-5-7-7-3-5-2--|
A|--5-------7-------|--8----------------|
D|------------------|-------------------|
Gtr.2
e|------------------|-------------------|
B|------------------|-------------------|
G|------------------|-------------------|   x2
D|------------------|-------------------|
A|----8-7-8---8-7-8-|----8-7-8-8-5-7-3--|
D|--3-------5-------|--7----------------|

Solo Interlude: (1:22) Whole section is played x2. N.B: For all the solo bits I'll put
all the guitar parts next to each other.
Gtr.1
e|---|----------------------|--------------5-3---|
B|-5-|-6-5h6p5------------5-|-6-5h6p5----------5-|
G|---|---------7------------|---------7-5--------|
D|---|-----------7--7h8-7---|--------------------|
A|---|----------------------|--------------------|
D|---|----------------------|--------------------|
Gtr.2
e|-3-|-5-3h5p3------------3-|-5-3h5p3------8-6-3-|
B|---|---------6------------|---------6-5--------|
G|---|-----------5--5h7-5---|--------------------|
D|---|----------------------|--------------------|
A|---|----------------------|--------------------|
D|---|----------------------|--------------------|
Gtr.3
e|---|----------------------|--------------------|
B|---|----------------------|--------------------|
G|---|----------------------|--------------------|
D|---|-0--------------------|-5------------------|
A|---|-0--------------------|-5------------------|
D|---|-0--------------------|-5------------------|

Gtr.1
e|---|----------------------|
B|-5-|-6-5h6p5--------------|
G|---|---------7------------|
D|---|-----------7--7h8-7---|
A|---|----------------------|
D|---|----------------------|
Gtr.2
e|-3-|-5-3h5p3--------------|
B|---|---------6------------|
G|---|-----------5--5h7-5---|
D|---|----------------------|
A|---|----------------------|
D|---|----------------------|
Gtr.3
e|---|----------------------|
B|---|----------------------|
G|---|----------------------|
D|---|-7--------------------|
A|---|-7--------------------|
D|---|-7--------------------|

Gtr.1
e|----------------------------------------------|
B|-----------------------------------6-3h5h6p5--|
G|-------------2h3---2h3h5-2h3h5-3h5------------|
D|-2h3---2h3h5-----5----------------------------|
A|-----5----------------------------------------|
D|----------------------------------------------|
Gtr.2
e|-----------------------------------5-1h3h5p3--|
B|-------------1h3---1h3h5-1h3h5-3h5------------|
G|-0h2---0h2h3-----3----------------------------|
D|-----3----------------------------------------|
A|----------------------------------------------|
D|----------------------------------------------|
Gtr.3
e|----------------------------------------------|
B|----------------------------------------------|
G|----------------------------------------------|
D|-8----------------------3----------2----------|
A|-8----------------------3----------2----------|
D|-8----------------------3----------2----------|

Verse: Gtr.1   (1:38)
e|--------------------|----------------------|  --|
B|--------------------|----------------------|    |
G|--7------7\6------6/|9------9/10-----------|    |
D|--x------x-x------x-|x------x--x-----------|    |
A|--5------5\4------4/|7------7/-8-----------|    |
D|----0000-----0000---|--0000------000000000-|    |
Pm    ....     ....      ....      .........      | x2
                                                  |
e|--------------------|----------------------|    |
B|--------------------|----------------------|    |
G|--7------7\6------6/|9------9/12----10-----|    |
D|--x------x-x------x-|x------x--x-----x-----|    |
A|--5------5\4------4/|7------7/10-----8-----|    |
D|----0000-----0000---|--0000----------------|  --|
Pm    ....     ....      ....

Gtr.2   (1:38)
e|--------------------|----------------------|  --|
B|--6------6\5------5/|8------8/10-----------|    |
G|--x------x-x------x-|x------x--x-----------|    |
D|--3------3\2------2/|5------5/-7-----------|    |
A|--------------------|----------------------|    |
D|----0000-----0000---|--0000------000000000-|    |
Pm    ....     ....      ....      .........      | x2
                                                  |
e|--------------------|----------------------|    |
B|--6------6\5------5/|8------8/11----10-----|    |
G|--x------x-x------x-|x------x--x-----x-----|    |
D|--3------3\2------2/|5------5/-8-----7-----|    |
A|--------------------|----------------------|    |
D|----0000-----0000---|--0000----------------|  --|
Pm    ....     ....      ....

Chorus: Gtr.1   (1:55)
e|--------------------|--------------------|
B|--------------------|--------------------|
G|--------------------|--------------------|   x2
D|-----7-5-7----7-5-7-|-----7-5-7-7-3-5-2--|
A|--55-------77-------|--88----------------|
D|--------------------|--------------------|
Gtr.2   (1:55)
e|--------------------|--------------------|
B|--------------------|--------------------|
G|--------------------|--------------------|   x2
D|--------------------|--------------------|
A|-----8-7-8----8-7-8-|-----8-7-8-8-5-7-3--|
D|--33-------55-------|--77----------------|

Then: Gtr.1
e|------------------|-------------------|
B|------------------|-------------------|
G|------------------|-------------------|   x2
D|----7-5-7---7-5-7-|----7-5-7-7-3-5-2--|
A|--5-------7-------|--8----------------|
D|------------------|-------------------|
Gtr.2
e|------------------|-------------------|
B|------------------|-------------------|
G|------------------|-------------------|   x2
D|------------------|-------------------|
A|----8-7-8---8-7-8-|----8-7-8-8-5-7-3--|
D|--3-------5-------|--7----------------|

Solo Interlude: (2:11) x4
Gtr.1
e|---|----------------------|--------------5-3---|
B|-5-|-6-5h6p5------------5-|-6-5h6p5----------5-|
G|---|---------7------------|---------7-5--------|
D|---|-----------7--7b8r7---|--------------------|
A|---|----------------------|--------------------|
D|---|----------------------|--------------------|
Gtr.2
e|-3-|-5-3h5p3------------3-|-5-3h5p3------8-6-3-|
B|---|---------6------------|---------6-5--------|
G|---|-----------5--5b7r5---|--------------------|
D|---|----------------------|--------------------|
A|---|----------------------|--------------------|
D|---|----------------------|--------------------|
Gtr.3
e|---|----------------------|--------------------|
B|---|----------------------|--------------------|
G|---|----------------------|--------------------|
D|---|-0--------------------|-5------------------|
A|---|-0--------------------|-5------------------|
D|---|-0--------------------|-5------------------|

Gtr.1
e|---|----------------------|
B|-5-|-6-5h6p5--------------|
G|---|---------7------------|
D|---|-----------7--7h8-7---|
A|---|----------------------|
D|---|----------------------|
Gtr.2
e|-3-|-5-3h5p3--------------|
B|---|---------6------------|
G|---|-----------5--5h7-5---|
D|---|----------------------|
A|---|----------------------|
D|---|----------------------|
Gtr.3
e|---|----------------------|
B|---|----------------------|
G|---|----------------------|
D|---|-7--------------------|
A|---|-7--------------------|
D|---|-7--------------------|

Gtr.1
e|----------------------------------------------|
B|-----------------------------------6-3h5h6p5--|
G|-------------2h3---2h3h5-2h3h5-3h5------------|
D|-2h3---2h3h5-----5----------------------------|
A|-----5----------------------------------------|
D|----------------------------------------------|
Gtr.2
e|-----------------------------------5-1h3h5p3--|
B|-------------1h3---1h3h5-1h3h5-3h5------------|
G|-0h2---0h2h3-----3----------------------------|
D|-----3----------------------------------------|
A|----------------------------------------------|
D|----------------------------------------------|
Gtr.3
e|----------------------------------------------|
B|----------------------------------------------|
G|----------------------------------------------|
D|-8----------------------3----------2----------|
A|-8----------------------3----------2----------|
D|-8----------------------3----------2----------|

New chorus (after speed change): (2:44)
Both Gtrs. x4
e|---------------|---------------|
B|---------------|---------------|
G|-3-----5-----7-|---------------|
D|-3-----5-----7-|-0-0-0-0-0-0-0-|
A|-1-----3-----5-|-0-0-0-0-0-0-0-|
D|---------------|-0-0-0-0-0-0-0-|
Pm                 . . . . . . .
e|---------------|---------------|
B|---------------|---------------|
G|-3-----5-------|---------------|
D|-3-----5-----5-|-7--3--3-3-3-3-|
A|-1-----3-----5-|-7--3--3-3-3-3-|
D|-------------5-|-7--3--3-3-3-3-|
Pm                       . . . .

Pre-solo riff: (3:10)
Gtr.1
e|--------------------|---------------|
B|--------------------|---------------|
G|--------------------|---------------|
D|--------------------|---------------|
A|-----5---3---6-5(ph)|-----3---------|
D|-0-00--00--00-------|---0---0-3-4-5-|
Pm . ..  ..  ..
Gtr.2
e|--------------------|---------------|
B|--------------------|---------------|
G|--------------------|---------------|
D|--------------------|---------3-4-5-|
A|--------------------|---------3-4-5-|
D|--------------------|---------3-4-5-|

Gtr.1
e|--------------------|---------------|
B|--------------------|---------------|
G|--------------------|---------------|
D|--------------------|---------------|
A|-----5---3---6-5(ph)|-----3---------|
D|-0-00--00--00-------|---0---0-3-4-5-|
Pm . ..  ..  ..
Gtr.2
e|--------------------|---------------|
B|--------------------|---------------|
G|--------------------|---------------|
D|-0------------------|---------3-4-5-|
A|-0------------------|---------3-4-5-|
D|-0------------------|---------3-4-5-|

Gtr.1
e|--------------------|---------------|
B|--------------------|---------------|
G|--------------------|---------------|
D|--------------------|---------------|
A|-----5---3---6-5(ph)|-----3---------|
D|-0-00--00--00-------|---0---0-3-4-5-|
Pm . ..  ..  ..
Gtr.2
e|--------------------|---------------|
B|--------------------|---------------|
G|--------------------|---------------|
D|-0------------------|---------3-4-5-|
A|-0------------------|---------3-4-5-|
D|-0------------------|---------3-4-5-|

Both Gtrs.
e|---------------|----------------|
B|-------------0-|-0--------------|
G|-7-7---5-5---0-|-0--------------|
D|-7-7---5-5---x-|-x--------------|
A|-5-5---3-3---1-|-1--------------|
D|---------------|--------2-3-4-5-|

Solo: Gtr.2 plays the Gtr.1 part from the pre-solo once. Here we go... here's the Gtr.1 solo.
e|-6p3--------------------------|-3-33-5h6-5------------|
B|----4p3---------3h4h6-4p3-3h4-|-------------3h4h6p4p3-|
G|-------5p3-2h3h5--------------|-----------------------|
D|------------------------------|-----------------------|
A|------------------------------|-----------------------|
D|------------------------------|-----------------------|




e|-------------------------3h5h6p5p3--|
B|----3h4p3-3h4h6p4p3-3h4h6---------3-|
G|-3h5-----5---------5----------------|
D|------------------------------------|
A|------------------------------------|
D|------------------------------------|
Slight pm........

e|-36/8-5h6h8p6p5-6p5-5-8/10-8h10p8—10p8-|
B|---------------8---8-------------11----|
G|---------------------------------------|
D|---------------------------------------|
A|---------------------------------------|
D|---------------------------------------|

e|-10/11-10h11p10p8—-8-10p8-|
B|-----------------11-------|
G|--------------------------|
D|--------------------------|
A|--------------------------|
D|--------------------------|

e|-11/13-10h11h13p11p10--11p10-13-15~---|
B|---------------------13---------------|
G|--------------------------------------|
D|--------------------------------------|
A|--------------------------------------|
D|--------------------------------------|

e|-15b--15b---------17--20—20b--|
B|------------------------------|
G|------------------------------|
D|------------------------------|
A|------------------------------|
D|------------------------------|

Gtr.2 solo:
e|------------------|----------------|
B|----------11------|--------10------|
G|-10--10-9---------|-9--7-9---------|
D|------------------|----------------|
A|------------------|----------------|
D|------------------|----------------|
Gtr.3
e|------------------|----------------|
B|------------------|----------------|
G|-7----------------|-6--------------|
D|-7----------------|-6--------------|
A|-5----------------|-4--------------|
D|------------------|----------------|


Gtr.2
e|---------------------|------------------|
B|---------------13----|------------------|
G|-----------10-----12-|-10—9h10p9--------|
D|-12--10-12-----------|-----------10-12--|
A|---------------------|------------------|
D|---------------------|------------------|
Gtr.3
e|---------------------|------------------|
B|---------------------|------------------|
G|-5-------------------|-4----------------|
D|-5-------------------|-4----------------|
A|-3-------------------|-2----------------|
D|---------------------|------------------|

Gtr.2 with wah
e|-----------------------------------|
B|-----------------10-13-10----13-10-|
G|-----------10-12----------12-------|
D|-0-0-10-12-------------------------|
A|-----------------------------------|
D|-----------------------------------|
Gtr.3
e|-----------------------------------|
B|-----------------------------------|
G|-3---------------------------------|
D|-3---------------------------------|
A|-1---------------------------------|
D|-----------------------------------|

Gtr.2
e|------------------------------------------|
B|------------------------------------------|
G|-12-10----10-12-10----10-12-10-12b--12-10-|
D|-------12----------12---------------------|
A|------------------------------------------|
D|------------------------------------------|
Gtr.3
e|------------------------------------------|
B|------------------------------------------|
G|-2----2-----------------------------------|
D|-2----2------------------------3----3--2--|
A|-0----0------------------------3----3--2--|
D|-------------------------------3—---3--2--|

Gtr.2  with wah
e|---------------------------------|
B|-------12--12--12--12--12--12----|
G|-------12--12--12--12--12--12-14-|
D|-12------------------------------|
A|---------------------------------|
D|---------------------------------|
Gtr.3
e|---------------------------------|
B|---------------------------------|
G|-------7---7---7---7---7---5—-7--|
D|-0-----7---7---7---7---7---5--7--|
A|-0-----5---5---5---5---5---3--5--|
D|-0-------------------------------|

Gtr.2  with wah
e|-----------13-12-----------|-----------15-13-------|
B|-13bh--(15)-------(15)r-13-|-15bh--(17)-------(17)-|
G|---------------------------|-----------------------|
D|---------------------------|-----------------------|
A|---------------------------|-----------------------|
D|---------------------------|-----------------------|
Gtr.3
e|---------------------------|-0---------------------|
B|---------------------------|-0---------------------|
G|-7-------------------------|-6---------------------|
D|-7-------------------------|-6---------------------|
A|-5-------------------------|-4---------------------|
D|---------------------------|-----------------------|

Gtr.2
e|-----------17-15------15-|-18--17-------------------|
B|-16bh--(18)-------(18)---|--------18----------------|
G|-------------------------|-----------17-15----15-17-|
D|-------------------------|--------------------------|
A|-------------------------|--------------------------|
D|-------------------------|--------------------------|
Gtr.3
e|-------------------------|------------------|
B|-------------------------|------------------|
G|-5-----------------------|-4----------------|
D|-5-----------------------|-4----------------|
A|-3-----------------------|-2----------------|
D|-------------------------|------------------|

Gtr.1 comes back in now
e|------------------------------------------------------|
B|---------------------------------------------10-11-12-|
G|-------------------12h14h15-12h14h15-9-10-12----------|
D|-12h14h15-12h14h15------------------------------------|
A|------------------------------------------------------|
D|------------------------------------------------------|
Gtr.3
e|-----------------------------------|
B|-----------------------------------|
G|-3---------------------------------|
D|-3---------------------------------|
A|-1---------------------------------|
D|-----------------------------------|

Gtr.1
e|--------------------------------|
B|-11p10—11p10--------------------|
G|------12----12-10-9-10h12--10-9-|
D|--------------------------------|
A|--------------------------------|
D|--------------------------------|
Gtr.3
e|------------------------------------------|
B|------------------------------------------|
G|-2----2-----------------------------------|
D|-2----2------------------------3----3--2--|
A|-0----0------------------------3----3--2--|
D|-------------------------------3—---3--2--|

Gtr.1
e|------------------------------------------------|
B|------------------------------------------------|
G|------------------------------------------------|
D|-12~--------------------------------------------|
A|------------------------------------------------|
D|------------------------------------------------|
Gtr.2
e|------------------------------------------------|
B|------------------------------------------------|
G|------------------------------------------------|
D|-0--------0---0---------------------------------|
A|-0--------0---0---------------------------------|
D|-0--------0---0-------------------—-------------|
Gtr.3
e|----------10--10----12--12----13--13----17--17--|
B|----------13b-13b---15b-15b---16b-16b---20b-20b-|
G|------------------------------------------------|
D|------------------------------------------------|
A|------------------------------------------------|
D|------------------------------------------------|

Dual: Gtr.1  (4:03)
e|------------------------------------------|
B|------------------------------------------|
G|-5-7-10-9--7-5-7--7-9-10-12-10h12p10p9-10-|
D|------------------------------------------|
A|------------------------------------------|
D|-------------------------------—----------|
Gtr.2
e|------------------------------------------|
B|-5-6-10-8--6-5-6--6-8-10-11-10h11p10p8-10-|
G|------------------------------------------|
D|------------------------------------------|
A|------------------------------------------|
D|-------------------------------—----------|

Gtr.1
e|---------------------------------|
B|---------------------------------|
G|-9-10-12-10--9-5----5-10-9--7-5--|
D|-----------------7---------------|
A|---------------------------------|
D|----------------------—----------|
Gtr.2
e|---------------------------------|
B|-8-10-11-10--8-5----5-10-8--6-5--|
G|-----------------5---------------|
D|---------------------------------|
A|---------------------------------|
D|----------------------—----------|

Gtr.1
e|------------------------------------------|
B|------------------------------------------|
G|-5-7-10-9--7-5-7--7-9-10-12-10h12p10p9-10-|
D|------------------------------------------|
A|------------------------------------------|
D|-------------------------------—----------|
Gtr.2
e|------------------------------------------|
B|-5-6-10-8--6-5-6--6-8-10-11-10h11p10p8-10-|
G|------------------------------------------|
D|------------------------------------------|
A|------------------------------------------|
D|-------------------------------—----------|

Gtr.1
e|------------------------------------------|
B|------------------------------------------|
G|-14-12-10-14-12-10-14b(15)r---------------|
D|------------------------------------------|
A|------------------------------------------|
D|-------------------------------—----------|
Gtr.2
e|------------------------------------------|
B|-13-11-10-13-11-10-13b(15)r---------------|
G|------------------------------------------|
D|------------------------------------------|
A|------------------------------------------|
D|-------------------------------—----------|

Then: Gtr.1
e|---------------------------|
B|---------------------------|
G|-7-5-7-10--7-5-9--7----5-7-|
D|---------------------------|
A|---------------------------|
D|---------------------------|
Gtr.2
e|----------------------------|
B|----------------------------|
G|----------------------------|
D|----------------------------|
A|-8-7-8-12--8-7-10--8----7-8-|
D|-----------------—----------|

Gtr.1
e|---------------------------------|
B|------------------6--8b(10)r-6---|
G|-10-9-7-5----5-7---------------5-|
D|-----------7---------------------|
A|---------------------------------|
D|----------------------—----------|
Gtr.2
e|-----------------------------------|
B|-----------------------------------|
G|-----------------------------------|
D|--------------------7--8b(10)r-7---|
A|-12-10-8-7-----7-8---------------7-|
D|------------10---------------------|

Gtr.1
e|---------------------------|
B|---------------------------|
G|-7-5-7-10--7-5-9--7----5-7-|
D|---------------------------|
A|---------------------------|
D|---------------------------|
Gtr.2
e|----------------------------|
B|----------------------------|
G|----------------------------|
D|----------------------------|
A|-8-7-8-12--8-7-10--8----7-8-|
D|-----------------—----------|

Gtr.1
e|---------------------------------|
B|------------------6--8b(10)r-6---|
G|-10-9-7-5----5-7-----------------|
D|-----------7---------------------|
A|---------------------------------|
D|----------------------—----------|
Gtr.2
e|-----------------------------------|
B|-----------------------------------|
G|-----------------------------------|
D|--------------------7--8b(10)r-7---|
A|-12-10-8-7-----7-8-----------------|
D|------------10---------------------|

Then: Gtr.1
e|-12p10--10-12p10--10-12p10--10-12p10--10-|
B|------11--------11--------11--------11---|
G|-----------------------------------------|
D|-----------------------------------------|
A|-----------------------------------------|
D|-----------------------------------------|
Gtr.2
e|-15p13--13-15p13--13-15p13--13-15p13--13-|
B|------15--------15--------15--------15---|
G|-----------------------------------------|
D|-----------------------------------------|
A|-----------------------------------------|
D|-----------------------------------------|

Gtr.1
e|-13p10-13p10--10-12p10-12p10--10-12p10--10-|
B|------------11--------------11--------11---|
G|-------------------------------------------|
D|-------------------------------------------|
A|-------------------------------------------|
D|-------------------------------------------|
Gtr.2
e|-17p13-17p13--13-15p13-15p13--13-15p13--13-|
B|------------15--------------15--------15---|
G|-------------------------------------------|
D|-------------------------------------------|
A|-------------------------------------------|
D|-------------------------------------------|

Gtr.1
e|-13p12--12-13p12--12-13p12--12-13p12--12-|
B|------13--------13--------13--------13---|
G|-----------------------------------------|
D|-----------------------------------------|
A|-----------------------------------------|
D|-----------------------------------------|
Gtr.2
e|-17p15--15-17p15--15-17p15--15-17p15--15-|
B|------17--------17--------17--------17---|
G|-----------------------------------------|
D|-----------------------------------------|
A|-----------------------------------------|
D|-----------------------------------------|

Gtr.1
e|-15p12-15p12--12-13p12-13p12--12-13p12--12-|
B|------------13--------------13--------13---|
G|-------------------------------------------|
D|-------------------------------------------|
A|-------------------------------------------|
D|-------------------------------------------|
Gtr.2
e|-18p15-18p15--15-17p15-17p15--15-17p15--15-|
B|------------17--------------17--------17---|
G|-------------------------------------------|
D|-------------------------------------------|
A|-------------------------------------------|
D|-------------------------------------------|

Gtr.1
e|-12p10--10-12p10--10-12p10--10-12p10--10-|
B|------11--------11--------11--------11---|
G|-----------------------------------------|
D|-----------------------------------------|
A|-----------------------------------------|
D|-----------------------------------------|
Gtr.2
e|-15p13--13-15p13--13-15p13--13-15p13--13-|
B|------15--------15--------15--------15---|
G|-----------------------------------------|
D|-----------------------------------------|
A|-----------------------------------------|
D|-----------------------------------------|

Gtr.1
e|-13p10-13p10--10-12p10-12p10--10-12p10--10-|
B|------------11--------------11--------11---|
G|-------------------------------------------|
D|-------------------------------------------|
A|-------------------------------------------|
D|-------------------------------------------|
Gtr.2
e|-17p13-17p13--13-15p13-15p13--13-15p13--13-|
B|------------15--------------15--------15---|
G|-------------------------------------------|
D|-------------------------------------------|
A|-------------------------------------------|
D|-------------------------------------------|

Gtr.1
e|-13p12--12-13p12--12-13p12--12-13p12--12-|
B|------13--------13--------13--------13---|
G|-----------------------------------------|
D|-----------------------------------------|
A|-----------------------------------------|
D|-----------------------------------------|
Gtr.2
e|-17p15--15-17p15--15-17p15--15-17p15--15-|
B|------17--------17--------17--------17---|
G|-----------------------------------------|
D|-----------------------------------------|
A|-----------------------------------------|
D|-----------------------------------------|

Gtr.1
e|-15p12-15p12--12-13p12-13p12--12-13p12--12-|
B|------------13--------------13--------13---|
G|-------------------------------------------|
D|-------------------------------------------|
A|-------------------------------------------|
D|-------------------------------------------|
Gtr.2
e|-18p15-18p15--15-17p15-17p15--15-17p15--15-|
B|------------17--------------17--------17---|
G|-------------------------------------------|
D|-------------------------------------------|
A|-------------------------------------------|
D|-------------------------------------------|

Both Guitars:
e|-13p10--10-------------------------------|
B|------13--13p10-13p10--10----------------|
G|---------------------12--12p10-12p10--10-|
D|------------------------------------12---|
A|-----------------------------------------|
D|-----------------------------------------|

e|------------------------------|
B|-------------13--10-13b-------|
G|-12b(14)r-10------------------|
D|------------------------------|
A|------------------------------|
D|------------------------------|

Epic bit: Both Guitars  (4:50)
e|------------|
B|------------|
G|-3--5--5----|   x3
D|-3--5--5----|
A|-1--3--7----|
D|------------|

Last time Gtr.1
e|-------------------------|
B|-------------------------|
G|-3--5--7-----------------|
D|-3--5--7--0-0-0-0-0-0-0--|
A|-1--3--5--0-0-0-0-0-0-0--|
D|----------0-0-0-0-0-0-0--|
Pm          . . . . . . .
Gtr.2
e|-------------------------------------|
B|-------------------------------------|
G|-3--5--7-----------------------------|
D|-3--5--7---------------<<<<<<<<<<<<--|
A|-1--3--5---pick scrape-<<<<<<<<<<<<--|
D|-------------------------------------|

Last Chorus: Both Gtrs. x3  (5:14)
e|---------------|---------------|
B|---------------|---------------|
G|-3-----5-----7-|---------------|
D|-3-----5-----7-|-0-0-0-0-0-0-0-|
A|-1-----3-----5-|-0-0-0-0-0-0-0-|
D|---------------|-0-0-0-0-0-0-0-|
Pm                 . . . . . . .
e|---------------|---------------|
B|---------------|---------------|
G|-3-----5-------|---------------|
D|-3-----5-----5-|-7--3--3-3-3-3-|
A|-1-----3-----5-|-7--3--3-3-3-3-|
D|-------------5-|-7--3--3-3-3-3-|
Pm                       . . . .

Last time:
Both Gtrs. x4
e|---------------|---------------|
B|---------------|---------------|
G|-3-----5-----7-|---------------|
D|-3-----5-----7-|-0-0-0-0-0-0-0-|
A|-1-----3-----5-|-0-0-0-0-0-0-0-|
D|---------------|-0-0-0-0-0-0-0-|
Pm                 . . . . . . .
e|---------------|-------|
B|---------------|-------|
G|-3-----5-------|-------|
D|-3-----5-----5-|-7--3--|
A|-1-----3-----5-|-7--3--|
D|-------------5-|-7--3--|

comments
We did not receive enough feedback on this tab! Please rate:
print report bad tab
1 2 3 4 5
I want to post or [tab]
guest
You may want to rate the tab now too:
select rating
Please do not post tabs as comments. Select "correction" instead!