Oops, an error
Loading. Please wait.

A Gunshot To The Head Of Trepidation Tab

ver1
ver1
More versions @911Tabs.com
20,954 views 9 this week
21 commentsread comments
1 2 3 4 5
accurate
x 24
add to favorites launch autoscroll
font size
0
reset
Autoscroll
+/-
esc
set tempo
stop
Difficulty
Tuning
advanced
D A D G B E
WARNING: You are trying to view
                                    content from Ultimate-Guitar.com
                                    in an unauthorized application,
                                    which is prohibited.

                                    Please use an official Ultimate
                                    Guitar Tabs application for iPhone,
                                    iPad or Android to access legitimate
                                    chords, guitar, bass, and drum tabs
                                    from Ultimate-Guitar.com database.

                                    Type "ultimate guitar tabs" in Apple
                                    App Store's or Android Market's
                                    search to find the application.
Band:  Trivium
Song:  A Gunshot To The Head To Trepidation
Tabbed by:  Kyle Macvicar

OK This is a the solo for Trivium's A Gunshot To The Head Of Trepidation this is a
very hard solo i spent a full 2 weeks learning it so that i could play it right but
anyway enjoy and good luck.


E]-18p15----------------------------15h18p14-17p14-------14\8----\5---------------------------------------------------|
B]------16p15\11------------11/15h16--------------15----------------7-8p7---------------------------------------------|
G]--------------12--------12------------------------14\11-------------------------------------------------------------|
D]----------------13p12h13--------------------------------------------------------------------------------------------|
A]--------------------------------------------------------------------------------------------------------------------|
D]--------------------------------------------------------------------------------------------------------------------|

E]------------------------------------------------------------8---------------10-11h13p11----------10h11---13/15------|
B]-------------------------------------------8p10h11--8h10p11---11p10p8-11h13-------------13p10h13--------------------|
G]--------7--------7--8h10p7h8p10h12-10-8h10--------------------------------------------------------------------------|
D]-7h8p10--10p7h10----------------------------------------------------------------------------------------------------|
A]--------------------------------------------------------------------------------------------------------------------|
D]--------------------------------------------------------------------------------------------------------------------|

E]-13p11----------11h13-15/17-15p13----------------13h15h17/18p17p15-------------15h17/20p18--------------------------|
B]-------15p13h15-------------------16p15p13h15h16-------------------18p16p15-18-------------20p17h20h22------20(22)--|
G]--------------------------------------------------------------------------------------------------------------------|
D]--------------------------------------------------------------------------------------------------------------------|
A]--------------------------------------------------------------------------------------------------------------------|
D]--------------------------------------------------------------------------------------------------------------------|

E]-------------------22-----------18------20----20(22)----------------------------------------------------------------|
B]----------------------------------------------------------------------------------------------------------\10-------|
G]--------------------------------------------------------------------------------------------------------------------|
D]--------------------------------------------------------------------------------------------------------------------|
A]--------------------------------------------------------------------------------------------------------------------|
D]--------------------------------------------------------------------------------------------------------------------|

solo 2

E]--------------------------------------------------------------------------------------------------------------------|
B]------------------------11----------------------------------------10------------------------------------------------|
G]-------9---------10----------------------\9--------7------9--------------------------------\7-----------------------|
D]--------------------------------------------------------------------------------------------------------------------|
A]--------------------------------------------------------------------------------------------------------------------|
D]--------------------------------------------------------------------------------------------------------------------|

E]------------------------------------------8-------------------------------------------------------------------------|
B]------------------------6/8---------------------8----------6--------------------5--6--5-----------------------------|
G]-------5----------7-----------------------------------------------------------------------7-------5------7\---------|
D]--------------------------------------------------------------------------------------------------------------------|
A]--------------------------------------------------------------------------------------------------------------------|
D]--------------------------------------------------------------------------------------------------------------------|

E]----------------------------10h13p10--------------------------------------------------------------------------------|
B]----------------------10h13----------13p10h13--10-------------------------------------------------------------------|
G]-----------------9h12-----------------------------12p10h12p10-----12(14)-------12----10-----------------------------|
D]------------8h12--------------------------------------------------------------------------12------------------------|
A]-------8h12---------------------------------------------------------------------------------------------------------|
D]--------------------------------------------------------------------------------------------------------------------|

E]------------------------------------------------------------------------------------------------------------------|
B]---------10-------------10-------------10-------------10--------------10-------------10-------------------13(15)--|
G]---------10------x------10------x------10------x------10------x-------10------x------10------12-------------------|
D]------------------------------------------------------------------------------------------------------------------|
A]------------------------------------------------------------------------------------------------------------------|
D]------------------------------------------------------------------------------------------------------------------|

E]----10--13--12vvv-----10------10--------12----12--15--13vvv----12------13------13--17--15vvv-----13----15--15/18----|
B]----------------------------------13-15(17)----------------------15-16(18)------------------------------------------|
G]--------------------------------------------------------------------------------------------------------------------|
D]--------------------------------------------------------------------------------------------------------------------|
A]--------------------------------------------------------------------------------------------------------------------|
D]--------------------------------------------------------------------------------------------------------------------|

E]----17--------------------------------------------------------------------------------------------------------------|
B]-----------18-------------------------------------------------------------------------------------------------------|
G]------------------17\-----12-----------------------14---------------------------------------------------------------|
D]--------------------------------------------------------------------------------------------------------------------|
A]--------------------------------------------------------------------------------------------------------------------|
D]--------------------------------------------------------------------------------------------------------------------|
--
E]-------10-----------10----------------12-----------------13-----------13-----------------15-----------17------------|
B]----13(15)-------13(15)------------15(17)-------------16(18)-------16(18)-------------18(20)-------20(22)-----------|
G]--------------------------------------------------------------------------------------------------------------------|
D]--------------------------------------------------------------------------------------------------------------------|
A]--------------------------------------------------------------------------------------------------------------------|
D]--------------------------------------------------------------------------------------------------------------------|

Harmony part

Guitar 1
E]--------5-------------------------5-8h8p6p5----6-8-10-8----------------5------------|
B]------6-----8------5---/6-----6-8-----------8-------------10-8-6-----8---8-----6-5--|
G]----7----------------5--------------------------------------------------------------|
D]------------------------------------------------------------------------------------|
A]------------------------------------------------------------------------------------|
D]------------------------------------------------------------------------------------|

Guitar 2

E]------------------------------------5-3h5p3-----3-5-6-5------------------------------|
B]---------6--5-------------------5-6---------6-5-------------6-5-3-----5-6-5-----3----|
G]-------7-----------5---/7-----7---------------------------------------------------5--|
D]-----8---------------7---------------------------------------------------------------|
A]-------------------------------------------------------------------------------------|
D]-------------------------------------------------------------------------------------|

Guitar 1

E]---------5----------------------5-8-6h8p6p5----12------12-------12-(13)--(12)---------------------------------------|
B]-------6---8-----5---/6-----6-8-------------8-----10-8----10-8------------------------------------------------------|
G]-----7-------------5------------------------------------------------------------------------------------------------|
D]--------------------------------------------------------------------------------------------------------------------|
A]--------------------------------------------------------------------------------------------------------------------|
D]--------------------------------------------------------------------------------------------------------------------|

Guitar 2

E]----------------------------------5-3h5p3-----8-----8-----8--(10--(8)-----------------------------------------------|
B]---------6-5------------------5-6---------6-5---6-5---6-5-----------------------------------------------------------|
G]-------7---------5---/7-----7---------------------------------------------------------------------------------------|
D]-----8-------------7------------------------------------------------------------------------------------------------|
A]--------------------------------------------------------------------------------------------------------------------|
D]--------------------------------------------------------------------------------------------------------------------|

Guitar 1    Note: do this bit 2 times before the next bit

E]--------------------------------------------------------------------------------------------------------------------|
B]--------------------------------------------6-5-----------------------6-----8(10)(8)-6------------------------------|
G]------------------------------------------------7-5-------5-7-----7-7---7-7------------7----------------------------|
D]-----------7-----5-7-/10-----7------------7-------------7-----------------------------------------------------------|
A]-----8-7-8------------------------------8---------------------------------------------------------------------------|
D]--------------------------------------------------------------------------------------------------------------------|

Guitar 2

E]------------------------------------------5-------------------------5-----6(8)(6)-5---------------------------------|
B]---------------------5----------------------8-6-5-------5-6-----6-6---6-6-----------6-------------------------------|
G]-----------5-------5-------7--------------------------5-------------------------------------------------------------|
D]-----7-5-7-------8--------------------7-5---------------------------------------------------------------------------|
A]--------------------------------------------------------------------------------------------------------------------|
D]--------------------------------------------------------------------------------------------------------------------|

Guitar 1

E]-12p10------12p10------12p10------12p10------13p10-13p10-------13p10-13p10------13p10-------------------------------|
B]------11-11------11-11------11-11------11-11-------------11-11------------11-11------11-11--------------------------|
G]--------------------------------------------------------------------------------------------------------------------|
D]--------------------------------------------------------------------------------------------------------------------|
A]--------------------------------------------------------------------------------------------------------------------|
D]--------------------------------------------------------------------------------------------------------------------|

Guitar 2

E]-15p13------15p13------15p13------15p13------17p13-17p13------17p13-17p13------17p13-------|
B]------15-15------15-15-------15-15------15-15------------15-15------------15-15-----15-15--|
G]-------------------------------------------------------------------------------------------|
D]-------------------------------------------------------------------------------------------|
A]-------------------------------------------------------------------------------------------|
D]-------------------------------------------------------------------------------------------|

Guitar 1

E]-13p12------13p12------13p12------13p12------15p12-15p12------15p12-15p12------15p12--------------------------------|
B]------13-13------13-13------13-13------13-13------------13-13------------13-13------13-13---------------------------|
G]--------------------------------------------------------------------------------------------------------------------|
D]--------------------------------------------------------------------------------------------------------------------|
A]--------------------------------------------------------------------------------------------------------------------|
D]--------------------------------------------------------------------------------------------------------------------|

Guitar 2

E]-17p15------17p15------17p15------17p15------18p15-18p15------18p15-18p15------17p15--------------------------------|
B]------17-17------17-17------17-17------17-17------------17-17------------17-17------17-17---------------------------|
G]--------------------------------------------------------------------------------------------------------------------|
D]--------------------------------------------------------------------------------------------------------------------|
A]--------------------------------------------------------------------------------------------------------------------|
D]--------------------------------------------------------------------------------------------------------------------|

Guitar 1

E]-13p10----10--------------------------------------------------------------------------------------------------------|
B]-------13----13p10-13p10----10---------------------------------------13-----10-13-----(15)vvvvvvvvvvvvvvvvvvvv------|
G]-------------------------12----12p10-12p10----10-----12(14)-(12)--10------------------------------------------------|
D]-------------------------------------------12-----------------------------------------------------------------------|
A]--------------------------------------------------------------------------------------------------------------------|
D]--------------------------------------------------------------------------------------------------------------------|

E]-20p17----17--------------------------------------------------------------------------------------------------------|
B]-------20----20p17-20p17----17---------------------------------------20-----17-20-----(21-----(22)vvvvvvvvvvvvvvv---|
G]-------------------------19----19p17-19p17----17-----19(21)-(19)--17------------------------------------------------|
D]-------------------------------------------19-----------------------------------------------------------------------|
A]--------------------------------------------------------------------------------------------------------------------|
D]--------------------------------------------------------------------------------------------------------------------|

Well there you go all of the solo's have fun!!!!!!!!!!!!!!!!!!!!
comments
print report bad tab
21 comments total. Showing first comments.
0 reply
dzhel wrote on March 10 2006, 07:36 pm

really good mate for ear tuning thats great good job and thanks for the tab i can fianlly learn it!

0 reply
easy_target wrote on March 26 2006, 11:31 am

WOW. Brilliant. Well done, as the other guy said, this is great considering it's been done by ear :)

0 reply
Greenday1989 wrote on April 14 2006, 05:17 pm

its good but there is a bit missing at the end of solo 2

I want to post or [tab]
guest
You may want to rate the tab now too:
select rating
Please do not post tabs as comments. Select "correction" instead!