Oops, an error
Loading. Please wait.

A Gunshot To The Head Of Trepidation Bass Tab

ver2
ver2
More versions @911Tabs.com
12,858 views 19 this week
8 commentsread comments
1 2 3 4 5
accurate
x 13
Autoscroll
+/-
esc
set tempo
stop
Contributor
Hey! There's an official Ultimate Guitar app which is ideal
for learning songs when you're away from computer. Get the app
WARNING: You are trying to view
                                    content from Ultimate-Guitar.com
                                    in an unauthorized application,
                                    which is prohibited.

                                    Please use an official Ultimate
                                    Guitar Tabs application for iPhone,
                                    iPad or Android to access legitimate
                                    chords, guitar, bass, and drum tabs
                                    from Ultimate-Guitar.com database.

                                    Type "ultimate guitar tabs" in Apple
                                    App Store's or Android Market's
                                    search to find the application.
Trivium – a gunshot to head of trepidation

this is 100% correct...for tose who need it

intro
G|-------------------------------------------|
D|-------------------------------------------|
A|--5---4---7---8---5---4--------------------|
D|--------------------------5---3---12/------|

G|--------------------------------------------------------------------|
D|--------------------------------------------------------------------|
A|-5----5/4-----4/7----7/8---------5----5/4----4/7----7/10101010-8888-|
D|--0000---0000----0000---000000000-0000---0000---0000----------------|

G|--------------------------------------------------------------------|
D|--------------------------------------------------------------------|
A|-5----5/4-----4/7----7/8---------5----5/4----4/7----7/10101010-8888-|
D|--0000---0000----0000---000000000-0000---0000---0000----------------|

G|---------------------------------------------------------------------|
D|---------------------------------------------------------------------|
A|--5-5-5-5-5-5-5-5----------------------------------------------------|
D|-------------------7-7-7-7-7-7-7-7--8-8-8-8-8-8-8-8-8-8-8-8-8-8-8-8--|

G|--------------------------------------------------------------------|
D|--------------------------------------------------------------------|
A|--5-5-5-5-5-5-5-5---------------------------------------------------|
D|-------------------7-7-7-7-7-7-7-7--8-8-8-8-8-8-8-8-8-8-8-8-8-8-8-8-|

G|--------------------------------------------------------------------|
D|--------------------------------------------------------------------|
A|---5----7----------8--5--7--3-----5----7----------8--5--7--3--------|
D|-------------3------------------------------3-----------------------|

G|--------------------------------------------------------------------|
D|--------------------------------------------------------------------|
A|-5----5/4-----4/7----7/8---------5----5/4----4/7----7/10101010-8888-|
D|--0000---0000----0000---000000000-0000---0000---0000----------------|

G|--------------------------------------------------------------------|
D|--------------------------------------------------------------------|
A|-5----5/4-----4/7----7/8---------5----5/4----4/7----7/10101010-8888-|
D|--0000---0000----0000---000000000-0000---0000---0000----------------|

G|--------------------------------------------------------------------|
D|--------------------------------------------------------------------|
A|----------------------------------------------------5-5-5-5-5-5-5-5-|
D|--7-7-7-7-7-7-7-7--8-8-8-8-8-8-8-8-8-8-8-8-8-8-8-8------------------|

G|----------------------------------------------------------------------|
D|----------------------------------------------------------------------|
A|------------------------------------------------------5-----7---------|
D|--7-7-7-7-7-7-7-7-8-8-8-8-8-8-8-8-8-8-8-8-8-8-8-8-----------------3—--|

G|-----------------------------------------------------|
D|-----------------------------------------------------|
A|--8--5--7--3-----5----7----------8--5--7--3----------|
D|---------------------------3-------------------------|


G|------------------------------------------|
D|------------------------------------------|
A|------------------------------8---7-------|    X2
D|--0------5------7------8------------------|

G|--------------------------------------------------------------------|
D|--------------------------------------------------------------------|
A|-5----5/4-----4/7----7/8---------5----5/4----4/7----7/10101010-8888-|
D|--0000---0000----0000---000000000-0000---0000---0000----------------|

G|--------------------------------------------------------------------|
D|--------------------------------------------------------------------|
A|-5----5/4-----4/7----7/8---------5----5/4----4/7----7/10101010-8888-|
D|--0000---0000----0000---000000000-0000---0000---0000----------------|

G|-----------------------------------------------------------------------|
D|-----------------------------------------------------------------------|
A|--5-5-5-5-5-5-5-5------------------------------------------------------|
D|-------------------7-7-7-7-7-7-7-7--8-8-8-8-8-8-8-8-8-8-8-8-8-8-8-8----|

G|-----------------------------------------------------------------------|
D|-----------------------------------------------------------------------|
A|--5-5-5-5-5-5-5-5------------------------------------------------------|
D|-------------------7-7-7-7-7-7-7-7--8-8-8-8-8-8-8-8-8-8-8-8-8-8-8-8----|

G|--------------------------------------------------------------------|
D|--------------------------------------------------------------------|
A|---5----7----------8--5--7--3-----5----7----------8--5--7--3--------|
D|-------------3------------------------------3-----------------------|

G|------------------------------------------|
D|------------------------------------------|   X4
A|------------------------------8---7-------|
D|--0------5------7------8------------------|

Chorus
G|-----------------------------------------------------------------|
D|-----------------------------------------------------------------|
A|-----------------------------------------------------------------|
D|--8-0-10-0-12--0-0-0-0-0-0-0--8-0-10-0-5--7-3--3-3-3-3-----------|

G|-----------------------------------------------------------------|
D|-----------------------------------------------------------------|
A|-----------------------------------------------------------------|
D|--8-0-10-0-12--0-0-0-0-0-0-0--8-0-10-0-5--7-3--3-3-3-3-----------|

G|-----------------------------------------------------------------|
D|-----------------------------------------------------------------|
A|-----------------------------------------------------------------|
D|--8-0-10-0-12--0-0-0-0-0-0-0--8-0-10-0-5--7-3--3-3-3-3-----------|

G|-----------------------------------------------------------------|
D|-----------------------------------------------------------------|
A|-----------------------------------------------------------------|
D|--8-0-10-0-12--0-0-0-0-0-0-0--8-0-10-0-5--7-3--3-3-3-3-----------|

Pre-solo
G|-----------------------------------------------|
D|-----------------------------------------------|
A|---------------------------------------5-------|
D|--0----3-4-5-0------3-4-5-0------3-4-5---------|

G|-----------------------------------------------|
D|-----------------------------------------------|
A|--5--3--3--1-----1-----------------------------|
D|--------------------2--3--4--5--0--------------|

Corey’s solo
G|----------------------------------------|
D|----------------------------------------|
A|-----5----3----6-5--------5-------------|
D|--00---00---00---------00---0-3-4-5-0---|

G|----------------------------------------|
D|----------------------------------------|
A|-----5----3----6-5--------5-------------|
D|--00---00---00---------00---0-3-4-5-0---|

G|----------------------------------------|
D|----------------------------------------|
A|-----5----3----6-5--------5---------5---|
D|--00---00---00---------00---0-3-4-5-----|

Matt’s solo
G|----------------------------------------|
D|----------------------------------------|
A|--5--3-3--1---1-----------5-------------|
D|------------------2-3-4-5---------------|

G|------------------------------------------------|
D|------------------------------------------------|
A|--4------3------1------1------0-----------------|
D|--------------------------------------3--2--0---|

G|----------------------------------------|
D|----------------------------------------|
A|---X-5----X-5----X-5----X-5-------------|
D|----------------------------------------|

G|------------------------------------------------|
D|------------------------------------------------|
A|--4------3------1------1------0-----------------|
D|--------------------------------------3--2--0---|

G|----------------------------------------|
D|----------------------------------------|
A|---X-5----X-5----X-5----X-5-------------|
D|----------------------------------------|

Harmony solo
G|----------------------------------------------------|
D|----------------------------------------------------|
A|----------------------1-1-1--3-3-3-3-5---------8-7--|
D|--0----0-0-0-0-0-0-0-------------------0-0-0-0------|

G|---------------------------------------------------------------------|
D|---------------------------------------------------------------------|
A|--1-1-1--3-3-3-3-5----------------1-1-1--3-3-3-3-5---------8-7-------|
D|--------------------0-0-0-0-0-0-0------------------0-0-0-0-----------|


G|------------------------------------------------------------------|
D|------------------------------------------------------------------|
A|--1-1-1--3-3-3-3-5----------------1-1-1--3-3-3-3-5---------8-7----|
D|--------------------0-0-0-0-0-0-0------------------0-0-0-0--------|

G|------------------------------------------------------------------|
D|------------------------------------------------------------------|
A|--1-1-1--3-3-3-3-5----------------1-1-1--3-3-3-3-5---------8-7----|
D|--------------------0-0-0-0-0-0-0------------------0-0-0-0--------|

G|------------------------------------------------------------------|
D|------------------------------------------------------------------|
A|--1--1-1-1--1-1-1--1-1-1--1-1-1--1-1-1---1-1-1--1-1-1--1-1--------|
D|------------------------------------------------------------------|

G|------------------------------------------------------------------|
D|------------------------------------------------------------------|
A|--3--3-3-3--3-3-3--3-3-3--3-3-3--3-3-3--3-3-3--3-3-3--3-3---------|
D|------------------------------------------------------------------|

G|-------------------------------------------------------3-----------|
D|-------------------------------------------------------------------|
A|--1--1-1-1--1-1-1--1-1-1--1-1-1--1-1-1---1-1-1--1-1-1--------------|
D|-------------------------------------------------------------------|


G|------------------------------------------------------------------|
D|------------------------------------------------------------------|
A|--3--3-3-3--3-3-3--3-3-3--3-3-3--3-3-3--3-3-3--3-3-3--3-----------|
D|------------------------------------------------------------------|


G|--10-7----7-----------------------------------------------------------|
D|-------10----10-7-10-7----7------------------------10---7-------------|
A|-----------------------10----10-8-10-8----8----10--8----------5-------|
D|---------------------------------------10-----------------------------|


G|-----------------------|
D|-----------------------|
A|-----------------------|  x30
D|----------0------------|


G|---------------------------------|
D|---------------------------------|
A|---------------------------------|
D|--0-0-0-0-0-0-0-0-0-0-0-0-0-12/--|

Chorus
G|--------------------------------------------------------|
D|--------------------------------------------------------|
A|--------------------------------------------------------|
D|--8-0-10-0-12--0-0-0-0-0-0-0--8-0-10-0-5--7-3--3-3-3-3—-|

G|---------------------------------------------------------|
D|---------------------------------------------------------|
A|---------------------------------------------------------|
D|--8-0-10-0-12--0-0-0-0-0-0-0--8-0-10-0-5--7-3--3-3-3-3---|


G|---------------------------------------------------------|
D|---------------------------------------------------------|
A|---------------------------------------------------------|
D|--8-0-10-0-12--0-0-0-0-0-0-0--8-0-10-0-5--7-3--3-3-3-3---|

G|---------------------------------------------------------|
D|---------------------------------------------------------|
A|---------------------------------------------------------|
D|--8-0-10-0-12--0-0-0-0-0-0-0--8-0-10-0-5--7-3--3-3-3-3---|

Outro
G|---------------------------------------------------------|
D|---------------------------------------------------------|
A|---------------------------------------------------------|
D|--8-0-10-0-12--0-0-0-0-0-0-0--8-0-10-0-5--7-3--3-3-3-3---|

G|---------------------------------------------------------|
D|---------------------------------------------------------|
A|---------------------------------------------------------|
D|--8-0-10-0-12--0-0-0-0-0-0-0--8-0-10-0-5—-7-3/-----------|
comments
print report bad tab
8 comments total. Showing first comments.
0 reply
Satan Man wrote on May 5 2007, 09:57 am

finally a deent GTTHOT tab >.< ****ing thanks dude =]

0 reply
thrash_bassist wrote on May 7 2007, 10:07 am

G|-----------------------|
D|-----------------------|
A|-----------------------| x30
D|----------0------------|


Priceless.

0 reply
terror-tyrant wrote on May 8 2007, 10:38 am

sorry about this bit
Pre-solo
G|-----------------------------------------------|
D|-----------------------------------------------|
A|---------------------------------------5-------|
D|--0----3-4-5-0------3-4-5-0------3-4-5---------|
G|-----------------------------------------------|
D|-----------------------------------------------|
A|--5--3--3--1-----1-----------------------------|
D|--------------------2--3--4--5--0--------------|

just a space error, here it is with a space if it helps the confusion

Pre-solo
G|-----------------------------------------------|
D|-----------------------------------------------|
A|---------------------------------------5-------|
D|--0----3-4-5-0------3-4-5-0------3-4-5---------|

G|-----------------------------------------------|
D|-----------------------------------------------|
A|--5--3--3--1-----1-----------------------------|
D|--------------------2--3--4--5--0--------------|


take care people

I want to post or [tab]
guest
You may want to rate the tab now too:
select rating
Please do not post tabs as comments. Select "correction" instead!