Oops, an error
Loading. Please wait.

A Gunshot To The Head Of Trepidation Tab

ver3
84,746 views 87 this week
59 commentsread comments
1 2 3 4 5
excellent!
x 73
Autoscroll
+/-
esc
set tempo
stop
Contributor
Difficulty
Tuning
novice
D A D G B E
Hey! There's an official Ultimate Guitar app which is ideal
for learning songs when you're away from computer. Get the app
WARNING: You are trying to view
                                    content from Ultimate-Guitar.com
                                    in an unauthorized application,
                                    which is prohibited.

                                    Please use an official Ultimate
                                    Guitar Tabs application for iPhone,
                                    iPad or Android to access legitimate
                                    chords, guitar, bass, and drum tabs
                                    from Ultimate-Guitar.com database.

                                    Type "ultimate guitar tabs" in Apple
                                    App Store's or Android Market's
                                    search to find the application.
Artist/Band - Trivium
Album - Ascendancy
Song - A Gunshot To The Head Of Trepidation

Tuning: Drop D (D A D G B E)

Key:
x  = Mute String
PM = Palm Mute
/  = Slide Upwards
\  = Slide Downwards
b  = Bend Note
h  = Hammer On
p  = Pull Off
~  = Let Note Ring
ps = Pick Scrape

Notes:
Okay. I didn't tab this song out. I infact copied it out 
of Total Guitar magazine. I can only take credit for finding
it and taking the time to type it up. And it seems pretty
much 100% to me. I haven't got round to doing the solo but as
soon as it's done I shall put it up for you.
Enjoy!


GUITAR TAB:
==========

Intro/Part 1:
(0:00)
E]---------------------------|
B]---------------------------|
G]--7~-----6~-----9~----10~--|
D]--x------x------x------x---|
A]--5~-----4~-----7~-----8~--|
D]---------------------------|

E]---------------------------|
B]---------------------------|
G]--7~-----6~----12~----10~--|
D]--x------x------x------x---|
A]--5~-----4~----10~-----8~--|
D]---------------------------|

E]-----------------------|
B]-----------------------|
G]--12~----10~-----------|
D]---x------x------/12\--|
A]--10~-----8~-----/12\--|
D]-----------------/12\--|

Intro/Part 2:
(0:16)
E]------------------------------------------------------------------------|
B]------------------------------------------------------------------------|
G]--7-----------7---6-----------6---9-----------9--10---------------------|
D]--x-----------x---x-----------x---x-----------x---x---------------------|
A]--5-----------5---4-----------4---7-----------7---8---------------------|
D]-----0-0-0-0---------0-0-0-0---------0-0-0-0---------0-0-0-0-0-0-0-0-0--|
PM     . . . .         . . . .         . . . .         . . . . . . . . .

E]------------------------------------------------------------------------------------|
B]------------------------------------------------------------------------------------|
G]--7-----------7---6-----------6---9-----------9---12-12-12-12-12-12-10-10-10-10-10--|
D]--x-----------x---x-----------x---x-----------x----x--x--x--x--x--x--x--x--x--x--x--|
A]--5-----------5---4-----------4---7-----------7---10-10-10-10-10-10--8--8--8--8--8--|
D]-----0-0-0-0---------0-0-0-0---------0-0-0-0----------------------------------------|
PM     . . . .         . . . .         . . . .

E]------------------------------------------------------------------------|
B]------------------------------------------------------------------------|
G]--7-----------7---6-----------6---9-----------9--10---------------------|
D]--x-----------x---x-----------x---x-----------x---x---------------------|
A]--5-----------5---4-----------4---7-----------7---8---------------------|
D]-----0-0-0-0---------0-0-0-0---------0-0-0-0---------0-0-0-0-0-0-0-0-0--|
PM     . . . .         . . . .         . . . .         . . . . . . . . .

E]---------------------------------------------------------------------------|
B]---------------------------------------------------------------------------|
G]--7-----------7---6-----------6---9-----------9---12-12-12-12-10-10-10-10--|
D]--x-----------x---x-----------x---x-----------x----x--x--x--x--x--x--x--x--|
A]--5-----------5---4-----------4---7-----------7---10-10-10-10--8--8--8--8--|
D]-----0-0-0-0---------0-0-0-0---------0-0-0-0-------------------------------|
PM     . . . .         . . . .         . . . .    

Intro/Part 3:
(0:32)
E]-------------------------------------------------------------------|
B]-------------------------------------------------------------------|
G]-------------------------------------------------------------------|
D]------7-7-5-5-7-7-----7-7-5-5-7-7-----7-7-5-5-7-7-7-7-----5-5------|
A]------------------3-3-------------5-5-----------------8-8-----7-7--|
D]--0-0--------------------------------------------------------------|

E]-------------------------------------------------------------------|
B]-------------------------------------------------------------------|
G]-------------------------------------------------------------------|
D]------7-7-5-5-7-7-----7-7-5-5-7-7-----7-7-5-5-7-7-7-7-----5-5------|
A]------------------3-3-------------5-5-----------------8-8-----7-7--|
D]--0-0--------------------------------------------------------------|

E]-------------------------------------------------|
B]-------------------------------------------------|
G]-------------------------------------------------|
D]-----7--5--7-----7--5--7-----7--5--7--7----5-----|
A]--------------3-----------5-------------8-----7--|
D]--0----------------------------------------------|

E]-------------------------------------------------|
B]-------------------------------------------------|
G]-------------------------------------------------|
D]-----7--5--7-----7--5--7-----7--5--7--7----5-----|
A]--------------3-----------5-------------8-----7--|
D]--0----------------------------------------------|

Verse 1:
(0:49)
E]------------------------------------------------------------------------|
B]------------------------------------------------------------------------|
G]--7-----------7---6-----------6---9-----------9--10---------------------|
D]--x-----------x---x-----------x---x-----------x---x---------------------|
A]--5-----------5---4-----------4---7-----------7---8---------------------|
D]-----0-0-0-0---------0-0-0-0---------0-0-0-0---------0-0-0-0-0-0-0-0-0--|
PM     . . . .         . . . .         . . . .         . . . . . . . . .

E]------------------------------------------------------------------------------------|
B]------------------------------------------------------------------------------------|
G]--7-----------7---6-----------6---9-----------9---12-12-12-12-12-12-10-10-10-10-10--|
D]--x-----------x---x-----------x---x-----------x----x--x--x--x--x--x--x--x--x--x--x--|
A]--5-----------5---4-----------4---7-----------7---10-10-10-10-10-10--8--8--8--8--8--|
D]-----0-0-0-0---------0-0-0-0---------0-0-0-0----------------------------------------|
PM     . . . .         . . . .         . . . .

E]------------------------------------------------------------------------|
B]------------------------------------------------------------------------|
G]--7-----------7---6-----------6---9-----------9--10---------------------|
D]--x-----------x---x-----------x---x-----------x---x---------------------|
A]--5-----------5---4-----------4---7-----------7---8---------------------|
D]-----0-0-0-0---------0-0-0-0---------0-0-0-0---------0-0-0-0-0-0-0-0-0--|
PM     . . . .         . . . .         . . . .         . . . . . . . . .

E]---------------------------------------------------------------------------|
B]---------------------------------------------------------------------------|
G]--7-----------7---6-----------6---9-----------9---12-12-12-12-10-10-10-10--|
D]--x-----------x---x-----------x---x-----------x----x--x--x--x--x--x--x--x--|
A]--5-----------5---4-----------4---7-----------7---10-10-10-10--8--8--8--8--|
D]-----0-0-0-0---------0-0-0-0---------0-0-0-0-------------------------------|
PM     . . . .         . . . .         . . . .    

Chorus 1:
(1:05)
E]-------------------------------------------------------------------|
B]-------------------------------------------------------------------|
G]-------------------------------------------------------------------|
D]------7-7-5-5-7-7-----7-7-5-5-7-7-----7-7-5-5-7-7-7-7-----5-5------|
A]------------------3-3-------------5-5-----------------8-8-----7-7--|
D]--0-0--------------------------------------------------------------|

E]-------------------------------------------------------------------|
B]-------------------------------------------------------------------|
G]-------------------------------------------------------------------|
D]------7-7-5-5-7-7-----7-7-5-5-7-7-----7-7-5-5-7-7-7-7-----5-5------|
A]------------------3-3-------------5-5-----------------8-8-----7-7--|
D]--0-0--------------------------------------------------------------|

E]-------------------------------------------------|
B]-------------------------------------------------|
G]-------------------------------------------------|
D]-----7--5--7-----7--5--7-----7--5--7--7----5-----|
A]--------------3-----------5-------------8-----7--|
D]--0----------------------------------------------|

E]-------------------------------------------------|
B]-------------------------------------------------|
G]-------------------------------------------------|
D]-----7--5--7-----7--5--7-----7--5--7--7----5-----|
A]--------------3-----------5-------------8-----7--|
D]--0----------------------------------------------|

GUITAR 1
Harmony Interlude 1:
(1:22)
E]---------------------------------------------------------------------|
B]---------------------------------------------------------------------|
G]--9--10--9h10p9-----------------9--10--9h10p9----------12/14--12--9--|
D]-----------------12--------------------------------------------------|
A]---------------------12h13--12-----------------12--10----------------|
D]---------------------------------------------------------------------|

E]----------------------------------------------------------------------------------------|
B]----------------------------------------------------------------------------------------|
G]--10--9h10p9-----------------10-9p7----7-9-10-9p7----9-10-12-10p9----10-12-14-12p10-----|
D]--------------12--------------------10------------10--------------12----------------14--|
A]------------------12h13--12-------------------------------------------------------------|
D]----------------------------------------------------------------------------------------|

E]------------------------------------------------------------------|
B]------------------------------------------------------------------|
G]--10--9h10p9-----------------9--10--9h10p9----------12/14--12--9--|
D]--------------12--------------------------------------------------|
A]------------------12h13--12-----------------12--10----------------|
D]------------------------------------------------------------------|

E]----------------------------------------------------------------------------------------|
B]----------------------------------------------------------------------------------------|
G]--10--9h10p9-----------------10-9p7----7-9-10-9p7----9-10-12-10p9----10-12-14-12p10-----|
D]--------------12--------------------10------------10--------------12----------------14--|
A]------------------12h13--12-------------------------------------------------------------|
D]----------------------------------------------------------------------------------------|

GUITAR 2
Harmony Interlude 1:
(1:22)
E]--3--5--3h5p3-------------3--5--3h5p3--------6/8--6--3--|
B]---------------6--3h5--3---------------6--5-------------|
G]--------------------------------------------------------|
D]--------------------------------------------------------|
A]--------------------------------------------------------|
D]--------------------------------------------------------|

E]--5--3h5p3-------------5p3p1---1-3-5p3p1---3-5-6p5p3---5-6-8p6p5----|
B]------------6--3h5--3--------5-----------5-----------6-----------8--|
G]--------------------------------------------------------------------|
D]--------------------------------------------------------------------|
A]--------------------------------------------------------------------|
D]--------------------------------------------------------------------|

E]--5--3h5p3-------------3--5--3h5p3--------6/8--6--3--|
B]------------6--3h5--3---------------6--5-------------|
G]-----------------------------------------------------|
D]-----------------------------------------------------|
A]-----------------------------------------------------|
D]-----------------------------------------------------|

E]--5--3h5p3-------------5p3p1---1-3-5p3p1---3-5-6p5p3---5-6-8p6p5----|
B]------------6--3h5--3--------5-----------5-----------6-----------8--|
G]--------------------------------------------------------------------|
D]--------------------------------------------------------------------|
A]--------------------------------------------------------------------|
D]--------------------------------------------------------------------|

Verse 2:
(1:38)
E]------------------------------------------------------------------------|
B]------------------------------------------------------------------------|
G]--7-----------7---6-----------6---9-----------9--10---------------------|
D]--x-----------x---x-----------x---x-----------x---x---------------------|
A]--5-----------5---4-----------4---7-----------7---8---------------------|
D]-----0-0-0-0---------0-0-0-0---------0-0-0-0---------0-0-0-0-0-0-0-0-0--|
PM     . . . .         . . . .         . . . .         . . . . . . . . .

E]------------------------------------------------------------------------------------|
B]------------------------------------------------------------------------------------|
G]--7-----------7---6-----------6---9-----------9---12-12-12-12-12-12-10-10-10-10-10--|
D]--x-----------x---x-----------x---x-----------x----x--x--x--x--x--x--x--x--x--x--x--|
A]--5-----------5---4-----------4---7-----------7---10-10-10-10-10-10--8--8--8--8--8--|
D]-----0-0-0-0---------0-0-0-0---------0-0-0-0----------------------------------------|
PM     . . . .         . . . .         . . . .

E]------------------------------------------------------------------------|
B]------------------------------------------------------------------------|
G]--7-----------7---6-----------6---9-----------9--10---------------------|
D]--x-----------x---x-----------x---x-----------x---x---------------------|
A]--5-----------5---4-----------4---7-----------7---8---------------------|
D]-----0-0-0-0---------0-0-0-0---------0-0-0-0---------0-0-0-0-0-0-0-0-0--|
PM     . . . .         . . . .         . . . .         . . . . . . . . .

E]---------------------------------------------------------------------------|
B]---------------------------------------------------------------------------|
G]--7-----------7---6-----------6---9-----------9---12-12-12-12-10-10-10-10--|
D]--x-----------x---x-----------x---x-----------x----x--x--x--x--x--x--x--x--|
A]--5-----------5---4-----------4---7-----------7---10-10-10-10--8--8--8--8--|
D]-----0-0-0-0---------0-0-0-0---------0-0-0-0-------------------------------|
PM     . . . .         . . . .         . . . .

Chorus 2:
(1:54)
E]-------------------------------------------------------------------|
B]-------------------------------------------------------------------|
G]-------------------------------------------------------------------|
D]------7-7-5-5-7-7-----7-7-5-5-7-7-----7-7-5-5-7-7-7-7-----5-5------|
A]------------------3-3-------------5-5-----------------8-8-----7-7--|
D]--0-0--------------------------------------------------------------|

E]-------------------------------------------------------------------|
B]-------------------------------------------------------------------|
G]-------------------------------------------------------------------|
D]------7-7-5-5-7-7-----7-7-5-5-7-7-----7-7-5-5-7-7-7-7-----5-5------|
A]------------------3-3-------------5-5-----------------8-8-----7-7--|
D]--0-0--------------------------------------------------------------|

E]-------------------------------------------------|
B]-------------------------------------------------|
G]-------------------------------------------------|
D]-----7--5--7-----7--5--7-----7--5--7--7----5-----|
A]--------------3-----------5-------------8-----7--|
D]--0----------------------------------------------|

E]-------------------------------------------------|
B]-------------------------------------------------|
G]-------------------------------------------------|
D]-----7--5--7-----7--5--7-----7--5--7--7----5-----|
A]--------------3-----------5-------------8-----7--|
D]--0----------------------------------------------|

GUITAR 1
Harmony Interlude 2:
(2:11)
E]---------------------------------------------------------------------|
B]---------------------------------------------------------------------|
G]--9--10--9h10p9-----------------9--10--9h10p9----------12/14--12--9--|
D]-----------------12--------------------------------------------------|
A]---------------------12h13--12-----------------12--10----------------|
D]---------------------------------------------------------------------|

E]----------------------------------------------------------------------------------------|
B]----------------------------------------------------------------------------------------|
G]--10--9h10p9-----------------10-9p7----7-9-10-9p7----9-10-12-10p9----10-12-14-12p10-----|
D]--------------12--------------------10------------10--------------12----------------14--|
A]------------------12h13--12-------------------------------------------------------------|
D]----------------------------------------------------------------------------------------|

E]------------------------------------------------------------------|
B]------------------------------------------------------------------|
G]--10--9h10p9-----------------9--10--9h10p9----------12/14--12--9--|
D]--------------12--------------------------------------------------|
A]------------------12h13--12-----------------12--10----------------|
D]------------------------------------------------------------------|

E]----------------------------------------------------------------------------------------|
B]----------------------------------------------------------------------------------------|
G]--10--9h10p9-----------------10-9p7----7-9-10-9p7----9-10-12-10p9----10-12-14-12p10-----|
D]--------------12--------------------10------------10--------------12----------------14--|
A]------------------12h13--12-------------------------------------------------------------|
D]----------------------------------------------------------------------------------------|

GUITAR 2
Harmony Interlude 2:
(2:11)
E]--3--5--3h5p3-------------3--5--3h5p3--------6/8--6--3--|
B]---------------6--3h5--3---------------6--5-------------|
G]--------------------------------------------------------|
D]--------------------------------------------------------|
A]--------------------------------------------------------|
D]--------------------------------------------------------|

E]--5--3h5p3-------------5p3p1---1-3-5p3p1---3-5-6p5p3---5-6-8p6p5----|
B]------------6--3h5--3--------5-----------5-----------6-----------8--|
G]--------------------------------------------------------------------|
D]--------------------------------------------------------------------|
A]--------------------------------------------------------------------|
D]--------------------------------------------------------------------|

E]--5--3h5p3-------------3--5--3h5p3--------6/8--6--3--|
B]------------6--3h5--3---------------6--5-------------|
G]-----------------------------------------------------|
D]-----------------------------------------------------|
A]-----------------------------------------------------|
D]-----------------------------------------------------|

E]--5--3h5p3-------------5p3p1---1-3-5p3p1---3-5-6p5p3---5-6-8p6p5----|
B]------------6--3h5--3--------5-----------5-----------6-----------8--|
G]--------------------------------------------------------------------|
D]--------------------------------------------------------------------|
A]--------------------------------------------------------------------|
D]--------------------------------------------------------------------|

GUITAR 1
Middle Section:
(2:27)
E]---------------------------------------------------------------------|
B]---------------------------------------------------------------------|
G]--9--10--9h10p9-----------------9--10--9h10p9----------12/14--12--9--|
D]-----------------12--------------------------------------------------|
A]---------------------12h13--12-----------------12--10----------------|
D]---------------------------------------------------------------------|

E]----------------------------------------------------------------------------------------|
B]----------------------------------------------------------------------------------------|
G]--10--9h10p9-----------------10-9p7----7-9-10-9p7----9-10-12-10p9----10-12-14-12p10-----|
D]--------------12--------------------10------------10--------------12----------------14--|
A]------------------12h13--12-------------------------------------------------------------|
D]----------------------------------------------------------------------------------------|

E]------------------------------------------------------------------|
B]------------------------------------------------------------------|
G]--10--9h10p9-----------------9--10--9h10p9----------12/14--12--9--|
D]--------------12--------------------------------------------------|
A]------------------12h13--12-----------------12--10----------------|
D]------------------------------------------------------------------|

E]----------------------------------------------------------------------------------------|
B]----------------------------------------------------------------------------------------|
G]--10--9h10p9-----------------10-9p7----7-9-10-9p7----9-10-12-10p9----10-12-14-12p10-----|
D]--------------12--------------------10------------10--------------12----------------14--|
A]------------------12h13--12-------------------------------------------------------------|
D]----------------------------------------------------------------------------------------|

GUITAR 2
Middle Section:
(2:27)
E]--3--5--3h5p3-------------3--5--3h5p3--------6/8--6--3--|
B]---------------6--3h5--3---------------6--5-------------|
G]--------------------------------------------------------|
D]--------------------------------------------------------|
A]--------------------------------------------------------|
D]--------------------------------------------------------|

E]--5--3h5p3-------------5p3p1---1-3-5p3p1---3-5-6p5p3---5-6-8p6p5----|
B]------------6--3h5--3--------5-----------5-----------6-----------8--|
G]--------------------------------------------------------------------|
D]--------------------------------------------------------------------|
A]--------------------------------------------------------------------|
D]--------------------------------------------------------------------|

E]--5--3h5p3-------------3--5--3h5p3--------6/8--6--3--|
B]------------6--3h5--3---------------6--5-------------|
G]-----------------------------------------------------|
D]-----------------------------------------------------|
A]-----------------------------------------------------|
D]-----------------------------------------------------|

E]--5--3h5p3-------------5p3p1---1-3-5p3p1---3-5-6p5p3---5-6-8p6p5----|
B]------------6--3h5--3--------5-----------5-----------6-----------8--|
G]--------------------------------------------------------------------|
D]--------------------------------------------------------------------|
A]--------------------------------------------------------------------|
D]--------------------------------------------------------------------|

Bridge:
(2:43)
E]-------------------------------------------------------------|
B]-------------------------------------------------------------|
G]--3-----5-----7-----------------3-----5----------------------|
D]--3-----5-----7-----------------3-----5-----5/7--3--3-3-3-3--|
A]--1-----3-----5--0-0-0-0-0-0-0--1-----5-----5/7--3--3-3-3-3--|
D]-----0-----0-----0-0-0-0-0-0-0-----0-----0--5/7--3--3-3-3-3--|
PM     .     .     . . . . . . .     .     .          . . . .

E]-------------------------------------------------------------|
B]-------------------------------------------------------------|
G]--3-----5-----7-----------------3-----5----------------------|
D]--3-----5-----7-----------------3-----5-----5/7--3--3-3-3-3--|
A]--1-----3-----5--0-0-0-0-0-0-0--1-----5-----5/7--3--3-3-3-3--|
D]-----0-----0-----0-0-0-0-0-0-0-----0-----0--5/7--3--3-3-3-3--|
PM     .     .     . . . . . . .     .     .          . . . .

E]-------------------------------------------------------------|
B]-------------------------------------------------------------|
G]--3-----5-----7-----------------3-----5----------------------|
D]--3-----5-----7-----------------3-----5-----5/7--3--3-3-3-3--|
A]--1-----3-----5--0-0-0-0-0-0-0--1-----5-----5/7--3--3-3-3-3--|
D]-----0-----0-----0-0-0-0-0-0-0-----0-----0--5/7--3--3-3-3-3--|
PM     .     .     . . . . . . .     .     .          . . . .

E]-------------------------------------------------------------|
B]-------------------------------------------------------------|
G]--3-----5-----7-----------------3-----5----------------------|
D]--3-----5-----7-----------------3-----5-----5/7--3--3-3-3-3--|
A]--1-----3-----5--0-0-0-0-0-0-0--1-----5-----5/7--3--3-3-3-3--|
D]-----0-----0-----0-0-0-0-0-0-0-----0-----0--5/7--3--3-3-3-3--|
PM     .     .     . . . . . . .     .     .          . . . .

Heavy Interlude:
(3:10)
E]------------------------------------------------------|
B]------------------------------------------------------|
G]------------------------------------------------------|
D]------------------------------------------------------|
A]---------5------3------6--5b-------5-------3--4--5----|
D]--0--0-0----0-0----0-0---------0-0----0-0--3--4--5-0--|
PM     . .    . .    . .         . .    . .

E]-------------------------------------------------------|
B]-------------------------------------------------------|
G]-------------------------------------------------------|
D]-------------------------------------------------------|
A]---------5------3------6--5b-------5-------3--4--5-----|
D]--0--0-0----0-0----0-0---------0-0----0-0--3--4--5--0--|
PM     . .    . .    . .         . .    . .

E]-------------------------------------------------------|
B]-------------------------------------------------------|
G]-------------------------------------------------------|
D]-------------------------------------------------------|
A]---------5------3------6--5b-------5-------3--4--5-----|
D]--0--0-0----0-0----0-0---------0-0----0-0--3--4--5--0--|
PM     . .    . .    . .         . .    . .

E]--------------------------------------------|
B]--------------------------------------------|
G]--7--7-----5--5-----4--4--------------------|
D]--7--7-----5--5-----5--5--------------------|
A]--5--5-----3--3-----2--2--------------------|
D]--------0--------0--------0--2--3--4--5--0--|
PM        .        .        .

Solo:
(3:22)
E]--------------------------------------------------------|
B]--------------------------------------------------------|
G]--------------------------------------------------------|
D]--------------------------------------------------------|
A]--------------------------------------------------------|
D]--------------------------------------------------------|

E]--------------------------------------------------------|
B]--------------------------------------------------------|
G]--------------------------------------------------------|
D]--------------------------------------------------------|
A]--------------------------------------------------------|
D]--------------------------------------------------------|

E]--------------------------------------------------------|
B]--------------------------------------------------------|
G]--------------------------------------------------------|
D]--------------------------------------------------------|
A]--------------------------------------------------------|
D]--------------------------------------------------------|

E]--------------------------------------------------------|
B]--------------------------------------------------------|
G]--------------------------------------------------------|
D]--------------------------------------------------------|
A]--------------------------------------------------------|
D]--------------------------------------------------------|

Epic Riff:
(4:50)
E]--------------------------------------------|
B]--------------------------------------------|
G]--3-------5-------7\------------------------|
D]--3-------5-------7\------------------------|
A]--1-------3-------5\------------------------|
D]------0-------0-----------------------------|
PM      .       .

E]--------------------------------------------|
B]--------------------------------------------|
G]--3-------5-------7\------------------------|
D]--3-------5-------7\------------------------|
A]--1-------3-------5\------------------------|
D]------0-------0-----------------------------|
PM      .       .

E]--------------------------------------------|
B]--------------------------------------------|
G]--3-------5-------7\------------------------|
D]--3-------5-------7\------------------------|
A]--1-------3-------5\------------------------|
D]------0-------0-----------------------------|
PM      .       .

E]---------------------------------------------------|
B]---------------------------------------------------|
G]--3-------5-------7\-------------------------------|
D]--3-------5-------7\-------------------------------|
A]--1-------3-------5\--0-0-0-0-0-0-0-0-0-0---ps\\\--|
D]------0-------0-------0-0-0-0-0-0-0-0-0-0---ps\\\--|
PM      .       .       . . . . . . . . . .

Outro Bridge:
(5:14)
E]-------------------------------------------------------------|
B]-------------------------------------------------------------|
G]--3-----5-----7-----------------3-----5----------------------|
D]--3-----5-----7-----------------3-----5-----5/7--3--3-3-3-3--|
A]--1-----3-----5--0-0-0-0-0-0-0--1-----5-----5/7--3--3-3-3-3--|
D]-----0-----0-----0-0-0-0-0-0-0-----0-----0--5/7--3--3-3-3-3--|
PM     .     .     . . . . . . .     .     .          . . . .

E]-------------------------------------------------------------|
B]-------------------------------------------------------------|
G]--3-----5-----7-----------------3-----5----------------------|
D]--3-----5-----7-----------------3-----5-----5/7--3--3-3-3-3--|
A]--1-----3-----5--0-0-0-0-0-0-0--1-----5-----5/7--3--3-3-3-3--|
D]-----0-----0-----0-0-0-0-0-0-0-----0-----0--5/7--3--3-3-3-3--|
PM     .     .     . . . . . . .     .     .          . . . .

E]-------------------------------------------------------------|
B]-------------------------------------------------------------|
G]--3-----5-----7-----------------3-----5----------------------|
D]--3-----5-----7-----------------3-----5-----5/7--3--3-3-3-3--|
A]--1-----3-----5--0-0-0-0-0-0-0--1-----5-----5/7--3--3-3-3-3--|
D]-----0-----0-----0-0-0-0-0-0-0-----0-----0--5/7--3--3-3-3-3--|
PM     .     .     . . . . . . .     .     .          . . . .

E]-------------------------------------------------------------|
B]-------------------------------------------------------------|
G]--3-----5-----7-----------------3-----5----------------------|
D]--3-----5-----7-----------------3-----5-----5/7--3--3-3-3-3--|
A]--1-----3-----5--0-0-0-0-0-0-0--1-----5-----5/7--3--3-3-3-3--|
D]-----0-----0-----0-0-0-0-0-0-0-----0-----0--5/7--3--3-3-3-3--|
PM     .     .     . . . . . . .     .     .          . . . .

E]-------------------------------------------------------------|
B]-------------------------------------------------------------|
G]--3-----5-----7-----------------3-----5----------------------|
D]--3-----5-----7-----------------3-----5-----5/7--3--3-3-3-3--|
A]--1-----3-----5--0-0-0-0-0-0-0--1-----5-----5/7--3--3-3-3-3--|
D]-----0-----0-----0-0-0-0-0-0-0-----0-----0--5/7--3--3-3-3-3--|
PM     .     .     . . . . . . .     .     .          . . . .

E]----------------------------------------------------|
B]----------------------------------------------------|
G]--3-----5-----7-----------------3-----5-------------|
D]--3-----5-----7-----------------3-----5-----5/7--3--|
A]--1-----3-----5--0-0-0-0-0-0-0--1-----5-----5/7--3--|
D]-----0-----0-----0-0-0-0-0-0-0-----0-----0--5/7--3--|
PM     .     .     . . . . . . .     .     .
comments
print report bad tab
59 comments total. Showing first comments.
+4 reply
Cone 21 wrote on December 3 2005, 09:46 am

Hey, at least you didn't lie to us all, god job...typing i guess

+4 reply
ENDOFHEARTACHE wrote on December 3 2005, 11:45 am

E]------------------------------------------------------|
B]------------------------------------------------------|
G]------------------------------------------------------|
D]------------------------------------------------------|
A]---------5------3------6--5b-------5-------3--4--5----|
D]--0--0-0----0-0----0-0---------0-0----0-0--3--4--5-0--|
PM . . . . . . . . . .
E]------------------------------------------------------|
B]------------------------------------------------------|
G]------------------------------------------------------|
D]------------------------------------------------------|
A]---------5------3------6--(5b)-------5-------3--4--5----|
D]--0--0-0----0-0----0-0---------0-0----0-0--3--4--5-0--|
PM . . . . . . . . . .

the (5b) should be a pinch harmonic...if anyone wants to know

+3 reply
Bam_HIM_Bassist wrote on December 26 2005, 02:35 pm

I aggree with the pinch harmonic. i was messing about with the,m after learning them yesterday and realised it fitted perfectly.

Great Tab!

i dont blame yah for leaving out the solo. but you could at least put the rythem guitar in the back ground.

I want to post or [tab]
guest
You may want to rate the tab now too:
select rating
Please do not post tabs as comments. Select "correction" instead!