Oops, an error
Loading. Please wait.

Anthem We Are The Fire Tab

ver1
ver1

Solo

Whole song

More versions @911Tabs.com
21,709 views 72 this week
1 commentread comment
1 2 3 4 5
accurate
x 7
add to favorites launch autoscroll
font size
0
reset
Autoscroll
+/-
esc
set tempo
stop
Contributor
Difficulty
Tabbers playing skills
advanced
advanced +
WARNING: You are trying to view
                                    content from Ultimate-Guitar.com
                                    in an unauthorized application,
                                    which is prohibited.

                                    Please use an official Ultimate
                                    Guitar Tabs application for iPhone,
                                    iPad or Android to access legitimate
                                    chords, guitar, bass, and drum tabs
                                    from Ultimate-Guitar.com database.

                                    Type "ultimate guitar tabs" in Apple
                                    App Store's or Android Market's
                                    search to find the application.
#----------------------------------PLEASE NOTE---------------------------------#
#This file is the author's own work and represents their interpretation of the #
#song. You may only use this file for private study, scholarship, or research. #
#------------------------------------------------------------------------------#
ANTHEM (WE ARE THE FIRE)
As recorded by trivium
(From the 2006 Album THE CRUSADE)

Transcribed by Angel

Words and Music by Trivium
Arranged by Trivium


Gtr I (E A D G B E) - 'Matthew Kiichi Heafy'
Gtr II (E A D G B E) - 'Corey Beaulieu'
Gtr III (E A D G B E) - 'Lead'

 Intro
  Q=100
4/4
  Gtr I
  PM|    PM   PM|   PM  PM|               PM    PM   PM|
  S S  S S  S S S S S S S S S S S S   +S  S   S S  S S S E E  E S S S
|-----------------------------------|----------------------------------|
|-----------------------------------|----------------------------------|
|------9---10-----7---9-----4-5-4-2-|-(2)-----9---10-----4-7--2--------|
|-----10---10-----9---9-----5-5-5-2-|-(2)----10---10-----5-5--3--------|
|-0-0----0----0-0---0---0-0---------|-----0-----0----0-0--------0-0----|
|-----------------------------------|-------------------------------3--|
|
| Gtr II
| E    Q        S H               S   +S  Q.             E Q.       S
|-----------------------------------|----------------------------------|
|-----------------------------------|----------------------------------|
|-2-------------------------------2-|-(2)---------------------------2--|
|-2-------------------------------2-|-(2)----------------5----------2--|
|-0-------------------------------0-|-(0)----------------5----------0--|
|-----------------------------------|--------------------3-------------|


                                      Guitar Solo 1
  PM|    PM   PM|   PM  PM|                  PM|   PM     PM|   PM|
  S S  S S  S S S S S S S S S S S S     E  E T T S S E. E T T S S S
|-----------------------------------||------------------------------|
|-----------------------------------||------------------------------|
|------9---10-----7---9-----4-5-4---||------------------------------|
|-----10---10-----9---9-----5-5-5-3-||--3--3-----3---5--5-----5-----|
|-0-0----0----0-0---0---0-0-------3-||--3--3-----3---5--5-----5-----|
|---------------------------------1-||--1--1-1-1-1-1-3--3-3-3-3-3-3-|
|
|                                            PM|   PM     PM|   PM|
| E    Q        S H               S    +E  E T T S S E. E T T S S S
|-----------------------------------||------------------------------|
|-----------------------------------||------------------------------|
|-2---------------------------------||------------------------------|
|-2-------------------------------3-||-(3)-3-----3---5--5-----5-----|
|-0-------------------------------3-||-(3)-3-----3---5--5-----5-----|
|---------------------------------1-||-(1)-1-1-1-1-1-3--3-3-3-3-3-3-|
|
|                                      Gtr III
|                                       ~~~
| W                                     W
|-----------------------------------||------------------------------|
|-----------------------------------||------------------------------|
|-----------------------------------||-[7]--------------------------|
|-----------------------------------||------------------------------|
|-----------------------------------||------------------------------|
|-----------------------------------||------------------------------|


  Gtr I
   PM---|    PM   PM|     PM  PM|
   S    S  S S  S S  S S  S S S S S  S  S S
|----------------------------------------------|
|----------------------------------------------|
|----------9---10------7----9-----4--5--4-2----|
|---------10---10------9----9-----5--5--5-2----|
|--0----0----0----0--0----0---0-0--------------|
|----------------------------------------------|
|
| Gtr III
|                      ~~~~~~~~~~~~~~~~~
|  Q.                S Q.           +E    T  T
|----------------------------------------------|
|----------------------------------------------|
|-12b14-------------10p9------------(9)---9h10-|
|----------------------------------------------|
|----------------------------------------------|
|----------------------------------------------|


        PM   PM      PM--|
  +S    S  S S   S   S    S E E E S S  S
|-----------------------------------------|
|-----------------------------------------|
|-(2)------9----10----------4-7-2---------|
|-(2)-----10----10----------5-5-3---------|
|-------0----0-------0----0-------0-0-----|
|--------------------------------------3--|
|
|                           ~~~~~~~~~~~~~~
|  Q            +S   T T  S H         +S
|-----------------------------------------|
|-12b13--------(12)-10p8------------------|
|------------------------10p9---------(9)-|
|-----------------------------------------|
|-----------------------------------------|
|-----------------------------------------|


   PM|    PM   PM|     PM      PM|
   S S  S S  S S S S   S  S    S S     S  S S S
|-----------------------------------------------|
|-----------------------------------------------|
|-------9---10-----7------9------------4--5-4---|
|------10---10-----9------9------------5--5-5-3-|
|--0-0----0----0-0-----0-------0-0------------3-|
|---------------------------------------------1-|
|
|  S S  S S  S E   E     +T  T S S    +Q
|-----------------------------------------------|
|--------------------------------8b10-(8)-------|
|-------5----5h7---7b9r==(7)-5------------------|
|-/7-7----7--------------------7----------------|
|-----------------------------------------------|
|-----------------------------------------------|


               PM|       PM                       PM|
  +E     E     T T   S   S   E.           E       T T S S S
|-----------------------------------------------------------------|
|-----------------------------------------------------------------|
|-----------------------------------------------------------------|
|-(3)----3-----------3-------5------------5-----------7-7-5-------|
|-(3)----3-----------3-------5------------5-----------7-7-5-------|
|-(1)----1-----1-1---1---1---3------------3-------3-3-5-5-3-------|
|
|  |-3-| |-3-| |---3---| |--3---| |-3-|
|  S S S S S S S   S   S S S    S E   E     T T Q            T
|--8p5---5--------------------------------------------------------|
|------8---8p5h8---5-----5----------------------------------------|
|----------------------7---7----5-7b9-7b9---7p5-------------------|
|-----------------------------------------------7-----------[7]---|
|-----------------------------------------------------------------|
|-----------------------------------------------------------------|


Verse
  Gtrs I, II
                                                PM----------|
   E  S E S H    +E      H.      S E.   S S S E S S S S S S S S S E
|--------------------||---------------|------------------------------||
|--------------------||o--------------|-----------------------------o||
|--------------------||---------------|------------------------------||
|--7----5---3----(3)-||--3-------5-5--|-7-7-5-7---------------7-5----||
|--7----5---3----(3)-||o-3-------5-5--|-7-7-5-7---------------7-5---o||
|--5----3---1----(1)-||--1-------3-3--|-5-5-3-5-5-5-5-5-5-5-5-5-3----||
|
|  ~~~
| +W                     W              W
|--------------------||---------------|------------------------------||
|--------------------||o--------------|-----------------------------o||
|--------------------||---------------|------------------------------||
|-(7)----------------||---------------|------------------------------||
|--------------------||o--------------|-----------------------------o||
|--------------------||---------------|------------------------------||


                                 Bridge
  Gtrs I, II
                                      PM  PM    PM  PM  PM    PM
  H    H      H    S E  E  E S    +S  S S S S S S E S S S S S S S
|-----------|------------------||----------------------------------|
|-----------|------------------||----------------------------------|
|-----------|------------------||-----------5-------------5--------|
|-3----7----|-2----9-9-10-12-2-||-(2)---4-----4---2---4-----4---3--|
|-3----5----|-2----9-9--x--x-0-||-(0)-0---0-----0-3-0---0-----0-0--|
|-1----5----|-0----7-7--8-10---||----------------------------------|


      PM  PM    PM|     PM|               PM  PM    PM  PM  PM    PM
  +S  S S S S S S S S S S S S S S S   +S  S S S S S S E S S S S S S S
|-----------------------------------|---------------------------------|
|-----------------------------------|---------------------------------|
|-----------5-----------------------|-----------5-------------5-------|
|-(3)---4-----4-----5-5---7---7---2-|-(2)---4-----4---2---4-----4---3-|
|-(0)-0---0-----0-0-3-3-3-5---5---0-|-(0)-0---0-----0-3-0---0-----0-0-|
|-----------------------------------|---------------------------------|


                                      Chorus
      PM  PM    PM|     PM|            PM|    PM   PM|   PM  PM|
  +S  S S S S S S S S S S S S S S S    S S  S S  S S S S S S S S S S S S
|-----------------------------------||-----------------------------------|
|-----------------------------------||-----------------------------------|
|-----------5-----------------------||------9---10-----7---9-----4-5-4-2-|
|-(3)---4-----4-----5-5---7---------||-----10---10-----9---9-----5-5-5-2-|
|-(0)-0---0-----0-0-3-3-3-5---0-0---||-0-0----0----0-0---0---0-0---------|
|---------------------------------3-||-----------------------------------|


      PM   PM   PM|
  +S  S  S S  S S S E E E S S S
|-------------------------------|
|-------------------------------|
|-(2)----9---10-----4-7-2-------|
|-(2)---10---10-----5-5-3-------|
|-----0----0----0-0-------0-0---|
|-----------------------------3-|


  PM|    PM   PM|   PM  PM|                 PM|   PM     PM|
  S S  S S  S S S S S S S S S S S S   +E  E T T S S E. E T T S S S
|-----------------------------------|------------------------------|
|-----------------------------------|------------------------------|
|------9---10-----7---9-----4-5-4---|------------------------------|
|-----10---10-----9---9-----5-5-5-3-|-(3)-3-----3---5--5-----------|
|-0-0----0----0-0---0---0-0-------3-|-(3)-3-----3---5--5-----0-0---|
|---------------------------------1-|-(1)-1-1-1-1-1-3--3-3-3-----3-|


Verse
                                              PM----------|
  E S E S H    +E      H.      S E.   S S S E S S S S S S S S S E
|------------------||---------------|------------------------------||
|------------------||o--------------|-----------------------------o||
|------------------||---------------|------------------------------||
|-7---5---3----(3)-||--3-------5-5--|-7-7-5-7---------------7-5----||
|-7---5---3----(3)-||o-3-------5-5--|-7-7-5-7---------------7-5---o||
|-5---3---1----(1)-||--1-------3-3--|-5-5-3-5-5-5-5-5-5-5-5-5-3----||


                                 Bridge
                                      PM  PM    PM  PM  PM    PM
  H    H      H    S E  E  E S    +S  S S S S S S E S S S S S S S
|-----------|------------------||----------------------------------|
|-----------|------------------||----------------------------------|
|-----------|------------------||-----------5-------------5--------|
|-3----7----|-2----9-9-10-12-2-||-(2)---4-----4---2---4-----4---3--|
|-3----5----|-2----9-9--x--x-0-||-(0)-0---0-----0-3-0---0-----0-0--|
|-1----5----|-0----7-7--8-10---||----------------------------------|


      PM  PM    PM|     PM|               PM  PM    PM  PM  PM    PM
  +S  S S S S S S S S S S S S S S S   +S  S S S S S S E S S S S S S S
|-----------------------------------|---------------------------------|
|-----------------------------------|---------------------------------|
|-----------5-----------------------|-----------5-------------5-------|
|-(3)---4-----4-----5-5---7---7---2-|-(2)---4-----4---2---4-----4---3-|
|-(0)-0---0-----0-0-3-3-3-5---5---0-|-(0)-0---0-----0-3-0---0-----0-0-|
|-----------------------------------|---------------------------------|


      PM  PM    PM|     PM|
  +S  S S S S S S S S S S S S S S S
|-----------------------------------||
|-----------------------------------||
|-----------5-----------------------||
|-(3)---4-----4-----5-5---7---7---2-||
|-(0)-0---0-----0-0-3-3-3-5---5---0-||
|-----------------------------------||
|
|  W
|-----------------------------------||
|-----------------------------------||
|-----------------------------------||
|-----------------------------------||
|-----------------------------------||
|-----------------------------------||


Bridge part 2
  Gtr I
      PM  PM    PM    PM  PM    PM        PM  PM    PM|     PM|
  +S  S S S S S S E   S S S S S S S   +S  S S S S S S S S S S S S S S S
|-----------------------------------|-----------------------------------
|-----------------------------------|-----------------------------------
|-----------5---------------5-------|-----------5-----------------------
|-(2)---4-----4---2-----4-----4---3-|-(3)---4-----4-----5-5---7---7---2-
|-(0)-0---0-----0-3---0---0-----0-0-|-(0)-0---0-----0-0-3-3-3-5---5---0-
|-----------------------------------|-----------------------------------
|
| Gtr II
|  S  S S S S S S S S S S S S S S S    S  S S S S S S S S S S S S S S S
|-----------------------------------|-----------------------------------
|-----------------------------------|-----------------------------------
|--9--9-9-9-9-9-9-9-5-5-5-5-5-5-5-5-|--7--7-7-7-7-7-7-7-4-4-4-4-4-4-4-4-
|--x--x-x-x-x-x-x-x-x-x-x-x-x-x-x-x-|--x--x-x-x-x-x-x-x-x-x-x-x-x-x-x-x-
|--7--7-7-7-7-7-7-7-3-3-3-3-3-3-3-3-|--5--5-5-5-5-5-5-5-2-2-2-2-2-2-2-2-
|-----------------------------------|-----------------------------------


    PM  PM    PM    PM  PM    PM        PM  PM    PM|     PM|
  S S S S S S S E   S S S S S S S   +S  S S S S S S S S S S S S S S S
|---------------------------------|-----------------------------------|
|---------------------------------|-----------------------------------|
|---------5---------------5-------|-----------5-----------------------|
|-2---4-----4---2-----4-----4---3-|-(3)---4-----4-----5-5---7---------|
|-0-0---0-----0-3---0---0-----0-0-|-(0)-0---0-----0-0-3-3-3-5---0-0---|
|---------------------------------|---------------------------------3-|
|
| S S S S S S S S S S S S S S S S    S  S S S S S S S S S S S S S S S
|---------------------------------|-----------------------------------|
|---------------------------------|-----------------------------------|
|-9-9-9-9-9-9-9-9-5-5-5-5-5-5-5-5-|--7--7-7-7-7-7-7-7-4-4-4-4-4-4-4-4-|
|-x-x-x-x-x-x-x-x-x-x-x-x-x-x-x-x-|--x--x-x-x-x-x-x-x-x-x-x-x-x-x-x-x-|
|-7-7-7-7-7-7-7-7-3-3-3-3-3-3-3-3-|--5--5-5-5-5-5-5-5-2-2-2-2-2-2-2-2-|
|---------------------------------|-----------------------------------|


   Chorus
    PM|    PM   PM|   PM  PM|               PM   PM   PM|
    S S  S S  S S S S S S S S S S S S   +S  S  S S  S S S E E E S S S
||------------------------------------|--------------------------------|
||o-----------------------------------|--------------------------------|
||-------9---10-----7---9-----4-5-4-2-|-(2)----9---10-----4-7-2--------|
||------10---10-----9---9-----5-5-5-2-|-(2)---10---10-----5-5-3--------|
||o-0-0----0----0-0---0---0-0---------|-----0----0----0-0-------0-0----|
||------------------------------------|-----------------------------3--|


  PM|    PM   PM|   PM  PM|                 PM|   PM     PM|
  S S  S S  S S S S S S S S S S S S   +E  E T T S S E. E T T S S S
|-----------------------------------|-------------------------------||
|-----------------------------------|------------------------------o||
|------9---10-----7---9-----4-5-4---|-------------------------------||
|-----10---10-----9---9-----5-5-5-3-|-(3)-3-----3---5--5------------||
|-0-0----0----0-0---0---0-0-------3-|-(3)-3-----3---5--5-----0-0---o||
|---------------------------------1-|-(1)-1-1-1-1-1-3--3-3-3-----3--||


  Gtr I
  E S E S H    +S  S
|--------------------||
|--------------------||
|--------------------||
|-7---5---3----(3)-2-||
|-7---5---3----(3)-2-||
|-5---3---1----(1)-0-||
|
| Gtr II
| E S E S H    +S  S
|--------------------||
|--------------------||
|--------------------||
|-7---5---3----(3)-2-||
|-7---5---3----(3)-2-||
|-5---3---1----(1)-0-||


Guitar Solo 2
  +Q.                        +S    H                                     S
|-----------------------------------------------------------------------------|
|-----------------------------------------------------------------------------|
|-----------------------------------------------------------------------------|
|-(2)------------------------(2)---5------------------------------------------|
|-(2)------------------------(2)---5-------------------------------------7----|
|-(0)------------------------(0)---3-------------------------------------5----|
|
|  |--3--|  |--3--|  |--3--|  |---3---|  |--3--|  |--3--|  |--3--|  |---3---|
|  S  S  S  S  S  S  S  S  S  S  S    S  S  S  S  S  S  S  S  S  S  S  S    S
|-----------------------------------------------------------------------------|
|--------------------------------------------------------------------------20-|
|---------------------------------------------------------12-------12h14------|
|-------------------12-------12h14------12h14h15p12h14h15----14h15------------|
|----------12h14h15----14h15---------15---------------------------------------|
|-12h14h15--------------------------------------------------------------------|


          PM-------------------------------------------|
   +S     T T S T T S T T  S  T    T S T T  S     T    T   S  S  S  S
|---------------------------------------------------------------------|
|---------------------------------------------------------------------|
|---------------------------------------------------------------------|
|---------------------------------------------------------------------|
|--(7)-----------------------------------------------------7--5-----3-|
|--(5)----5-5-5-5-5-5-5-5--5--5----5-5-5-5--5-----5----5---5--3-----1-|
|
|  +Q.                     S  E.            T  T  S       +E     S
|-------------------------20------------------------------------12----|
|-(20)b22--------------------20b22---------20-17-18b20---(18)---------|
|---------------------------------------------------------------------|
|---------------------------------------------------------------------|
|---------------------------------------------------------------------|
|---------------------------------------------------------------------|
|
| Gtr III
|   H.                                                     E.       S
|------------------------------------------------------------------15-|
|---------------------------------------------------------------------|
|---------------------------------------------------------------------|
|---------------------------------------------------------------------|
|---------------------------------------------------------------------|
|---------------------------------------------------------------------|


        PM----------------|           PM----------------|
   +S   T T  S  T T  S  T T  S  E     T T  S  T T  S  T T S  S
|---------------------------------------------------------------|
|---------------------------------------------------------------|
|---------------------------------------------------------------|
|---------------------------------------------------------------|
|--(3)-----------------------3--5-------------------------5--7--|
|--(1)--1-1--1--1-1--1--1-1--1--3-----3-3--3--3-3--3--3-3-3--5--|
|
|  +S   S    S  S    S  S    S  S  S  S    S  S    S  S   S  S
|-(12)--------------12------------12--------------12------------|
|------10---10-10-------8----8--8--------------------10---8-10--|
|------------------------------------10---10-10-----------------|
|---------------------------------------------------------------|
|---------------------------------------------------------------|
|---------------------------------------------------------------|
|
|  +S   S    S  S    S  S    S  S  S  S    S  S    S  E      S
|-(15)--------------15------------15--------------15------------|
|------13---13-13------12---12-12-------------------------------|
|------------------------------------14---14-14--------------9--|
|---------------------------------------------------------------|
|---------------------------------------------------------------|
|---------------------------------------------------------------|


        PM-------------------------------------------|
    S   T    T  S T T   S  T T  S T T S  T     T S T T  S  S S S
|----------------------------------------------------------------|
|----------------------------------------------------------------|
|----------------------------------------------------------------|
|----------------------------------------------------------------|
|---7---------------------------------------------------7--5---3-|
|---5---5----5--5-5-5---5--5-5--5-5-5-5--5-----5-5-5-5--5--3---1-|
|
|  +S   S       E      +E       S E     +S       E     +Q
|----------------------------------------------------------------|
|-(10)-10b12---10-----(10)---------------------------------------|
|------------------------------10-9-----(9)b10---9-----(9)-------|
|----------------------------------------------------------------|
|----------------------------------------------------------------|
|----------------------------------------------------------------|
|
|  +S   S       E      +E       S E     +S       E     +Q
|----------------------------------------------------------------|
|----------------------------------------------------------------|
|--(9)--9b10----9------(9)---------------------------------------|
|------------------------------10-9-----(9)b10---9-----(9)-------|
|----------------------------------------------------------------|
|----------------------------------------------------------------|


       PM--------------|         PM---------------|
  +S   T T S  T T S  T T S  E    T T  S  T T  S T T S S
|---------------------------------------------------------|
|---------------------------------------------------------|
|---------------------------------------------------------|
|---------------------------------------------------------|
|-(3)--------------------3--5-----------------------5-7---|
|-(1)--1-1-1--1-1-1--1-1-1--3----3-3--3--3-3--3-3-3-3-5---|
|
|  S   S   S  S   S  S   S  S S  S    S  S    Q
|-----------------------------7--8---10-12---10-----------|
|-------------------10-----10-----------------------------|
|----------9------9------9--------------------------------|
|--7--10-----10-------------------------------------------|
|---------------------------------------------------------|
|---------------------------------------------------------|
|
|  S   S   S  S   S  S   S  S S  S    S  S    Q
|---------------------------------------------------------|
|---------------------------------------------------------|
|-------------------------------------7--9----7-----------|
|--------------------7------7-9-10------------------------|
|----------7------7------7--------------------------------|
|--5---8------8-------------------------------------------|


         PM--------------------------------------------------------|
   S     T  T  S     T  T  S     T  T  S     T  T  S   T  T S    T T  S  S S S
|------------------------------------------------------------------------------|
|------------------------------------------------------------------------------|
|------------------------------------------------------------------------------|
|------------------------------------------------------------------------------|
|--7------------------------------------------------------------------7--5---3-|
|--5-----5--5--5-----5--5--5-----5--5--5-----5--5--5---5--5-5----5-5--5--3---1-|
|
|                                                                     ~~~
|  T  T  T  T  T  T  T  T  T  T  T  T  T  T  T  T  T T T  T T T  T T  E.     S
|-13p12p10-13p12p10-13p12--------------------------------------------10--------|
|-------------------------13p12p10-13p12p10-13p12------------------------------|
|-------------------------------------------------10p9p7-10p9p7-10p9p=7--------|
|------------------------------------------------------------------------------|
|------------------------------------------------------------------------------|
|----------------------------------------------------------------------------5-|


      PM-------------|        PM--------------|
  +S  T T S T T S  T T S E    T T  S  T T S T T S   S
|---------------------------------------------------------|
|---------------------------------------------------------|
|---------------------------------------------------------|
|---------------------------------------------------------|
|-(3)------------------3-5----------------------5---7-----|
|-(1)-1-1-1-1-1-1--1-1-1-3----3-3--3--3-3-3-3-3-3---5-----|
|
|                                     ~~~~~~~~~~~~~~~~~
| +S  S   S S   S  S   S S  S S    S  Q            +S
|------------------------------------12-----------(12)----|
|---------------------------------------------------------|
|-----------------------------7---10--9------------(9)----|
|----------------------7-9-10-----------------------------|
|-----------7---8-10--------------------------------------|
|-(5)-7---8-----------------------------------------------|


         PM------------------------------------------------------------|
   S     T  T  S     T  T  S     T  T  S     T  T  S     T  T  S     T  T  S      S     S     S
|-----------------------------------------------------------------------------------------------|
|-----------------------------------------------------------------------------------------------|
|-----------------------------------------------------------------------------------------------|
|-----------------------------------------------------------------------------------------------|
|--7-----------------------------------------------------------------------7------5-----------3-|
|--5-----5--5--5-----5--5--5-----5--5--5-----5--5--5-----5--5--5-----5--5--5------3-----------1-|
|
|                                                                                             TP
|  T  T  T  T  T  T  T  T  T  T  T  T  T  T  T  T  T  T  T  T  T  T  T  T  T   T  T  T  T  T  S
|----------------12h17p12----------------------12h17h20p17p12-----------------12h17h20p17p12-13-|
|-------------13----------13----------------13----------------13----------13--------------------|
|----------14----------------14----------14----------------------14----14-----------------------|
|-------14----------------------14----14----------------------------14--------------------------|
|-12h15----------------------------15-----------------------------------------------------------|
|-----------------------------------------------------------------------------------------------|
|
|                                                                                             TP
|  H.                                                                      E.                 S
|-----------------------------------------------------------------------------------------------|
|--------------------------------------------------------------------------------------------15-|
|-----------------------------------------------------------------------------------------------|
|-----------------------------------------------------------------------------------------------|
|-----------------------------------------------------------------------------------------------|
|-----------------------------------------------------------------------------------------------|


       PM--------------|         PM--------------|
   +S  T T  S T T  S T T  S E    T T  S T T  S T T  S  S
|-----------------------------------------------------------|
|-----------------------------------------------------------|
|-----------------------------------------------------------|
|------------------------------------------------------9----|
|--(3)--------------------3-5-----------------------5--9----|
|--(1)-1-1--1-1-1--1-1-1--1-3----3-3--3-3-3--3-3-3--3--7----|
|
|   TP      TP     TP     TP   TP     TP     TP     TP
|  +E       E      E      E    E      E      E      S  S
|-(13)-----12-----13-----15---13-----15-----17-----15-17b19-|
|-----------------------------------------------------------|
|-----------------------------------------------------------|
|-----------------------------------------------------------|
|-----------------------------------------------------------|
|-----------------------------------------------------------|
|
|   TP      TP     TP     TP   TP     TP     TP     TP
|  +E       E      E      E    E      E      E      S  S
|-----------------------------------------------------------|
|-(15)-----13-----15-----17---15-----17-----18-----17-18b20-|
|-----------------------------------------------------------|
|-----------------------------------------------------------|
|-----------------------------------------------------------|
|-----------------------------------------------------------|


Guitar Solo 3
    H.                                   +E.   S
|------------------------------------------------|
|------------------------------------------------|
|------------------------------------------------|
|---9------------------------------------(9)---5-|
|---9------------------------------------(9)---5-|
|---7------------------------------------(7)---3-|
|
|  +Q.              H                        E
|-(17)-------------------------------------------|
|------------------------------------------------|
|------------------------------------------------|
|------------------------------------------------|
|------------------------------------------------|
|------------------------------------------------|
|
|  +S  S  S S  S S  S  S  S  S  S  S     +Q
|------------------------------------------------|
|-(18)----------------------12-15-17b19-(17)-----|
|---------------------11-12----------------------|
|----------------9-12----------------------------|
|-----------9-10---------------------------------|
|------7-10--------------------------------------|


  +Q.                                 +S     S    +Q.                 +S  S
|---------------------------------------------------------------------------|
|---------------------------------------------------------------------------|
|---------------------------------------------------------------------------|
|-(5)---------------------------------(5)----7----(7)-----------------(7)-9-|
|-(5)---------------------------------(5)----7----(7)-----------------(7)-9-|
|-(3)---------------------------------(3)----5----(5)-----------------(5)-7-|
|
|  W
|---------------------------------------------------------------------------|
|---------------------------------------------------------------------------|
|---------------------------------------------------------------------------|
|---------------------------------------------------------------------------|
|---------------------------------------------------------------------------|
|---------------------------------------------------------------------------|
|
|  T  T  T  T  T  T  T  T  T  T  T  T  T  T  T  T  E     +S   T  T  Q
|-19p14----14h19p14h19p14----14h19p14h19p14----14---------------------------|
|-------15----------------15----------------15----17b19-(17)-17p15p14-------|
|---------------------------------------------------------------------------|
|---------------------------------------------------------------------------|
|---------------------------------------------------------------------------|
|---------------------------------------------------------------------------|


   H.                                                   +E.            S
|---------------------------------------------------------------------------|
|---------------------------------------------------------------------------|
|---------------------------------------------------------------------------|
|--9----------------------------------------------------(9)------------5----|
|--9----------------------------------------------------(9)------------5----|
|--7----------------------------------------------------(7)------------3----|
|
|  |--3--|  |--3--|  |--3--|  |--3--|  |--3--|  |--3--|  |--3--|  |---3---|
|  S  S  S  S  S  S  S  S  S  S  S  S  S  S  S  S  S  S  S  S  S  S  S    S
|-14p10----------------------------10h14p10----------10h17p14------------14-|
|-------12----------------------12----------12----12----------15----15------|
|----------11----------------11----------------11----------------14---------|
|-------------12----------12------------------------------------------------|
|----------------14p10h14---------------------------------------------------|
|---------------------------------------------------------------------------|
|
|---------------------------------------------------------------------------|
|---------------------------------------------------------------------------|
|---------------------------------------------------------------------------|
|---------------------------------------------------------------------------|
|---------------------------------------------------------------------------|
|---------------------------------------------------------------------------|


  +Q.               +S   S +Q.         +S    S
|------------------------------------------------|
|------------------------------------------------|
|------------------------------------------------|
|-(5)---------------(5)--7-(7)---------(7)-------|
|-(5)---------------(5)--7-(7)---------(7)---7---|
|-(3)---------------(3)--5-(5)---------(5)---5---|
|
|  S   S  S  S S  S  S   S  S   S S  Q       S
|-19--19-19-17---17-----14-----14---17-----(17)--|
|------------------------------------------------|
|------------------------------------------/14---|
|------------------------------------------------|
|------------------------------------------------|
|------------------------------------------------|
|
|  S   S  S  S S  S  S   S  S   S S  Q       S
|-22--22-22-21---21-----19-----19---21-----(21)--|
|------------------------------------------------|
|------------------------------------------------|
|------------------------------------------------|
|------------------------------------------/12---|
|------------------------------------------------|


Octave Guitar Solo
       PM------------------------------------|
    S  T T  S T T  S T T  S  T  T S T T  S T T  S S  S  S
|---------------------------------------------------------|
|---------------------------------------------------------|
|---------------------------------------------------------|
|---------------------------------------------------------|
|---7-------------------------------------------7-5-----3-|
|---5--5-5--5-5-5--5-5-5--5--5--5-5-5-5--5-5-5--5-3-----1-|
|
|  +E       E      E      S  E.          E      E    S  S
|------------------------12-------------------------12-17-|
|----------12-----13--------15----------13-----15---------|
|-(14)----------------------------------------------------|
|---------------------------------------------------------|
|---------------------------------------------------------|
|---------------------------------------------------------|
|
|  +E       E      E      S  E.          E      E    S  S
|---------------------------------------------------------|
|---------------------------------------------------------|
|-------------------------9--------------------------9-14-|
|-----------9-----10--------12----------10-----12---------|
|-(12)----------------------------------------------------|
|---------------------------------------------------------|


       PM---------------|       PM---------------|
   +S  T T S T T   S  T T S  E  T T S T T S   T  T S   S
|--------------------------------------------------------|
|--------------------------------------------------------|
|--------------------------------------------------------|
|--------------------------------------------------------|
|--(3)--------------------3--5---------------------5---7-|
|--(1)-1-1-1-1-1---1--1-1-1--3--3-3-3-3-3-3---3--3-3---5-|
|
|  +Q             +E.        Q.              +E        S
|-(17)-----------(17)-------15--------------(15)---------|
|--------------------------------------------------------|
|----------------------------------------------------/14-|
|--------------------------------------------------------|
|--------------------------------------------------------|
|--------------------------------------------------------|
|
|  +Q             +E.        Q.              +E        S
|--------------------------------------------------------|
|--------------------------------------------------------|
|-(14)-----------(14)-------12--------------(12)---------|
|--------------------------------------------------------|
|----------------------------------------------------/12-|
|--------------------------------------------------------|


     PM------------------------------------|
   S T T  S T T  S T T  S  T  T S T T  S T T  S S  S  S
|-------------------------------------------------------|
|-------------------------------------------------------|
|-------------------------------------------------------|
|-------------------------------------------------------|
|--7------------------------------------------7-5-----3-|
|--5-5-5--5-5-5--5-5-5--5--5--5-5-5-5--5-5-5--5-3-----1-|
|
|  E      E      E      S  E.          E      E    S  S
|----------------------12-------------------------12-20-|
|--------12-----13--------15----------13-----15---------|
|-14----------------------------------------------------|
|-------------------------------------------------------|
|-------------------------------------------------------|
|-------------------------------------------------------|
|
|  E      E      E      S  E.          E      E    S  S
|-------------------------------------------------------|
|----------------------------------------------------13-|
|-----------------------9--------------------------9----|
|---------9-----10--------12----------10-----12---------|
|-12----------------------------------------------------|
|-------------------------------------------------------|


       PM----------------|         PM--------------|
   +S  T T  S  T T S  T  T S E     T T S  T  T S T T  S  S    +Q.   +S  H      +S
|----------------------------------------------------------|--------------------------|
|----------------------------------------------------------|--------------------------|
|----------------------------------------------------------|--------------------------|
|--------------------------------------------------------2-|--(2)---(2)-5------(5)----|
|--(3)---------------------3-5------------------------5--2-|--(2)---(2)-5------(5)----|
|--(1)-1-1--1--1-1-1--1--1-1-3-----3-3-3--3--3-3-3-3--3--0-|--(0)---(0)-3------(3)----|
|
|  +E       E.        E.        E.        E.          S  S    +H           H
|-(20)-----19--------17--------15--------13----------12-12-|-(12)---------15----------|
|----------------------------------------------------------|--------------------------|
|----------------------------------------------------------|--------------------------|
|----------------------------------------------------------|--------------------------|
|----------------------------------------------------------|--------------------------|
|----------------------------------------------------------|--------------------------|
|
|   E       E.        E.        E.        E.          S  S    +H           H
|----------------------------------------------------------|--------------------------|
|--13------12--------10---------8---------6-----------5--5-|--(5)----------8----------|
|----------------------------------------------------------|--------------------------|
|----------------------------------------------------------|--------------------------|
|----------------------------------------------------------|--------------------------|
|----------------------------------------------------------|--------------------------|


Interlude
  Gtr I
  PM|    PM   PM|   PM  PM|                         PM-|    PM   PM|   PM  PM|
  S S  S S  S S S S S S S S S S S S   +W            S  S  S S  S S S S S S S S  S  S  S  S
|-----------------------------------|------------|-----------------------------------------|
|-----------------------------------|------------|-----------------------------------------|
|------9---10-----7---9-----4-5-4-4-|-(4)--------|--------9---10-----7---9------4--5--4----|
|-----10---10-----9---9-----5-5-5-5-|-(5)--------|-------10---10-----9---9------5--5--5--3-|
|-0-0----0----0-0---0---0-0---------|------------|--0--0----0----0-0---0---0-0-----------3-|
|-----------------------------------|------------|---------------------------------------1-|
|
| Gtr II
| W                                   +W           +H.                         +E     S  S
|-----------------------------------|------------|-----------------------------------------|
|-----------------------------------|------------|-----------------------------------------|
|-2---------------------------------|-(2)--------|-(2)-------------------------(2)----2----|
|-2---------------------------------|-(2)--------|-(2)-------------------------(2)----2--3-|
|-0---------------------------------|-(0)--------|-(0)-------------------------(0)---(0)-3-|
|-----------------------------------|------------|---------------------------------------1-|


  +E   T   T   T   T   E   S  E.  T   T   T   T   E   E
|----------------------------------------------------------|
|----------------------------------------------------------|
|----------------------2--------------------------4--------|
|-(3)-(3)-(3)-(3)-(3)-(3)-(3)-5--(5)-(5)-(5)-(5)-(5)-(5)---|
|-(3)-(3)-(3)-(3)-(3)-(3)-(3)-5--(5)-(5)-(5)-(5)-(5)-(5)---|
|-(1)--1---1---1---1--(1)--1--3---3---3---3---3--(3)--3----|
|
| +E   T   T   T   T   E   S  E.  T   T   T   T   E   E
|----------------------------------------------------------|
|----------------------------------------------------------|
|----------------------2--------------------------4--------|
|-(3)-(3)-(3)-(3)-(3)-(3)-(3)-5--(5)-(5)-(5)-(5)-(5)-(5)---|
|-(3)-(3)-(3)-(3)-(3)-(3)-(3)-5--(5)-(5)-(5)-(5)-(5)-(5)---|
|-(1)--1---1---1---1--(1)--1--3---3---3---3---3--(3)--3----|


    PM|    PM   PM|   PM  PM|
    S S  S S  S S S S S S S S S S S S   +W
||------------------------------------|------------|
||o-----------------------------------|------------|
||-------9---10-----7---9-----4-5-4-4-|-(4)--------|
||------10---10-----9---9-----5-5-5-5-|-(5)--------|
||o-0-0----0----0-0---0---0-0---------|------------|
||------------------------------------|------------|
|
|   W                                   +W
||------------------------------------|------------|
||o-----------------------------------|------------|
||--2---------------------------------|-(2)--------|
||--2---------------------------------|-(2)--------|
||o-0---------------------------------|-(0)--------|
||------------------------------------|------------|


   PM-|    PM   PM|   PM  PM|
   S  S  S S  S S S S S S S S  S  S  S  S   +E   E   E   S  E.  E   E   E      3x
|-----------------------------------------|------------------------------------||
|-----------------------------------------|-----------------------------------o||
|--------9---10-----7---9------4--5--4----|----------2--------------4--(4)-----||
|-------10---10-----9---9------5--5--5--3-|-(3)-(3)-(3)-----5--(5)-(5)-(5)-----||
|--0--0----0----0-0---0---0-0-----------3-|-(3)-(3)-(3)-(3)-5--(5)-(5)-(5)----o||
|---------------------------------------1-|-(1)--1--(1)--1--3---3--(3)--3------||
|
| +H.                         +E     S  S    E   E   E   S  E.  E   E   E      3x
|-----------------------------------------|------------------------------------||
|-----------------------------------------|-----------------------------------o||
|-(2)-------------------------(2)----2----|----------2--------------4--(4)-----||
|-(2)-------------------------(2)----2--3-|--3--(3)-(3)-----5--(5)-(5)-(5)-----||
|-(0)-------------------------(0)---(0)-3-|--3--(3)-(3)-(3)-5--(5)-(5)-(5)----o||
|---------------------------------------1-|--1---1--(1)--1--3---3--(3)--3------||


   Chorus
    Gtrs I, II
    PM|    PM   PM|   PM  PM|               PM   PM   PM|
    S S  S S  S S S S S S S S S S S S   +S  S  S S  S S S E E E S S S
||------------------------------------|--------------------------------|
||o-----------------------------------|--------------------------------|
||-------9---10-----7---9-----4-5-4-2-|-(2)----9---10-----4-7-2--------|
||------10---10-----9---9-----5-5-5-2-|-(2)---10---10-----5-5-3--------|
||o-0-0----0----0-0---0---0-0---------|-----0----0----0-0-------0-0----|
||------------------------------------|-----------------------------3--|


  PM|    PM   PM|   PM  PM|                 PM|   PM     PM|
  S S  S S  S S S S S S S S S S S S   +E  E T T S S E. E T T S S S
|-----------------------------------|-------------------------------||
|-----------------------------------|------------------------------o||
|------9---10-----7---9-----4-5-4---|-------------------------------||
|-----10---10-----9---9-----5-5-5-3-|-(3)-3-----3---5--5------------||
|-0-0----0----0-0---0---0-0-------3-|-(3)-3-----3---5--5-----0-0---o||
|---------------------------------1-|-(1)-1-1-1-1-1-3--3-3-3-----3--||


Out-Chorus / Guitar Solo 4
  Gtr I
   PM---|    PM   PM|     PM  PM|
   S    S  S S  S S  S S  S S S S S  S  S S
|----------------------------------------------|
|----------------------------------------------|
|----------9---10------7----9-----4--5--4-2----|
|---------10---10------9----9-----5--5--5-2----|
|--0----0----0----0--0----0---0-0--------------|
|----------------------------------------------|
|
| Gtr II
|                      ~~~~~~~~~~~~~~~~~
|  Q.                S Q.           +E    T  T
|----------------------------------------------|
|----------------------------------------------|
|-12b14-------------10p9------------(9)---9h10-|
|----------------------------------------------|
|----------------------------------------------|
|----------------------------------------------|


        PM   PM      PM--|
  +S    S  S S   S   S    S E E E S S  S
|-----------------------------------------|
|-----------------------------------------|
|-(2)------9----10----------4-7-2---------|
|-(2)-----10----10----------5-5-3---------|
|-------0----0-------0----0-------0-0-----|
|--------------------------------------3--|
|
|                           ~~~~~~~~~~~~~~
|  Q            +S   T T  S H         +S
|-----------------------------------------|
|-12b13--------(12)-10p8------------------|
|------------------------10p9---------(9)-|
|-----------------------------------------|
|-----------------------------------------|
|-----------------------------------------|


   PM|    PM   PM|     PM      PM|
   S S  S S  S S S S   S  S    S S     S  S S S
|-----------------------------------------------|
|-----------------------------------------------|
|-------9---10-----7------9------------4--5-4---|
|------10---10-----9------9------------5--5-5-3-|
|--0-0----0----0-0-----0-------0-0------------3-|
|---------------------------------------------1-|
|
|  S S  S S  S E   E     +T  T S S    +Q
|-----------------------------------------------|
|--------------------------------8b10-(8)-------|
|-------5----5h7---7b9r==(7)-5------------------|
|-/7-7----7--------------------7----------------|
|-----------------------------------------------|
|-----------------------------------------------|


                     PM|          PM                            PM---|
  +E        E        T T    S     S    E.              E        T    T S S S
|----------------------------------------------------------------------------|
|----------------------------------------------------------------------------|
|----------------------------------------------------------------------------|
|-(3)-------3---------------3----------5---------------5---------------------|
|-(3)-------3---------------3----------5---------------5---------------0-0---|
|-(1)-------1--------1-1----1-----1----3---------------3--------3----3-----3-|
|
|  |--3--|  |--3--|  |----3----|  |---3----|  |--3--|  |--3--|
|  S  S  S  S  S  S  S    S    S  S  S     S  S  S  S  S  S  S  Q
|----------------------------------------------------------------------------|
|--------------------------------------------------------------16b17---------|
|--------------------------------------------12h14h16p12h14h16---------------|
|-------------------10h==12h==14p10h12h===14---------------------------------|
|-10h12h14p10h12h14----------------------------------------------------------|
|----------------------------------------------------------------------------|


   PM---|       PM       PM---|            PM          PM---|
   S    S  S    S  S     S     S     S     S     S     S     S     S     S     S     S
|--------------------------------------------------------------------------------------|
|--------------------------------------------------------------------------------------|
|----------9------10-----------------7-----------9-----------------4-----5-----4-----2-|
|---------10------10-----------------9-----------9-----------------5-----5-----5-----2-|
|--0----0-------0--------0-----0-----------0-----------0-----0-------------------------|
|--------------------------------------------------------------------------------------|
|
|  E       E       T  T  T  T  T  T  T  T  T  T  T  T  T  T  T  T  T  T  T  T  T  T  T
|-15b17---15b17---20p17h19p17----17h20p17----17h20p17h19p17----17h20p17h19p17----17----|
|-----------------------------17----------17----------------17----------------17----17-|
|--------------------------------------------------------------------------------------|
|--------------------------------------------------------------------------------------|
|--------------------------------------------------------------------------------------|
|--------------------------------------------------------------------------------------|


        PM    PM    PM|
  +S    S  S  S  S  S  S  E     E     E       S  S    S
|-------------------------------------------------------------------|
|-------------------------------------------------------------------|
|-(2)------9----10--------4-----7-----2-----------------------------|
|-(2)-----10----10--------5-----5-----3-----------------------------|
|-------0-----0-----0--0----------------------0--0------------------|
|-----------------------------------------------------3-------------|
|
|  E.         S  S  S  S  S  S  S  S  S  E       E       S  S  Q
|-15b17------17-15-13-12--------------------------------------------|
|------------------------15p13p12h13h15-15b17---15b17---15p13-------|
|-------------------------------------------------------------14----|
|-------------------------------------------------------------------|
|-------------------------------------------------------------------|
|-------------------------------------------------------------------|


   PM---|            PM          PM---|            PM    PM|
   S     S     S     S     S     S     S     S     S  S  S  S    S S S   S
|---------------------------------------------------------------------------|
|---------------------------------------------------------------------------|
|--------------9----------10-----------------7--------9----------4-5-4------|
|-------------10----------10-----------------9--------9----------5-5-5---3--|
|--0-----0-----------0-----------0-----0-----------0-----0--0------------3--|
|------------------------------------------------------------------------1--|
|
|                                                  ~~
|  T  T  T  T  T  T  T  T  T  T  T  T  T  T  T  T  S  S  S  Q           +S
|-12h17p15p12h17p15p12h17p15p12h17p15p12h17p12h15h17-17-20-20b22-------(20)-|
|---------------------------------------------------------------------------|
|---------------------------------------------------------------------------|
|---------------------------------------------------------------------------|
|---------------------------------------------------------------------------|
|---------------------------------------------------------------------------|


                            PM|         PM                                   PM|
  +E            E           T  T  S     S     E.                 E           T  T  S     S     S
|-----------------------------------------------------------------------------------------------------|
|-----------------------------------------------------------------------------------------------------|
|-----------------------------------------------------------------------------------------------------|
|-(3)-----------3-----------------3-----------5------------------5------------------------------------|
|-(3)-----------3-----------------3-----------5------------------5-----------------0-----0------------|
|-(1)-----------1-----------1--1--1-----1-----3------------------3-----------3--3--------------3------|
|
|  T   T  T  T  T  T  T  T  T  T  T  T  T  T  T   T  T  T  T  T  T  T  T  T  T  T  T  T  T  T  T  T
|-----17h20p17----17h20p17h19p17----17h20p17-----17h20p17h19p17----17----17h20p17h19p17----17h20p17---|
|-17-----------17----------------17----------17-----------------17----17----------------17------------|
|-----------------------------------------------------------------------------------------------------|
|-----------------------------------------------------------------------------------------------------|
|-----------------------------------------------------------------------------------------------------|
|-----------------------------------------------------------------------------------------------------|


   E           S     E           S     Q.                                   S     E.
|---------------------------------------------------------------------------------------------------|
|---------------------------------------------------------------------------------------------------|
|---------------------------------------------------------------------------------------------------|
|--7-----------------5-----------------3------------------------------------------5-----------------|
|--7-----------------5-----------------3------------------------------------3-----5-----------------|
|--5-----------------3-----------------1------------------------------------1-----3-----------------|
|
|  T  T  T  T  T  T  T  T  T  T  T  T  T   T  T  T  T  T  T  T  T  T  T  T  T  T  T   T  T  T  T  T
|-------------12h17p12-----------------------12h17p12----------------------12h17p12-----------------|
|----------13----------13-----------------13----------13----------------13-----------13-------------|
|-------14----------------14----------14-----------------14----------14-----------------14----------|
|----14----------------------14----14-----------------------14----14-----------------------14----14-|
|-15----------------------------15-----------------------------15-----------------------------15----|
|---------------------------------------------------------------------------------------------------|


   S  S  S  E  H    E.
|------------------------|
|------------------------|
|------------------------|
|--7--7--5--7------------|
|--7--7--5--7------------|
|--5--5--3--5------------|
|
|  S  S  S  E  H    E.
|-17-17-15-17\-----------|
|------------------------|
|------------------------|
|------------------------|
|------------------------|
|------------------------|


Duration Legend
---------------
W - whole; H - half; Q - quarter; E - 8th; S - 16th; T - 32nd; X - 64th; a - acciaccatura
+ - note tied to previous; . - note dotted; .. - note double dotted
Uncapitalized letters represent notes that are staccato (1/2 duration)
Irregular groupings are notated above the duration line
Duration letters will always appear directly above the note/fret number it represents the
duration for.  Duration letters with no fret number below them represent rests.  Multi-
bar rests are notated in the form Wxn, where n is the number of bars to rest for.  Low
melody durations appear below the staff

Tablature Legend
----------------
h   - hammer-on
p   - pull-off
b   - bend
pb  - pre-bend
r   - bend release (if no number after the r, then release immediately)
/\  - slide into or out of (from/to "nowhere")
s   - legato slide
S   - shift slide
<n> - natural harmonic
[n]  - artificial harmonic
n(n) - tapped harmonic
~   - vibrato
tr  - trill
T   - tap
TP  - trem. picking
PM  - palm muting
\n/  - tremolo bar dip; n = amount to dip
\n  - tremolo bar down
n/  - tremolo bar up
/n\  - tremolo bar inverted dip
=   - hold bend; also acts as connecting device for hammers/pulls
<> - volume swell (louder/softer)
x   - on rhythm slash represents muted slash
o   - on rhythm slash represents single note slash

Misc Legend
-----------
|  - bar
||  - double bar
||o - repeat start
o|| - repeat end
*|  - double bar (ending)
:  - bar (freetime)
$  - Segno
&  - Coda
Tempo markers - <E/E./Q/Q./H/H.> = BPM(8/16=s8/s16), where s8 = swing 8ths, s16 = swing 16ths
comments
print report bad tab
1 comment total.
0 reply
loki'scurse wrote on May 11 2009, 11:43 am

who the hell plays guitar III???

I want to post or [tab]
guest
You may want to rate the tab now too:
select rating
Please do not post tabs as comments. Select "correction" instead!