Oops, an error
Loading. Please wait.

Anthem We Are The Fire Tab

ver2
ver2

Solo

Whole song

More versions @911Tabs.com
77,390 views 63 this week
59 commentsread comments
1 2 3 4 5
excellent!
x 91
Autoscroll
+/-
esc
set tempo
stop
Contributor
Difficulty
advanced
WARNING: You are trying to view
                                    content from Ultimate-Guitar.com
                                    in an unauthorized application,
                                    which is prohibited.

                                    Please use an official Ultimate
                                    Guitar Tabs application for iPhone,
                                    iPad or Android to access legitimate
                                    chords, guitar, bass, and drum tabs
                                    from Ultimate-Guitar.com database.

                                    Type "ultimate guitar tabs" in Apple
                                    App Store's or Android Market's
                                    search to find the application.
Tabbed by:Tom Vine
Email:elasticbandit@hotmailco.uk

Tuning:E,A,D,g,b,e

Right ive decided to tab this cus i saw it on scuzz and thoght it was awesome :P
and the other tabs werent too good, i wonder if mine will be any better!

Intro
e|-----------------------------------------------------------------------|
B|-----------------------------------------------------------------------|
G|-----9----10-----7---9-----4h5p4\2-----9----10-----4-4-----2-----------|
D|-----10---10-----9---9-----5----\2-----10---10-----5-5-----3-----------|
A|-0-0----0----0-0---0---0-0---------0-0----0----0-0------------0-0---0--|
E|------------------------------------------------------------------3----|
 |
 |
e|-----------------------------------------------------------------------|
B|-----------------------------------------------------------------------|
G|-2---------------------------------2-----------------------------------|
D|-2---------------------------------2---------------5----------------2--|
A|-0---------------------------------0---------------5----------------0--|
E|---------------------------------------------------3-------------------|


e|-----------------------------------------------------------------------|
B|-----------------------------------------------------------------------|
G|-----9----10-----7---9-----4-5-4---------------------------------------|
D|-----10---10-----9---9-----5-5-5--3--------------5---------------------|
A|-0-0----0----0-0---0---0-0--------3--------------5---------------------|
E|----------------------------------1--------------3---------------------|
 |
 |
e|-----------------------------------------------------------------------|
B|-----------------------------------------------------------------------|
G|-----------------------------------------------------------------------|
D|-2---------------------------------------------------------------------|
A|-0--------------------------------3--------------5---------------------|
E|----------------------------------1--------------3---------------------|

e|----------|-3b-----3---5-7b-5h7p5----------------------------------|
B|----------|----------5------------6----------------------8b10------|
G|--2*~~~~~-|-----------------------------5---5-7~-5-5-7-5-----------|
D|----------|-------------------------7-7---7------------------------|
A|----------|--------------------------------------------------------|
E|----------|--------------------------------------------------------|


e|--8p5---5------------------------------------|
B|------8---8p5---5----------------------------|
G|--------------7---7p5--7b9-7b9r7-5-----------|
D|-----------------------------------7-5*~~~~~-|
A|---------------------------------------------|
E|---------------------------------------------|

e|---------------|--------------------------X2|--------------|
B|---------------|----------------------------|--------------|
G|---------------|----------------------------|--------------|
D|--7--5--3~-----|--3--5---7-7\5/7---------5--|--3--7--2--9--|
A|--7--5--3~-----|--3--5---7-7\5/7---------5--|--3--7--2--9--|
E|--5--3--1~-----|--1--3---5-5\3/5-5555555-3--|--1--5--0--7--|

Pre-Chorus
|----------------------------------------------X2|
|------------------------------------------------|
|------5-5p4---------5-5p4--------5-5p4----------|
|-2------------5------------2-----------2-5-7-9--|
|-0-0-0------0-3-3-3------0-0-0-0-------0-3-5-7--|
|------------------------------------------------|


e|-----------------------------------------------------------------------|
B|-----------------------------------------------------------------------|
G|-----9----10-----7---9-----4h5p4\2-----9----10-----4-4-----2-----------|
D|-----10---10-----9---9-----5----\2-----10---10-----5-5-----3-----------|
A|-0-0----0----0-0---0---0-0---------0-0----0----0-0------------0-0---0--|
E|------------------------------------------------------------------3----|
 |
 |
e|-----------------------------------------------------------------------|
B|-----------------------------------------------------------------------|
G|-2---------------------------------2-----------------------------------|
D|-2---------------------------------2---------------5----------------2--|
A|-0---------------------------------0---------------5----------------0--|
E|---------------------------------------------------3-------------------|


e|-----------------------------------------------------------------------|
B|-----------------------------------------------------------------------|
G|-----9----10-----7---9-----4-5-4---------------------------------------|
D|-----10---10-----9---9-----5-5-5--3--------------5---------------------|
A|-0-0----0----0-0---0---0-0--------3--------------5---------------------|
E|----------------------------------1--------------3---------------------|
 |
 |
e|-----------------------------------------------------------------------|
B|-----------------------------------------------------------------------|
G|-----------------------------------------------------------------------|
D|-2---------------------------------------------------------------------|
A|-0--------------------------------3--------------5---------------------|
E|----------------------------------1--------------3---------------------|

e|---------------|--------------------------X2|--------------|
B|---------------|----------------------------|--------------|
G|---------------|----------------------------|--------------|
D|--7--5--3~-----|--3--5---7-7\5/7---------5--|--3--7--2--9--|
A|--7--5--3~-----|--3--5---7-7\5/7---------5--|--3--7--2--9--|
E|--5--3--1~-----|--1--3---5-5\3/5-5555555-3--|--1--5--0--7--|

Pre-Chorus
|----------------------------------------------X4|
|------------------------------------------------|
|------5-5p4---------5-5p4--------5-5p4----------|
|-2------------5------------2-----------2-5-7-9--|
|-0-0-0------0-3-3-3------0-0-0-0-------0-3-5-7--|
|------------------------------------------------|


e|-----------------------------------------------------------------------|
B|-----------------------------------------------------------------------|
G|-----9----10-----7---9-----4h5p4\2-----9----10-----4-4-----2-----------|
D|-----10---10-----9---9-----5----\2-----10---10-----5-5-----3-----------|
A|-0-0----0----0-0---0---0-0---------0-0----0----0-0------------0-0---0--|
E|------------------------------------------------------------------3----|
 |
 |
e|-----------------------------------------------------------------------|
B|-----------------------------------------------------------------------|
G|-2---------------------------------2-----------------------------------|
D|-2---------------------------------2---------------5----------------2--|
A|-0---------------------------------0---------------5----------------0--|
E|---------------------------------------------------3-------------------|


e|-----------------------------------------------------------------------|
B|-----------------------------------------------------------------------|
G|-----9----10-----7---9-----4-5-4---------------------------------------|
D|-----10---10-----9---9-----5-5-5--3--------------5---------------------|
A|-0-0----0----0-0---0---0-0--------3--------------5---------------------|
E|----------------------------------1--------------3---------------------|
 |
 |
e|-----------------------------------------------------------------------|
B|-----------------------------------------------------------------------|
G|-----------------------------------------------------------------------|
D|-2---------------------------------------------------------------------|
A|-0--------------------------------3--------------5---------------------|
E|----------------------------------1--------------3---------------------|

e|-----------------------------------------------------------------------|
B|-----------------------------------------------------------------------|
G|-----9----10-----7---9-----4h5p4\2-----9----10-----4-4-----2-----------|
D|-----10---10-----9---9-----5----\2-----10---10-----5-5-----3-----------|
A|-0-0----0----0-0---0---0-0---------0-0----0----0-0------------0-0---0--|
E|------------------------------------------------------------------3----|
 |
 |
e|-----------------------------------------------------------------------|
B|-----------------------------------------------------------------------|
G|-2---------------------------------2-----------------------------------|
D|-2---------------------------------2---------------5----------------2--|
A|-0---------------------------------0---------------5----------------0--|
E|---------------------------------------------------3-------------------|


e|-----------------------------------------------------------------------|
B|-----------------------------------------------------------------------|
G|-----9----10-----7---9-----4-5-4---------------------------------------|
D|-----10---10-----9---9-----5-5-5--3--------------5---------------------|
A|-0-0----0----0-0---0---0-0--------3--------------5---------------------|
E|----------------------------------1--------------3---------------------|
 |
 |
e|-----------------------------------------------------------------------|
B|-----------------------------------------------------------------------|
G|-----------------------------------------------------------------------|
D|-2---------------------------------------------------------------------|
A|-0--------------------------------3--------------5---------------------|
E|----------------------------------1--------------3---------------------|


e|--------------|
B|--------------|
G|--------------|
D|--3--7--2--9--|
A|--3--7--2--9--|
E|--1--5--0--7--|

Corey's solo#1 (i'll do my best :P)

e|----------------------------------------------------------------|
B|----------------------------------------------------------------|
G|-------------------------------------------------12-----12-14---|
D|------------------12-----12h14--12h14h15p12h14h15--14h15--------|
A|----------12h14h15--14h15-----15--------------------------------|
E|-12h14p15-------------------------------------------------------|

e|--------------------------------------------20------------|
B|----------------------------------15--20bu22--22r20-------|
G|--12h14h15/17-14h15h17/19-15h17h19------------------------|
D|----------------------------------------------------------|
A|----------------------------------------------------------|
E|----------------------------------------------------------|

e|--15--13-13-13--15--12-12-12--13--10-10-10-10/12\10------------|
B|--17--15-15-15--17--13-13-13--15--12-12-12-12/13\12------------|
G|----------------------------------------------------14-12-14---|
D|----------------------------------------------------14-12-14---|
A|---------------------------------------------------------------|
E|---------------------------------------------------------------|

e|-------------------------------------------|
B|---------------------------13-15b17r15-----|
G|--0-12-0-12/14-0-12-0-12-14----------------|
D|--0-12-0-12/14-0-12------------------------|
A|-------------------------------------------|
E|-------------------------------------------|

e|--T--------T-------------------------------------------|
B|-17p10h13h17p10h13-T-------T---------------------------|
G|------------------16p9h12h17p9h12-T-------T-------T----|
D|---------------------------------16p9h12h17p9h12h16----|
A|-------------------------------------------------------|
E|-------------------------------------------------------|

e|---------------------------------------|
B|---------------------------------------|
G|---------------------------9/10\9*-----|
D|-----------------7-10-7-10-------------|
A|--------7-10-7-10----------------------|
E|--5-8-10-------------------------------|

e|---------------12-15/19\15-12-----------------|
B|-------------12--------------12---------------|
G|-----------12------------------12-------------|
D|---------14----------------------14-----------|
A|-------14--------------------------14---------|
E|--12h15------------------------------15-------|

e|-------15h19p15----------15h19p15------151515131313151515171715151313-12-|
B|-----16--------16------16--------16----171717151515171717181817171515-13-|
G|---17------------17--17------------17------------------------------------|
D|-17----------------17----------------------------------------------------|
A|-------------------------------------------------------------------------|
E|-------------------------------------------------------------------------|

i know its kinda crap but its better than nothing

Matt's solo  (this one's gonna be a bit easier)

e|----------------------12----12-17~-|
B|-------------10-15-10----14--------|
G|--------7-11-----------------------|
D|------9----------------------------|
A|----7------------------------------|
E|--5--------------------------------|

e|--19p15p12--15p12-----15p12-------------------------------------------|
B|----------19-----19p15-----19p15p12h15p12--19b20r19p17p15-------------|
G|---------------------------------------------------------14-16~~~-----|
D|----------------------------------------------------------------------|
A|----------------------------------------------------------------------|
E|----------------------------------------------------------------------|

e|--14p10--------------10h14p10------10h14/17p14----------14--|
B|-------12----------12--------12--12-----------15------15----|
G|---------11------11------------11---------------16--16------|
D|-----------12--12---------------------------------16--------|
A|-------------14---------------------------------------------|
E|------------------------------------------------------------|

those sweeps are a frickin bitch to tab:P

e|-19-19-19--17-17-17-17--14-14--17~~~~-----|
B|------------------------------------------|
G|-16-16-16--14-14-14-14--11-11--14---------|
D|------------------------------------------|
A|------------------------------------------|
E|------------------------------------------|

Now for the duel guitar.................attack!

here ive arranged it for one guitar but if theres two of u then i think they just play 
of the octaves each.

e|-5-7-8-8/12\10-8-10-12-12/17-15---|
B|----------------------------------|
G|-2-4-5-5/9-\7--5-7--9--9-/14-12---|
D|----------------------------------|
A|----------------------------------|
E|----------------------------------|

e|-5-7-8-8/12\10-8-10-12-12--20-19-17-15-13-12--15~~-------------------------|
B|---------------------------------------------------------------------------|
G|-2-4-5-5/9-\7--5-7--9--9---17-16-14-12-10-9---12~~--9*w\-------//----------|
D|----------------------------------------------------9*w\\-----//-----------|
A|--------------------------------------------------------\\---//------------|
E|---------------------------------------------------------\\-//-------------|
                                                             V

e|--------------------------X2-|---------------|
B|-----------------------------|---------------|
G|------4---5-----4---5--0~----|---------------|
D|------5---5-----5---5--0~----|----3~--5~-----|
A|--0-0---0---0-0---0----------|----3~--5~-----|
E|-----------------------------|----1~--3~-----|


e|--------------------------X2-|---------------|
B|-----------------------------|---------------|
G|------4---5-----4---5--0~----|---------------|
D|------5---5-----5---5--0~----|----3~--5~-----|
A|--0-0---0---0-0---0----------|----3~--5~-----|
E|-----------------------------|----1~--3~-----|

e|--------------------------X2-|---------------|
B|-----------------------------|---------------|
G|------4---5-----4---5--0~----|---------------|
D|------5---5-----5---5--0~----|----3~--5~-----|
A|--0-0---0---0-0---0----------|----3~--5~-----|
E|-----------------------------|----1~--3~-----|

e|--------------------------X2-|---------------|
B|-----------------------------|---------------|
G|------4---5-----4---5--0~----|---------------|
D|------5---5-----5---5--0~----|----3~--5~-----|
A|--0-0---0---0-0---0----------|----3~--5~-----|
E|-----------------------------|----1~--3~-----|

e|-----------------------------------------------------------------------|
B|-----------------------------------------------------------------------|
G|-----9----10-----7---9-----4h5p4\2-----9----10-----4-4-----2-----------|
D|-----10---10-----9---9-----5----\2-----10---10-----5-5-----3-----------|
A|-0-0----0----0-0---0---0-0---------0-0----0----0-0------------0-0---0--|
E|------------------------------------------------------------------3----|
 |
 |
e|-----------------------------------------------------------------------|
B|-----------------------------------------------------------------------|
G|-2---------------------------------2-----------------------------------|
D|-2---------------------------------2---------------5----------------2--|
A|-0---------------------------------0---------------5----------------0--|
E|---------------------------------------------------3-------------------|


e|-----------------------------------------------------------------------|
B|-----------------------------------------------------------------------|
G|-----9----10-----7---9-----4-5-4---------------------------------------|
D|-----10---10-----9---9-----5-5-5--3--------------5---------------------|
A|-0-0----0----0-0---0---0-0--------3--------------5---------------------|
E|----------------------------------1--------------3---------------------|
 |
 |
e|-----------------------------------------------------------------------|
B|-----------------------------------------------------------------------|
G|-----------------------------------------------------------------------|
D|-2---------------------------------------------------------------------|
A|-0--------------------------------3--------------5---------------------|
E|----------------------------------1--------------3---------------------|

e|-----------------------------------------------------------------------|
B|-----------------------------------------------------------------------|
G|-----9----10-----7---9-----4h5p4\2-----9----10-----4-4-----2-----------|
D|-----10---10-----9---9-----5----\2-----10---10-----5-5-----3-----------|
A|-0-0----0----0-0---0---0-0---------0-0----0----0-0------------0-0---0--|
E|------------------------------------------------------------------3----|
 |
 |
e|-----------------------------------------------------------------------|
B|-----------------------------------------------------------------------|
G|-2---------------------------------2-----------------------------------|
D|-2---------------------------------2---------------5----------------2--|
A|-0---------------------------------0---------------5----------------0--|
E|---------------------------------------------------3-------------------|


e|-----------------------------------------------------------------------|
B|-----------------------------------------------------------------------|
G|-----9----10-----7---9-----4-5-4---------------------------------------|
D|-----10---10-----9---9-----5-5-5--3--------------5---------------------|
A|-0-0----0----0-0---0---0-0--------3--------------5---------------------|
E|----------------------------------1--------------3---------------------|
 |
 |
e|-----------------------------------------------------------------------|
B|-----------------------------------------------------------------------|
G|-----------------------------------------------------------------------|
D|-2---------------------------------------------------------------------|
A|-0--------------------------------3--------------5---------------------|
E|----------------------------------1--------------3---------------------|

e|-----------------------------------------------------------------------|
B|-----------------------------------------------------------------------|
G|-----9----10-----7---9-----4h5p4\2-----9----10-----4-4-----2-----------|
D|-----10---10-----9---9-----5----\2-----10---10-----5-5-----3-----------|
A|-0-0----0----0-0---0---0-0---------0-0----0----0-0------------0-0---0--|
E|------------------------------------------------------------------3----|
 |
 |
e|-----------------------------------------------------------------------|
B|-----------------------------------------------------------------------|
G|-2---------------------------------2-----------------------------------|
D|-2---------------------------------2---------------5----------------2--|
A|-0---------------------------------0---------------5----------------0--|
E|---------------------------------------------------3-------------------|


e|-----------------------------------------------------------------------|
B|-----------------------------------------------------------------------|
G|-----9----10-----7---9-----4-5-4---------------------------------------|
D|-----10---10-----9---9-----5-5-5--3--------------5---------------------|
A|-0-0----0----0-0---0---0-0--------3--------------5---------------------|
E|----------------------------------1--------------3---------------------|
 |
 |
e|-----------------------------------------------------------------------|
B|-----------------------------------------------------------------------|
G|-----------------------------------------------------------------------|
D|-2---------------------------------------------------------------------|
A|-0--------------------------------3--------------5---------------------|
E|----------------------------------1--------------3---------------------|

e|-----------------------------------------------------------------------|
B|-----------------------------------------------------------------------|
G|-----9----10-----7---9-----4h5p4\2-----9----10-----4-4-----2-----------|
D|-----10---10-----9---9-----5----\2-----10---10-----5-5-----3-----------|
A|-0-0----0----0-0---0---0-0---------0-0----0----0-0------------0-0---0--|
E|------------------------------------------------------------------3----|
 |
 |
e|-----------------------------------------------------------------------|
B|-----------------------------------------------------------------------|
G|-2---------------------------------2-----------------------------------|
D|-2---------------------------------2---------------5----------------2--|
A|-0---------------------------------0---------------5----------------0--|
E|---------------------------------------------------3-------------------|


e|-----------------------------------------------------------------------|
B|-----------------------------------------------------------------------|
G|-----9----10-----7---9-----4-5-4---------------------------------------|
D|-----10---10-----9---9-----5-5-5--3--------------5---------------------|
A|-0-0----0----0-0---0---0-0--------3--------------5---------------------|
E|----------------------------------1--------------3---------------------|
 |
 |
e|-----------------------------------------------------------------------|
B|-----------------------------------------------------------------------|
G|-----------------------------------------------------------------------|
D|-2---------------------------------------------------------------------|
A|-0--------------------------------3--------------5---------------------|
E|----------------------------------1--------------3---------------------|

Now for the outro-solo

e|-----------------------------------|
B|-8b10r8p6-5~--5h6h8-12b13r12p10----|
G|--------------------------------9--|
D|-----------------------------------|
A|-----------------------------------|
E|-----------------------------------|

e|-----------------------------------------------------------------|
B|-----------------------------------9b10--------------------------|
G|-------7b7.5----7-7------7b7.5-----------9------7-7-7b8r7--------|
D|---7-10------10-----7h10------10p7---------10p7-----------10p7---|
A|-----------------------------------------------------------------|
E|-----------------------------------------------------------------|

                                          T           T           T
e|-17p15p12h17p15p12h17p15p12h17p15p12h17h22p15p12h17h22p15p12h17h22p17p15-|
B|-------------------------------------------------------------------------|
G|-------------------------------------------------------------------------|
D|-------------------------------------------------------------------------|
A|-------------------------------------------------------------------------|
E|-------------------------------------------------------------------------|

e|-----------------------12h17p15p12h17p15p12h17p15p12h17-22b24-22b24-22b24|
B|-15b17-15b17--15p13------------------------------------------------------|
G|--------------------14---------------------------------------------------|
D|-------------------------------------------------------------------------|
A|-------------------------------------------------------------------------|
E|-------------------------------------------------------------------------|

e|12h17p15p12h17p15p12h17p15p12h1712h17p15p12h17p15p12h17p15p12h17p12~~~~--|
B|-------------------------------------------------------------------------|
G|-------------------------------------------------------------------------|
D|-------------------------------------------------------------------------|
A|-------------------------------------------------------------------------|
E|-------------------------------------------------------------------------|

e|--------5h9/12\9p5-------------5h9/12\9p5---5h9/12\9p5-----5h9/12\9p5----|
B|-------5----------5-----------5----------5-5----------5---5----------5---|
G|------5------------5---------5------------5------------5-5------------5--|
D|-----7--------------7-------7---------------------------7--------------7-|
A|----7----------------7-----7---------------------------------------------|
E|-5h9------------------9p5h9----------------------------------------------|

e|--15b17-15b17r15---17~~~~~~~---|
B|-------------------------------|
G|-------------------------------|
D|-------------------------------|
A|-------------------------------|
E|-------------------------------|

"we are the fire!"


i will update it over time, if anyone has any comments or corrections then e-mail me and PLEASE RATE

| *  any type of harmonic. Like it sounds!:P
| /  slide up
| \  slide down
| h  hammer-on
| p  pull-off
| ~  vibrato
| +  harmonic
| x  Mute note
comments
print report bad tab
59 comments total. Showing first comments.
+1 reply
geetar_man0 wrote on September 14 2006, 04:39 am

dud nice tab on the solo but what happened to matts part????

+1 reply
geetar_man0 wrote on September 14 2006, 04:40 am

dude**

-1 reply
blsjunkieSDMF wrote on September 14 2006, 07:33 am

very nice solo!

I want to post or [tab]
guest
You may want to rate the tab now too:
select rating
Please do not post tabs as comments. Select "correction" instead!