Oops, an error
Loading. Please wait.

Anthem We Are The Fire Tab

ver3
ver3

Solo

Whole song

More versions @911Tabs.com
17,684 views 24 this week
23 commentsread comments
1 2 3 4 5
excellent!
x 18
add to favorites launch autoscroll
font size
0
reset
Autoscroll
+/-
esc
set tempo
stop
Contributor
Difficulty
Tabbers playing skills
intermediate
intermediate +
WARNING: You are trying to view
                                    content from Ultimate-Guitar.com
                                    in an unauthorized application,
                                    which is prohibited.

                                    Please use an official Ultimate
                                    Guitar Tabs application for iPhone,
                                    iPad or Android to access legitimate
                                    chords, guitar, bass, and drum tabs
                                    from Ultimate-Guitar.com database.

                                    Type "ultimate guitar tabs" in Apple
                                    App Store's or Android Market's
                                    search to find the application.
Written By: Ghost:o

Trivium - The Anthem (We are the Fire)

Intro/Chorus riff
e|-------------------------------------------------------------------------|
B|-------------------------------------------------------------------------|
G|---------9-----10--------7-----9--------4h5--4---2-------9-----10--------|
D|--------10-----10--------9-----9--------5h5--5---2------10-----10--------| 
A|--0--0------0------0--0-----0-----0--0-----------0---0------0------0--0--|
E|-------------------------------------------------------------------------|
PM-------     -      ----     -     ----               -      -      ----  

e|-------------------------|----------------------------------------|
B|-------------------------|----------------------------------------|
G|--4--4-----2-------------|---------9-----10--------7--------------|
D|--5--5-----3-------------|--------10-----10--------9--------------| 
A|--------0------0---0-----|--0--0------0------0--0-----------------|
E|-----------------------3-|----------------------------------------|
PM        -                   ----      -      ----|  

e|---------------------------------------------------|--------------------|
B|---------------------------------------------------|--------------------|
G|-----9--------4h5--4-------------------------------|---2----------------|
D|-----9--------5h5--5----3--------5-----------------|---2----5----3------| 
A|--0-----0--0------------3--------5-------0---0-----|---0----5----3------|
E|------------------------1--------3---------------3-|--------3----1------|
PM---     ----|

Intro solo
e|---BU----------BD-----------------------7-----(8)---(7)p5----------------|
B|--9(10)~~~~~~~~--(8)----6\5~~~~~~--5h6----BU-----------------------------|
G|-----------------------------------------------------------7~~~----------|
D|-------------------------------------------------------------------------| 
A|-------------------------------------------------------------------------|
E|-------------------------------------------------------------------------|

e|-----------------------------------BU-------8p5---5----------------------|
B|-------------------------BD-------8--10~~~------8---8p5-8p5---5----------|
G|--------5-----5--7b---(9)--(7)p5----------------------------7---7p5------|
D|--7--7-----7-------------------------------------------------------------| 
A|-------------------------------------------------------------------------|
E|-------------------------------------------------------------------------|

e|-------------------------------------------------------------------------|
B|----BU----------BD-------------------------------------------------------|
G|--7---(9)----(9)--(7)p5--------2-----------------------------------------|
D|-------------------------7~~~--2------5------1---------------------------| 
A|-------------------------------0------5------3---------------------------|
E|--------------------------------------3------3---------------------------|

e|-------------------------------------------------------------------------|
B|-------------------------------------------------------------------------|
G|--------------------------------------------------------4--4---3---5-----|
D|------------------------------------------3----7-------------------------| 
A|--5\3/5----------------------------5\5----3----5----7---2--2---5---7-----|
E|--7\5/7--5--5--5--5--5--5--5--5----7\3----1----5----0--------------------|
PM         ----------------------| 

Pre Chorus
e|-------------------------|----------------------|------------------------|
B|-------------------------|----------------------|------------------------|
G|--------------5--------5-|-----------5----------|----------5-------------|
D|--2-----4--------4-----5-|-----4--------4-------|----4--------4----------| 
A|--0--0-----0--------0----|--0-----0--------0--0-|-0-----0--------0--0----|
E|-------------------------|----------------------|------------------------|
PM     -     -        -       -     -        --------     -        ----| 

e|--------------------------|----------------------------------------------|
B|--------------------------|----------------------------------------------|
G|--------------------------|-----------5--------5-----------5-------------|
D|--5--5-----6-----7-----2--|-----4--------4-----5-----4--------4----------| 
A|--3--3--0--4--0--5--0--0--|--0-----0--------0-----0-----0--------0--0----|
E|--------------------------|----------------------------------------------|
PM        -     -     -        -     -        -     -     -        ----|

e|-------------------------------------------------------------------------|
B|-------------------------------------------------------------------------|
G|-------------------------------------------------------------------------|
D|--5----5--------6-------2------------------------------------------------| 
A|--3----3----0---4---0---0------------------------------------------------|
E|----------------------------3--------------------------------------------|
PM            -       -       -|
Solo
e|------------------------------------------------------------------|
B|------------------------------------------------------------------|
G|-----------------------------------------------12-14-16-----------|
D|--------------------12-14-15----------12-14-15----------12-14-15--| 
A|-----------12-14-15----------12-14-15-----------------------------|
E|--12-13-15--------------------------------------------------------|

e|--------------------------------BU----20------BD-----BD------------------|
B|--13-15-17-13---15-17-20--20--20-(22)-------20-(22)-----(20)p18--20--20\-|
G|-------------------------------------------------------------------------|
D|-------------------------------------------------------------------------| 
A|-------------------------------------------------------------------------|
E|-------------------------------------------------------------------------|

e|--15----------15----------15----------15---------------------------------|
B|-----15-15-15----13-13-13----12-12-12-----------------BU----BD-----------|
G|----------------------------------------14--12--14--14--(16)--(14)-------|
D|-------------------------------------------------------------------------| 
A|-------------------------------------------------------------------------|
E|-------------------------------------------------------------------------|

e|----------------------------------------------------8--10--12--10\~~---|
B|---------------------------------------10---10---12--------------------|
G|--12----BU--BD------------------9----9----9----------------------------|
D|------14-(15)-(14)--14~~~----10---10-----------------------------------| 
A|--------------------------12-------------------------------------------|
E|-----------------------------------------------------------------------|
PM                          -----   ----    -|  

e|--13-12-10-13p10---------------------------------------------------------|
B|-----------------13--10h12h13p12p10h12-x---------------------------------|
G|------------------------------------------9\7--7h9p7---------------------|
D|-----------------------------------------------------7h9h10p9\2~~--------| 
A|-------------------------------------------------------------------------|
E|----------------------------------------------------------------------/5-|

e|--------------------------------------------------8-12h17p12------12h17--|
B|------------------------------------------------10----------13--13-------|
G|--------------------------------10--9*---------9--------------14---------|
D|-----------------7--5--9--7--9---------------10--------------------------| 
A|--------5--7--8--------------------------12------------------------------|
E|--7--8-------------------------------------------------------------------|
PM---------------     ----------|                     

     T                   T 
e|--20p17p12------12h17-20p17p12-------------------------------------------|
B|----------13--13---------------18-18-18-18-17-17-17-17-18-18-18-18-20-20-|
G|------------14-----------------------------------------------------------|
D|-------------------------------------------------------------------------| 
A|-------------------------------------------------------------------------|
E|-------------------------------------------------------------------------|


e|-------------------------------------------------------------------------|
B|------------------------------------------------BU-----------------------|
G|-20-20-18-18-18-18-20-20-20-20-22-22-22-22-20-20(24)---------------------|
D|-------------------------------------------------------------------------| 
A|-------------------------------------------------------------------------|
E|-------------------------------------------------------------------------|

e|---------------------------------------14---14--19p14----------14h19p14--|
B|-------------------------------12---15----------------15----15-----------|
G|------------------------11--12---------------------------16--------------|
D|-----------------7--12---------------------------------------------------| 
A|----------9--10----------------------------------------------------------|
E|--7---10-----------------------------------------------------------------|

e|-----------14----------------BU------------------------------------------|
B|--15---15-------15---------18-(19)---------------------------------------|
G|--------------------16-------------19p18p17--17~~------------------------|
D|-----------------------16------------------------------------------------| 
A|-------------------------------------------------------------------------|
E|-------------------------------------------------------------------------|

e|--14p10--------------------10--14p10------10-17p14------14--19-19-19-17--|
B|-------12----------------12---------12--12--------15--15-----------------|
G|---------11------------11-------------11------------14-------------------|
D|-----------12--------12--------------------------------------------------| 
A|-------------14--9h14----------------------------------------------------|
E|-------------------------------------------------------------------------|

e|--17---/14~~~~----14----17------------------12---10~~~-----10--12--17~~~-|
B|-----------------------------10----12---13-------------13----------------|
G|-------------------------------------------------------------------------|
D|-------------------------------------------------------------------------| 
A|-------------------------------------------------------------------------|
E|-------------------------------------------------------------------------|

e|-15~~~~~~~~~~~~~----------------12---10~~~-----10---12/20--19~~~--17~~~~-|
B|-----------------------12---13-------------13----------------------------|
G|-----------------14------------------------------------------------------|
D|-------------------------------------------------------------------------| 
A|-------------------------------------------------------------------------|
E|-------------------------------------------------------------------------|

e|-------------------------------------------------------------------------|
B|--20---18---17---17~~~~~~~~~---20~~~~~~~~~~~~~~~~~~----------------------|
G|-------------------------------------------------------------------------|
D|-------------------------------------------------------------------------| 
A|-------------------------------------------------------------------------|
E|-------------------------------------------------------------------------|

Breakdown
e|-------------------------------------------0-----------------------------|
B|-------------------------------------------0-----------------------------|
G|---------9----10-------7----9-------4h5-4--4---------9----10----7-----9--|
D|--------10----10-------9----9-------5h5-5--5--------10----10----9-----9--| 
A|--0--0-----0-----0--0----0----0--0------------0--0-----0-----0-----0-----|
E|-------------------------------------------------------------------------|
PM------     -     ----    -    ----            ----     -     -     -   

e|-----------------------------------------------------------|
B|-------------------------1----3----------3-----------------|
G|--------4h5-4------------2----4----------4-----------------|
D|--------5h5-5------------3----5----------5-----------------| 
A|--0--0--------------3---------3-----5----------------------|
E|---------------1--------------3----------------------------|

Outro Solo
e|--------BD--------------------------7-------(8)--(8)------(7)------------|
B|--(10)------(8)---6\5--5~~~~---5h6-----BU-------------BD-------7~~~~~~---|
G|-------------------------------------------------------------------------|
D|-------------------------------------------------------------------------| 
A|-------------------------------------------------------------------------|
E|-------------------------------------------------------------------------|

e|------------------------------------------------BU------------------|
B|---------------------------------BD-----BD-----8-(10)-------5---5---|
G|-----------5-------5---7¼----(9)----(7)----(5)--------5--5----------|
D|---7---7-------7----------------------------------------------------| 
A|--------------------------------------------------------------------|
E|--------------------------------------------------------------------|

e|-----------BD----BD------8-(10)----------17---17p20h17--17p20h17-----|
B|--8----(10)---(8)---(5)---BU------/20-----------------20--------20---|
G|---------------------------------------------------------------------|
D|---------------------------------------------------------------------| 
A|---------------------------------------------------------------------|
E|---------------------------------------------------------------------|

e|--17p20h17--17---20p17--22p17---------------------BU---------------------|
B|------------------------------20--22p2017--20p17-20(22)(22)-20p17-20p17--|
G|-------------------------------------------------------------------------|
D|-------------------------------------------------------------------------| 
A|-------------------------------------------------------------------------|
E|-------------------------------------------------------------------------|

e|----------------------------------------------------------------------17-|
B|-------------------------------BU--------BD--------------------BU--------|
G|--19p17-19--19¼--(20)--(21)--19-(21)-(21)--(19)p17----------17----19-----|
D|---------------------------------------------------19~~~~~---------------| 
A|-------------------------------------------------------------------------|
E|-------------------------------------------------------------------------|

e|------------17--------------------17--------20----(22)~~~~--20--20p17----|
B|------BU---------20p17----BU---------20p17-----BU---------------------20-|
G|----17(19)--------------19--(21)-----------------------------------------|
D|-------------------------------------------------------------------------| 
A|-------------------------------------------------------------------------|
E|-------------------------------------------------------------------------|

e|--17------------------------------------------------|
B|-----20p17-20p17----17----------BU------------------|
G|-----------------19----19p17--19(21)-19-17----------|
D|-------------------------------------------19\------| 
A|----------------------------------------------------|
E|----------------------------------------------------|

e|-------------12-17p12----------------------12-17p12---------------|
B|-----------13----------13----------------13--------13-------------|
G|---------14--------------14------------14------------14-----------|
D|-------14------------------14--------14----------------14---------| 
A|--12h15----------------------15-12h15--------------------15-12~~--|
E|------------------------------------------------------------------|

e|--15(17)-----(17)----15----15(17)-------------------|
B|-- BU------------------------BU---------------------|
G|----------------------------------------------------|
D|----------------------------------------------------| 
A|----------------------------------------------------|
E|----------------------------------------------------|
| /  slide up			| \  slide down
| h  hammer-on		        | p  pull-off
| ~  vibrato			| x  Mute note
| BU Bend up			| BD Bend down
| ¼  ¼ bend			| T  Tap
comments
print report bad tab
23 comments total. Showing first comments.
0 reply
Dimebag_abbott wrote on January 13 2007, 07:19 am

correct, but i you copied it from Total Guitar, so you should notify that

0 reply
HerVoiCeResIdEs wrote on January 13 2007, 11:11 am

good...copied from Guitar One as well...just give credit when it's not yours

0 reply
Ghost:o wrote on January 13 2007, 04:30 pm

never said i did it, i put "written by" not "tabbed by" and it dosent say i didnt do it because im sure people dont want that printed out, i just put the tab, no added bits.

I want to post or [tab]
guest
You may want to rate the tab now too:
select rating
Please do not post tabs as comments. Select "correction" instead!