Oops, an error
Loading. Please wait.

Ascendancy Tab

ver1
ver1

Album

Solo

Whole song

More versions @911Tabs.com
29,515 views 51 this week
14 commentsread comments
1 2 3 4 5
accurate
x 14
Autoscroll
+/-
esc
set tempo
stop
Contributor
Tuning
D A D G B E
WARNING: You are trying to view
                                    content from Ultimate-Guitar.com
                                    in an unauthorized application,
                                    which is prohibited.

                                    Please use an official Ultimate
                                    Guitar Tabs application for iPhone,
                                    iPad or Android to access legitimate
                                    chords, guitar, bass, and drum tabs
                                    from Ultimate-Guitar.com database.

                                    Type "ultimate guitar tabs" in Apple
                                    App Store's or Android Market's
                                    search to find the application.
-----------------------------------------------------------------------
		        Ascendancy Album - Trivium
-----------------------------------------------------------------------
Tabbed by: Nuums aka. Oscar
Email: nuums_41@hotmail.com

Tuning: Drop D All the way


Hey, saw that no-one had posted any Trivium album tabs yet, so I thought I'd do it. I 
tabbed any of these myself, so

I'm just mixing together the best tabs of each song on the album.

The credit goes to:

Rain: bassest123
Pull Harder on the Strings of your Martyr: Gu1T@r_H3r0
Drowned and Torn Asunder: skotyb
Ascendancy: Freaking Out
A Gunshot to the Head of Trepidation: Haunted_Devil, solo: [Unregistered]
Like Light to Flies: [Unregistered]
Dying in your Arms: super_cheetham, solo: dagget
The Decieved: geetar_man0
Suffocating Sight: DFTSme
Departure: sam b
Decleration: Clownmite


                         -----------------------------
                         |           Rain            |
                         -----------------------------


Intro / Verse
|-------------------|-----------------------| -----------------------)
|-------------------|-----------------------|                        )
|-------------------|-----------------------|                        )
|-------------------|-----------------------|                        )
|-5---------6-3-----|-----------------------|                        )
|---0-0-0-0-----0-0-|-0-0-0-0-0-0-0-0-0-0-0-|                        )
                                                                    X4
|-------------------|-----------------------|                        )
|-------------------|-----------------------|                        )
|-------------------|-----------------------|                        )
|-----------5-4-----|-----------------------|                        )
|-5-----------------|-----------------------|                        )
|---0-0-0-0-----0-0-|-0-0-0-0-0-0-0-0-0-0-0-|------------------------)

|-------------------|--------------------|
|-------------------|--------------------|
|-------------------|--------------------|only play this bit on the 4th time
|-----------5-4-----|--------------------|
|-5-----------------|-6-8---8--6----5-6--|
|---0-0-0-0-----0-0-|-----0-------0------|

Repeat the verse another 4 times

Chorus (with no singing)
|------------------|------------------|------------------|------------------|
|-7--7s8-(8)---7-8-|-10--8---7---8----|-7--7s8-(8)---7-8-|-10--8---7---8----|
|------------------|------------------|------------------|------------------|
|-4--4s5-(5)---4-5-|--7--5---4---5----|-4--4s5-(5)---4-5-|--7--5---4---5----|
|------------------|------------------|------------------|------------------|
|------------------|------------------|------------------|------------------|

 Verse X4

Pre-Chorus Repeat Twice
Guitar 1
|-----------------|-------------------|----------------|------------------|
|-----------------|-------------------|----------------|------------------|
|-----------------|-------------------|----------------|------------------|
|-----------------|-------------------|----------------|------------------|
|-5-----3-----5---|-------8---7---5-7-|-------5-----7--|-----8---7---7h8--|
|---0-0---0-0---0-|--0--0---0---0-----|-8-8-8---8-8----|-5-5---5---5------|

Guitar 2
|-----------------|-------------------|----------------|------------------|
|-----------------|-------------------|----------------|------------------|
|-----------------|-------------------|-3--------------|------------------|
|-0---------------|-(0)---------------|-3--------------|-5----------------|
|-0---------------|-(0)---------------|-1--------------|-5----------------|
|-0---------------|-(0)---------------|----------------|-5----------------|


|-------------------|--------------------|
|-------------------|--------------------|
|-------------------|--------------------|
|-------------------|--------------------|
|-12-----10---------|-----12---13---12---|
|----8-8----8-8-8-8-|-8-8----8----8------|

|-------------------------|-------------------|
|-------------------------|-------------------|
|-------------------------|-------------------|
|-------------------------|-8-7-5---7---------|
|-12-------10-------------|-------6---10-6-5--|
|----10-10----10-10-10-10-|-------------------|


Chorus Repeat Twice
||-------------------|------------------|
||o-7--7s8-(8)---7-8-|-10--8---7---8----|
||-------------------|------------------|
||--4--4s5-(5)---4-5-|--7--5---4---5----|
||o------------------|------------------|
||-------------------|------------------|


|------------------|--------------------||
|-7--7s8-(8)---7-8-|-10--8---7---8-----o||
|------------------|--------------------||
|-4--4s5-(5)---4-5-|--7--5---4---5------||
|------------------|-------------------o||
|------------------|--------------------||

-----------------------------------------------------------------------------
       REPEAT EVERY THING ABOVE AGAIN EXEPT CHORUS WITH NO SINGING
----------------------------------------------------------------------------

Interlude

Guitar 1
|-----------|-------------||---------------|----------------||
|-----------|-------------||o--------------|---------------o||
|-10--------|-(10)--------||--10----5---3--|-7----14--12----||
|-----------|-------------||---------------|----------------||
|--8--------|--(8)--------||o--8----3---1--|-5----12--10---o||
|-----------|-------------||---------------|----------------||

Guitar 2
|-----------|-------------||---------------|----------------||
|-----------|-------------||o--------------|---------------o||
|--7--------|--(7)--------||---7----9--10--|-3----10---9----||
|-----------|-------------||---------------|----------------||
|--5--------|--(5)--------||o--5----7---8--|-1-----8---7---o||
|-----------|-------------||---------------|----------------||


Guitar1
|--------------------------------|------------------------------------------|
|--------------------13----------|------------------------------------------|
|----14----15-----15----15----12-|------14----15----------------------------|
|-------12----12-----------10----|---------12----12----15-14----17-15-------|
|--------------------------------|------------------13-------13-------13-17-|
|--------------------------------|------------------------------------------|

|----------------------------------|----------------------------------------|
|----------------------13----------|----------------------------------------|
|-----14----15------15----15----12-|----14----15----------------------------|
|--------12----12------------10----|-------12----12----15-14----17-15-------|
|----------------------------------|----------------13-------13-------13-17-|
|----------------------------------|----------------------------------------|

Guitar 2 second time only
|----------------------------------|----------------------------------------|
|----------------------------------|----------------------------------------|
|--7--------------9----10----------|-3--------------10-----------9----------|
|----------------------------------|----------------------------------------|
|--5--------------7-----8----------|-1---------------8-----------7----------|
|----------------------------------|----------------------------------------|


Guitar 2 When Singing starts
||-------------------------------------------|
||o------------------------------------------|
||-------------------------------------------|
||-------------------------------------------|
||o-0-0-0-0-------------0-0-0----------------|
||--0-0-0-0-------------0-0-0----------------|

|--------------------------------------------|
|-------------------------------------------o|
|--------------------------------------------|
|--------------------------------------------|
|-0-0-0-0--------------0--0--------0--0-----o|
|-0-0-0-0--------------0--0--------0--0------|


|-------------------------------------------|
|-------------------------------------------|
|-9-9-9-9-9-9-9-9-0-10-10-10-10-10----------|
|-------------------------------------------|
|-7-7-7-7-7-7-7-7-8-8-8-8-8-8-8-8-----------|
|-------------------------------------------|

|---------------------------------------------------|
|---------------------------------------------------|
|-12-12-12-12-12-12-12-12--14-14-14-14-14-14-14-14--|
|---------------------------------------------------|
|-10-10-10-10-10-10-10-10--12-12-12-12-12-12-12-12--|
----------------------------------------------------|


Guitar Solo
  N.C.
|----------------|-----------------|-------------|
|----------------|-----------------|-------------|
|-5pb7r5---------|-5pb7r5----------|--5-------5--|
|--------7-------|--------7--------|------7------|
|----------8-----|----------7--8---|-------------|
|----------------|-----------------|-------------|

|------------------------------------------------|
|-------------------10----------------13---------|
|------------------------------------------------|
|------------------------------------------------|
|------------------------------------------------|
|------------------------------------------------|

|-----------12----12b13---(12)-|-12r-12-------------------------------------|
|-13b15-13r----15--------------|-------15-----------------------------------|
|------------------------------|----------14--------------------------------|
|------------------------------|------------14-15-15b17--r15-14-12-15-14-17-|
|------------------------------|--------------------------------------------|
|------------------------------|--------------------------------------------|

|-------17-15-13------------------------------------|
|----------------17-15-13---------------------------|
|-------------------------16-14-13------------------|
|-15-19----------------------------16-14-13-15-19---|
|---------------------------------------------------|
|---------------------------------------------------|

|------------------------------------------|
|------------------------------------------|
|------------------------------------------|
|------------------------------------------|
|------------------------------------------|
|-0-0-0-0-0-0-0-0-1-0-0-0-0-0-0-0-0-0-1-0--|

|----------------------------------------------|
|----------------------------------------------|
|--------------------------------------------5-|
|------------------------------8-----------8---|
|----------------------5---6-----6-5---6-------|
|-0-0-0-0-0-0-0-0-1-0--------------------------|

End On

|----------|
|----------|
|----------|
|-0--------|
|-0--------|
|-0--------|


              -------------------------------------------------
              |   Pull Harder on the Strings of your Martyr   |
              -------------------------------------------------


Intro
Gtr.1 + 2
e||-----------------------------------------------------------------------||
B||-----------------------------------------------------------------------||
G||-----------------------------------------------------------------------||
D||-7---------------7-8---------------8-8----------------8-7--------------||
A||-5---------------5-5---------------5-6----------------6-7--------------||
D||---0000000000000-----0000000000000-----55555555555555-----777777777777-||
PM    .............     .............     ..............     ............

Gtr.1
e||-----------------|-----------------|-----------------|-----------------||
B||-----------------|-----------------|-----------------|-----------------||
G||-15-14-14-12-12--|-12--------------|-15-14-14-17-17--|-12-12\14--------||
D||-x--x--x--x--x---|-x---------------|-x--x--x--x--x---|-x--x--x---------||
A||-13-12-12-10-10--|-10--------------|-13-12-12-15-15--|-10-10\12--------||
D||-----------------|-----------------|-----------------|-----------------||

Gtr.2
e||-----------------|-----------------|-----------------|-----------------||
B||-----------------|-----------------|-----------------|-----------------||
G||-----------------|-----------------|-----------------|-----------------||
D||-----------------|-----------------|-----------------|-----------------||
A||-0-0-0-0-0-0-0-0-|-0-0-0-0-0-0-0-0-|-6-6-6-6-6-6-6-6-|-7-7-7-7-7-7-7-7-||
D||-0-0-0-0-0-0-0-0-|-0-0-0-0-0-0-0-0-|-5-5-5-5-5-5-5-5-|-7-7-7-7-7-7-7-7-||

Verse
Gtr.1 + 2
e||-----------------------------------------------------------------------||
B||-----------------------------------------------------------------------||
G||-----------------------------------------------------------------------||
D||-7---------------7-8---------------8-8----------------8-7--------------||
A||-5---------------5-5---------------5-6----------------6-7--------------||
D||---0000000000000-----0000000000000-----55555555555555-----777777777777-||
PM    .............     .............     ..............     ............

---

Pre Chorus
Gtr.1
e||----------------------------------------------||
B||----------------------------------------------||
G||----------14-14-14-14---------12-12-12-12-12--||
D||-0-1-0-0--x--x--x--x---0-1-0--x--x--x--x--x---||x2
A||-0-1-0-0--12-12-12-12--0-1-0--10-10-10-10-10--||
D||-0-1-0-0---------------0-1-0------------------||

Gtr.2
e||---------------------------------------||
B||---------------------------------------||
G||---------------------------------------||
D||-0-1-0-0---------------0-1-0-----------||x2
A||-0-1-0-0---------------0-1-0-----------||
D||-0-1-0-0---------------0-1-0-----------||

Gtr.1
e|---------------------------------------------|
B|---------------------------------------------|
G|----------14-14-14-14-----------12-12-12-12--|
D|-7-8-8-8--x--x--x--x---7-8-8-8--x--x--x--x---|
A|-7-8-8-8--12-12-12-12--7-8-8-8--10-10-10-10--|
D|-7-8-8-8---------------7-8-8-8---------------|

Gtr.2
e|----------------------------------------|
B|----------------------------------------|
G|----------------------------------------|
D|-7-8-8-8---------------7-8-8-8----------|
A|-7-8-8-8---------------7-8-8-8----------|
D|-7-8-8-8---------------7-8-8-8----------|

Gtr.1
e|------------------------------------------------|
B|------------------------------------------------|
G|----------14-14-14-14--------------12-12-12-12--|
D|-7-8-8-8--x--x--x--x---7-10-10-10--x--x--x--x---|
A|-7-8-8-8--12-12-12-12--7-10-10-10--10-10-10-10--|
D|-7-8-8-8---------------7-10-10-10---------------|

Gtr.2
e|-----------------------------------------------|
B|-----------------------------------------------|
G|-----------------------------------------------|
D|-7-8-8-8---------------7-10-10-10--------------|
A|-7-8-8-8---------------7-10-10-10--------------|
D|-7-8-8-8---------------7-10-10-10--------------|

---

Harmonisation

Gtr.1
e||-------------------------------------------||
B||-------------------------------------------||
G||----------14-14-14-14---------12-12-12-12--||
D||-0-1-0-0--x--x--x--x---0-1-0--x--x--x--x---||x2
A||-0-1-0-0--12-12-12-12--0-1-0--10-10-10-10--||
D||-0-1-0-0---------------0-1-0---------------||

Gtr.2
e||-------------------------------------------||
B||-------------------------------------------||
G||----------10-10-10-10---------9--9--9--9---||
D||-0-1-0-0--x--x--x--x---0-1-0--x--x--x--x---||x2
A||-0-1-0-0--8--8--8--8---0-1-0--7--7--7--7---||
D||-0-1-0-0---------------0-1-0---------------||


Gtr.1
e|---------------------------------------------|
B|---------------------------------------------|
G|----------14-14-14-14-----------12-12-12-12--|
D|-7-8-8-8--x--x--x--x---7-8-8-8--x--x--x--x---|
A|-7-8-8-8--12-12-12-12--7-8-8-8--10-10-10-10--|
D|-7-8-8-8---------------7-8-8-8---------------|

Gtr.2
e|----------------------------------------------|
B|----------------------------------------------|
G|----------10-10-10-10-------------12-12-12-12-|
D|-7-8-8-8--x--x--x--x---7-10-10-10-x--x--x--x--|
A|-7-8-8-8--8--8--8--8---7-10-10-10-10-10-10-10-|
D|-7-8-8-8---------------7-10-10-10-------------|

---

Chorus
Gtr.1
e|----------------|----------------------|-------------------------|-----------------|
B|-------6--------|----------------------|-------------------------|-----------------|
G|-------7--------|--------------------5-|-------------------------|-----------------|
D|-0--0--7--------|-5----5-7-5---5-7-5---|-10-10-10-10-10-10-10-10-|-7-7-7-8-8-8-7-7-|
A|-0--0--5---7----|---8--------8---------|-8--8--8--8--8--8--8--8--|-5-5-5-5-5-5-5-5-|
D|-0--0----x---8b-|----------------------|-8--8--8--8--8--8--8--8--|-5-5-5-5-5-5-5-5-|

Gtr.2
e|------------------|------------------------|-------------------------|-----------------|
B|------------------|------------------------|-------------------------|-----------------|
G|-------10---------|-12--10-----------------|-------------------------|-----------------|
D|-0--0--x----10----|-x---x--------------5-7-|-8--8--8--8--8--8--8--8--|-5-5-5-5-5-5-5-5-|
A|-0--0--8----8-----|-10--8--7-8-7-5-7-8-----|-8--8--8--8--8--8--8--8--|-5-5-5-5-5-5-5-5-|
D|-0--0-----x----10-|------------------------|-8--8--8--8--8--8--8--8--|-5-5-5-5-5-5-5-5-|

---

Gtr.1
e|---------------|----------------------|-----------------|--------------------------------------|
B|-------6-------|----------------------|-----------------|-------------8-11---------------11-14-|
G|-------7-------|--------------------5-|-----------------|---------6-9---------------9-12-------|
D|-0--0--7-------|-5----5-7-5---5-7-5---|-----------------|-----5-8--------------8-11------------|
A|-0--0--5--7----|---8--------8---------|-3-3-3-3-3-3-3-3-|-4-7-------------7-10-----------------|
D|-0--0-------8b-|----------------------|-3-3-3-3-3-3-3-3-|--------------------------------------|
PM                                                         . . . . . .     . . .  .

Gtr.2
e|------------------|------------------------|-----------------|-------------------------|
B|------------------|------------------------|-----------------|-------------------------|
G|-------10---------|-12--10-----------------|-----------------|-------------------------|
D|-0--0--x----10----|-x---x--------------5-7-|-3-3-3-3-3-3-3-3-|-3--3--3--3--3--3--3--3--|
A|-0--0--8----8-----|-10--8--7-8-7-5-7-8-----|-3-3-3-3-3-3-3-3-|-4--4--4--4--4--4--4--4--|
D|-0--0-----x----10-|------------------------|-3-3-3-3-3-3-3-3-|-3--3--3--3--3--3--3--3--|

Repeat all of the above from the verse, playing the Chorus twice on the repeat.

---

Breakdown section
Gtr.1
e|--------------------------------|---------------------------------|
B|--------------------------------|---------------------------------|
G|--------------------------------|---------------------------------|
D|-----------------7-----5--------|---------------------------------|
A|-----5-----8-----------------8--|-----5-----8-----5p0-7p0-8p0-5p0-|
D|-0-0---0-0---0-0---0-0---0-0----|-0-0---0-0---0-0-----------------|
PM . .   . .   . .    . .    . .     . .   . .   . .

Gtr.2
e|---------------------------------|---------------------------------|
B|---------------------------------|---------------------------------|
G|---------------------------------|-----------------10--12--14--9---|
D|-0-------------------------------|-----------------x---x---x---x---|
A|-0-------------------------------|-----------------8---10--12--7---|
D|-0-------------------------------|---------------------------------|

Gtr.1
e|---------------------------------|---------------------------------|
B|---------------------------------|---------------------------------|
G|---------------------------------|---------------------------------|
D|-----------3-----5-----3-----2*--|-----------3-----2---------------|
A|-1-1-4-1-1---1-1---1-1---1-1-----|-1-1-4-1-1---1-1-0---------------|
D|---------------------------------|---------------------------------|

Gtr.2
e|---------------------------------|--------------------------------|
B|---------------------------------|--------------------------------|
G|---------------------------------|--------------------------------|
D|-8-------------------------------|----------------7---------------|
A|-8-------------------------------|----------------7---------------|
D|-8-------------------------------|----------------7---------------|

---

Gtr.1
e|--------------------------------|---------------------------------|
B|--------------------------------|---------------------------------|
G|--------------------------------|---------------------------------|
D|-----------------7-----5--------|---------------------------------|
A|-----5-----8-----------------8--|-----5-----8-----5p0-7p0-8p0-7p0-|
D|-0-0---0-0---0-0---0-0---0-0----|-0-0---0-0---0-0-----------------|
PM . .   . .   . .    . .    . .     . .   . .   . .


Gtr.2
e|--------------------------------|----------------------------------|
B|--------------------------------|----------------------------------|
G|--------------------------------|----------------------------------|
D|--------------------------------|----------------------------------|
A|-0-0---0-0---0-0----------------|-----0------0-----0-0-0-0-0-0-0-0-|
D|-0-0---0-0---0-0----------------|-----0------0-----0-0-0-0-0-0-0-0-|

Gtr.1
e|--------------------------------|-----------------------------------|
B|--------------------------------|-----------------------------------|
G|--------------------------------|-----------------------------------|
D|-----------3-----5-----3-----2*-|-----------3-----------------------|
A|-1-1-4-1-1---1-1---1-1---1-1----|-1-1-4-1-1---1-1--10p0-8p0-7p0-4p0-|
D|--------------------------------|-----------------------------------|

Gtr.2
e|--------------------------------|----------------------------------|
B|--------------------------------|----------------------------------|
G|--------------------------------|----------------------------------|
D|--------------------------------|----------------------------------|
A|-8-8---8-8---8-8----------------|-----8------8-----7-7-7-7-7-7-7-7-|
D|-8-8---8-8---8-8----------------|-----8------8-----7-7-7-7-7-7-7-7-|

Gtr.1
e|--------------------------------|---------------------------------|
B|--------------------------------|---------------------------------|
G|--------------------------------|---------------------------------|
D|-----------------7-----5--------|---------------------------------|
A|-----5-----8-----------------8--|-----5-----8-----5p0-7p0-8p0-5p0-|
D|-0-0---0-0---0-0---0-0---0-0----|-0-0---0-0---0-0-----------------|
PM . .   . .   . .    . .    . .     . .   . .   . .


Gtr.2
e|--------------------------------|----------------------------------|
B|--------------------------------|----------------------------------|
G|--------------------------------|----------------------------------|
D|--------------------------------|----------------------------------|
A|-0-0---0-0---0-0----------------|-----0------0-----0-0-0-0-0-0-0-0-|
D|-0-0---0-0---0-0----------------|-----0------0-----0-0-0-0-0-0-0-0-|

Gtr.1
e|--------------------------------|-----------------------------------|
B|--------------------------------|-----------------------------------|
G|--------------------------------|-----------------------------------|
D|-----------3-----5-----3-----2*-|-----------3-----------------------|
A|-1-1-4-1-1---1-1---1-1---1-1----|-1-1-4-1-1---1-1--10p0-8p0-7p0-4p0-|
D|--------------------------------|-----------------------------------|

Gtr.2
e|--------------------------------|----------------------------------|
B|--------------------------------|----------------------------------|
G|--------------------------------|----------------------------------|
D|--------------------------------|----------------------------------|
A|-8-8---8-8---8-8----------------|-----8------8-----7-7-7-7-7-7-7-7-|
D|-8-8---8-8---8-8----------------|-----8------8-----7-7-7-7-7-7-7-7-|

---

Gtr.1
e|--------------------------------|---------------------------------|
B|--------------------------------|---------------------------------|
G|--------------------------------|---------------------------------|
D|-----------------7-----5--------|---------------------------------|
A|-----5-----8-----------------8--|-----5-----8-----5p0-7p0-8p0-5p0-|
D|-0-0---0-0---0-0---0-0---0-0----|-0-0---0-0---0-0-----------------|
PM . .   . .   . .    . .    . .     . .   . .   . .

Gtr.2
e|--------------------------------|-----------------------------------|
B|--------------------------------|-----------------------------------|
G|--------------------------------|-----------------------------------|
D|-----------------7-----5--------|-----------------------------------|
A|-----5-----8-----------------8--|-----5-----8-----8p0-10p0-12p0-7p0-|
D|-0-0---0-0---0-0---0-0---0-0----|-0-0---0-0---0-0-------------------|
PM . .   . .   . .    . .    . .     . .   . .   . .

Gtr.1
e|--------------------------------|-----------------------------------|
B|--------------------------------|-----------------------------------|
G|--------------------------------|-----------------------------------|
D|-----------3-----5-----3-----2*-|-----------3-----------------------|
A|-1-1-4-1-1---1-1---1-1---1-1----|-1-1-4-1-1---1-1--10p0-8p0-7p0-4p0-|
D|--------------------------------|-----------------------------------|

Gtr.2
e|--------------------------------|-------------------------------------|
B|--------------------------------|-------------------------------------|
G|--------------------------------|-------------------------------------|
D|-----------3-----5-----3-----2*-|-----------3-------------------------|
A|-1-1-4-1-1---1-1---1-1---1-1----|-1-1-4-1-1---1-1--13p0-12p0-10p0-7p0-|
D|--------------------------------|-------------------------------------|

---

Gtr.1
e|--------------------------------|---------------------------------|
B|--------------------------------|---------------------------------|
G|--------------------------------|---------------------------------|
D|-----------------7-----5--------|---------------------------------|
A|-----5-----8-----------------8--|-----5-----8-----5p0-7p0-8p0-5p0-|
D|-0-0---0-0---0-0---0-0---0-0----|-0-0---0-0---0-0-----------------|
PM . .   . .   . .    . .    . .     . .   . .   . .

Gtr.2
e|--------------------------------|-----------------------------------|
B|--------------------------------|-----------------------------------|
G|--------------------------------|-----------------------------------|
D|-----------------7-----5--------|-----------------------------------|
A|-----5-----8-----------------8--|-----5-----8-----8p0-10p0-12p0-7p0-|
D|-0-0---0-0---0-0---0-0---0-0----|-0-0---0-0---0-0-------------------|
PM . .   . .   . .    . .    . .     . .   . .   . .

Gtr.1
e|--------------------------------|-----------------------------------|
B|--------------------------------|-----------------------------------|
G|--------------------------------|-----------------------------------|
D|-----------3-----5-----3-----2*-|-----------3-----------------------|
A|-1-1-4-1-1---1-1---1-1---1-1----|-1-1-4-1-1---1-1--10p0-8p0-7p0-4p0-|
D|--------------------------------|-----------------------------------|

Gtr.2
e|--------------------------------|------------------------------------|
B|--------------------------------|------------------------------------|
G|--------------------------------|------------------------------------|
D|-----------3-----5-----3----2*--|-----------3------------------------|
A|-1-1-4-1-1---1-1---1-1---1-1----|-1-1-4-1-1---1-1-13p0-12p0-10p0-7p0-|
D|--------------------------------|------------------------------------|


Solo
HEAFY
e|--------------------|--------------------------------------|
B|--------------------|-----5-----5--6--5--6--8--6--5-----5--|
G|--6b-------7~-------|--7-----7-----------------------7-----|
D|--------------------|--------------------------------------|
A|--------------------|--------------------------------------|
D|--------------------|--------------------------------------|

e|-----------------------|-----------------------|
B|-----------------------|-----------------------|
G|--6b-----6-7--------6b-|--6b-----6-7-----------|
D|-------------8---------|-------------8----8----|
A|-----------------------|-----------------------|
D|-----------------------|-----------------------|

e|-----------------------------------------|
B|-----------------------------------------|
G|----------------------9-10-9----9--------|
D|-------7----7-10-7-10--------10---10-7---|
A|--8-10---10----------------------------8-|
D|-----------------------------------------|

e|----------10h12-13-12-----------------|----------------------------------|
B|----------------------13--------------|----------------------------------|
G|-------------------------10-9~--------|------6---6b-7b-6---6-------------|
D|--7-----------------------------------|--7-8---7---------8---8-7-5-------|
A|----8-7-8------------------------7~---|----------------------------8-7-5-|
D|--------------------------------------|----------------------------------|

e|--------------------------------------------------|
B|--------------------------------------6-7---------|
G|--------------------6-7-6-------6-7-9-----7-6-7-9-|
D|--------------5-7-8-------8-7-8-------------------|
A|--4-5-7-5-7-8-------------------------------------|
D|--------------------------------------------------|

This bit sounds cool with the two guitars.
Harmony - Heafy
e|--13~-------13------------------|--------------------------------------|
B|---------15----15---------------|--------------------------------------|
G|------------------14------14-14-|--14~-----12-14-15--14-12-14-12----14-|
D|--------------------------------|--------------------------------15----|
A|--------------------------------|--------------------------------------|
D|--------------------------------|--------------------------------------|

Harmony - Beaulieu
e|--------------------------------|--------------------------------------|
B|--15~-------15------------------|--------------------------------------|
G|---------14----14---------------|--------------------------------------|
D|------------------15------15-15-|--15~-----14-15-17--15-14-15-14----15-|
A|--------------------------------|--------------------------------17----|
D|--------------------------------|--------------------------------------|

Beaulieu
e|-------------------------------------17-------------15-------|
B|----------------------------15h17-18----18-17p15h17----17-15-|
G|-------7h10p7---------7h9p7----------------------------------|
D|--8h10--------10p8h10----------------------------------------|
A|-------------------------------------------------------------|
D|-------------------------------------------------------------|

e|-----------17----------------15----------------15-------17-------11-10----------|
B|--15h17-18----18-17-15-17-18----18-17-15-17-18----18-17----17-16-------14-13-12-|
G|--------------------------------------------------------------------------------|
D|--------------------------------------------------------------------------------|
A|--------------------------------------------------------------------------------|
D|--------------------------------------------------------------------------------|

e|----------------------------------------------|
B|----------------------------------------------|
G|--10~-----------------------5h7p5-----------5-|
D|--------7h8p7-------------7-------8p7p5-7h8---|
A|--------------10p8p7-8h10---------------------|
D|----------------------------------------------|

e|------------------------------------------------|
B|--------------------5-6-5-----------------------|
G|--7-9-7-5-------5-7-------7-5------9-10-12b-----|
D|----------8-7-8---------------8-12--------------|
A|------------------------------------------------|
D|------------------------------------------------|

e|--6p3-------3-9p6---------------------12p9---------9-|
B|------5-2-5-------8-5-8-7-6-5--------------11-8-11---|
G|------------------------------8-7-6-5----------------|
D|-----------------------------------------------------|
A|-----------------------------------------------------|
D|-----------------------------------------------------|

e|--12p9--------------------------15p12----------12-18p15----------17-|
B|-------11-8-11-10-9-8-----------------14-11-14----------17-14-17----|
G|----------------------11-10-9-8-------------------------------------|
D|--------------------------------------------------------------------|
A|--------------------------------------------------------------------|
D|--------------------------------------------------------------------|

Solo Backing
This is kinda weird on the actual song so i just kept it simple.
Play each chord for four bars with a few variations on the strumming pattern.
e|-----|-----|-----|-----|
B|-----|-----|-----|-----|
G|-----|-----|-----|-----|
D|--0--|--8--|--3--|--3--|
A|--0--|--8--|--3--|--4--|
D|--0--|--8--|--3--|--3--|

I think this bit might actually be harmonics but I can't tell, this sounds good though.
e|-------------------------------|-------------------------------|
B|-------------------------------|-------------------------------|
G|-----------17--17--17--17--17--|-----------14--14--14--14--14--|
D|--0--1--0----------------------|--0--1--0----------------------|
A|--0--1--0--15--15--15--15--15--|--0--1--0--12--12--12--12--12--|
D|--0--1--0----------------------|--0--1--0----------------------|

                                                             Other guitar enters here.
e|-------------------------------|------------------------------|
B|-------------------------------|------------------------------|
G|-----------17--17--17--17--17--|-----------14--14--14--14-----|
D|--0--1--0----------------------|--0--1--0------------------7--|
A|--0--1--0--15--15--15--15--15--|--0--1--0--12--12--12--12--7--|
D|--0--1--0----------------------|--0--1--0------------------7--|

Back to pre chorus, chorus, and then main riff.


                       --------------------------------
                       |   Drowned and Torn Asunder   |
                       --------------------------------

intro

Corey and Matt

E|-----------------------------------------------------------------------------------|
B|-----------------------------------------------------------------------------------|
G|--7-7-7-7-9-9-9-9-10-10-10-10-12-12-12-12--10-10-10-9-9-5-5-5---10-10-9-9-5-5-5----|
D|-----------------------------------------------------------------------------------|
A|--5-5-5-5-7-7-7-7--8--8--8--8-10-10-10-10---8--8--8-7-7-3-3-3----8--8-7-7-3-3-3----|
E|-----------------------------------------------------------------------------------|

Guitar III

E|-----------------------------------------------------------------------------------|
B|-----------------------------------------------------------------------------------|
G|-----------------------------------------------------------------------------------|
D|--0-0-0-0-0-0-0-0--0--0--0--0--0--0--0--0---8--8--8-8-8-8-8-8-8--8--8-8-8-8-8-8----|
A|--0-0-0-0-0-0-0-0--0--0--0--0--0--0--0--0---8--8--8-8-8-8-8-8-8--8--8-8-8-8-8-8----|
E|--0-0-0-0-0-0-0-0--0--0--0--0--0--0--0--0---8--8--8-8-8-8-8-8-8--8--8-8-8-8-8-8----|

Corey and Matt

E|---------------------------------------------------------------------------------------------|
B|---------------------------------------------------------------------------------------------|
G|--10-10-10-10-12-12-12-12-14-14-14-14-15-15-15-15--14-14-14-12-12-9-9-9---14-14-12-12-9-9-9--|
D|---------------------------------------------------------------------------------------------|
A|---8--8--8--8-10-10-10-10-12-12-12-12-13-13-13-13--12-12-12-10-10-7-7-7---12-12-10-10-7-7-7--|
E|---------------------------------------------------------------------------------------------|

Guitar III

E|--------------------------------------------------------------------------------------------|
B|--------------------------------------------------------------------------------------------|
G|--------------------------------------------------------------------------------------------|
D|--0--0--0--0--0--0--0--0--0--0--0--0--0--0--0--0---8--8--8--8--8-8-8-8-8--8--8--8--8-8-8-8--|
A|--0--0--0--0--0--0--0--0--0--0--0--0--0--0--0--0---8--8--8--8--8-8-8-8-8--8--8--8--8-8-8-8--|
E|--0--0--0--0--0--0--0--0--0--0--0--0--0--0--0--0---8--8--8--8--8-8-8-8-8--8--8--8--8-8-8-8--|

Verse

Matt

E|--------------------------------------------------------------------------------------------------------------------------|
B|--------------------------------------------------------------------------------------------------------------------------|
G|--------------------------------------------------------------------------------------------------------------------------|
D|---7-------9-----------5-3------7-------9----------------------7-------9-----------5-3-----7-------9----------------------|
A|---5-------7--------------------5-------7----------------------5-------7-------------------5-------7----------------------|
E|-----0-0-0---0-0-0-1p0-----0-0----0-0-0---0-0-1p0-0-0-1p0-0-0----0-0-0---0-0-0-1P0-----0-0---0-0-0---0-0-1P0-0-0-1P0-0-0--|
       P.M--   -----         ---    -----   ---     ---     ---    -----   -----         --- -----   ---     ---     ---

Corey

E|--------------------------------------------------------------------------------------------------------------------------|
B|--------------------------------------------------------------------------------------------------------------------------|
G|--------------------------------------------------------------------------------------------------------------------------|
D|---7-------9-----------5-3------7-------9----------------------7-------9-----------8-7-----7-------9----------------------|
A|---5-------7--------------------5-------7----------------------5-------7-------------------5-------7----------------------|
E|-----0-0-0---0-0-0-1p0-----0-0----0-0-0---0-0-1p0-0-0-1p0-0-0----0-0-0---0-0-0-1P0-----0-0---0-0-0---0-0-1P0-0-0-1P0-0-0--|
       P.M--   -----         ---    -----   ---     ---     ---    -----   -----         --- -----   ---     ---     ---
This is repeated through the verse


little pre verse fill

Guitar III

E|---19-17h19p17--------------------------|
B|---------------18-16-15-----------------|
G|------------------------17-16-----------|
D|------------------------------18--------|
A|----------------------------------------|
E|----------------------------------------|

Corey

E|---12-10h12p10--------------------------|
B|---------------11-9-8-------------------|
G|----------------------10-9--------------|
D|---------------------------11-----------|
A|----------------------------------------|
E|----------------------------------------|

End verse riff

Corey and Matt

E|------------------------------------------------------------------------|
B|------------------------------------------------------------------------|
G|--------------------12---10----9h10-------------------------------------|
D|---10-------9-----------------------------------------------------------|
A|------8-8-8---8-8-8---8-8--8-8------8-------7---------------------------|
E|--------------------------------------0-0-0---0-0-0-0h10h12-15p0-15h17--| X2
        P.M--   -----   ---  ---      -------   -----
Pre chorus

Corey

E|-------------------------------------------------------------------------------------------------------------------|
B|-------------------------------------------------------------------------------------------------------------------|
G|-------------------------------------------------------------------------------------------------------------------|
D|---12p0--------10p0----8p0----12p0---------------------------12p0--------10p0----8p0----10p0----8----12p0------10--|
A|---------------------------------------------8h10------10h12-------------------------------------------------------|

X4
          P.M---      --     --      ------ --      ----            ------      --     
     --   --      ----

Matt

E|-------------------------------------------------------------------------------------------------------------------|
B|-------------------------------------------------------------------------------------------------------------------|
G|-------------------------------------------------------------------------------------------------------------------|
D|---15p0--------14p0----12p0---15p0-----------14h15----15h17-15p0--------14p0----12p0---14p0----12p0----15p0---14p0-|
A|-------------------------------------------------------------------------------------------------------------------|

x 4
          P.M---      --     --      ------ --       --            ------      --     -- 
    --     --      --

Chorus

Guitar III
E|------------------------------------------------------------------------------------------------13--12~--------|
B|--------------------------------------------------------------------------------------------------------13-----|
G|---14------12--------------------14------12--------------------14------12--------------------------------------|
D|-------15------14---14--15--12-------15------14---14--15--12-------15------14--14--15--12----------------------|
A|---------------------------------------------------------------------------------------------------------------|
E|---------------------------------------------------------------------------------------------------------------|

E|---------------------------------------------------------------------------------------------------------------|
B|---------------------------------------------------------------------------------------------------------------|
G|---14------12--------------------14------12--------------------14------12--------------------------------------|
D|-------15------14---14--15--12-------15------14---14--15--12-------15------14--14--15--12---------1------------|
A|--------------------------------------------------------------------------------------------------1------------|
E|--------------------------------------------------------------------------------------------------1------------|

Corey

E|---------------------------------------------------------------------------------------------------------------|
B|---------------------------------------------------------------------------------------------------------------|
G|---10------9--------------------10------9--------------------10-------9-------------------------10--9----------|
D|-------12-----10---10--12--10-------10------10---10--12--10-------10------10--10--12--10----------------10-----|
A|---------------------------------------------------------------------------------------------------------------|
E|---------------------------------------------------------------------------------------------------------------|

E|---------------------------------------------------------------------------------------------------------------|
B|---------------------------------------------------------------------------------------------------------------|
G|---10------9--------------------10------9--------------------10-------9----------------------------------------|
D|-------12-----10---10--12--10-------10------10---10--12--10-------10------10--10--12--10-----------1-----------|
A|---------------------------------------------------------------------------------------------------1-----------|
E|---------------------------------------------------------------------------------------------------1-----------|

Matt

E|--------------------------------------------------------------------------------------------------------|
B|--------------------------------------------------------------------------------------------------------|
G|--------------------------------------------------------------------------------------------------------|
D|---0-------------0--------10-------------------10--------8------------------8-------------3---2---3-----|
A|---0-------------0--------10-------------------10--------8------------------8-------------3---2---3-----|
E|---0-------------0--------10-------------------10--------8------------------8-------------3---2---3-----|

E|---------------------------------------------------------------------------------------------------------------|
B|---------------------------------------------------------------------------------------------------------------|
G|---------------------------------------------------------------------------------------------------------------|
D|---0--------------------0--------10-------------------10--------8------------------8--------------1------------|
A|---0--------------------0--------10-------------------10--------8------------------8--------------1------------|
E|---0--------------------0--------10-------------------10--------8------------------8--------------1------------|

Verse
end verse
pre chorus
chorus

Break

Both guitars

E|------------------------------------------------------------------------------------|
B|------------------------------------------------------------------------------------|
G|------------------------------------------------------------------------------------|
D|---0----------0--0---------8---7---3---0----------0--0----------8---7---3-----------|
A|---0----------0--0---------8---7---3---0----------0--0----------8---7---3-----------|
E|---0----------0--0---------8---7---3---0----------0--0----------8---7---3-----------|
            P.M-----                                ----------------------------------|

Guitar 1

Fast alternate picking

E|--------------------------------------|--------------------------------|
B|--------------------------------------|--------------------------------|
G|---7p0000003p0000005p0000002p000000--*|--10p0010p0010p009p009p009p00---|
D|-------------------------------------*|--------------------------------|
A|--------------------------------------|--------------------------------|
E|--------------------------------------|--------------------------------|

                                      3x
E|--------------------------------------|--------------------------------|
B|--------------------------------------|--------------------------------|
G|*--7p0000003p0000005p0000002p000000--*|--10p0-9p0-7p0-9p0-10p0-12p0----|
D|*------------------------------------*|--------------------------------|
A|--------------------------------------|--------------------------------|
E|--------------------------------------|--------------------------------|

Guitar II

Fast alternate picking
                                     3x
E|-------------------------------------|----------------------------|
B|-------------------------------------|----------------------------|
G|*-----------------------------------*|----------------------------|
D|*--8p0000005p0000007p0000003p000000-*|--8p008p008p007p007p007p00--|
A|-------------------------------------|----------------------------|
E|-------------------------------------|----------------------------|

                                     3x
E|-------------------------------------|----------------------------|
B|-------------------------------------|----------------------------|
G|*-----------------------------------*|----------------------------|
D|*--8p0000005p0000007p0000003p000000-*|-8p0-7p0-5p0-7p0-8p0-10p0---|
A|-------------------------------------|----------------------------|
E|-------------------------------------|----------------------------|

Solos

Corey

e|---------------------------------------17p13----------13-------|
b|---------------------------------------------15----15----------|
g|-------------------------15p14p12-14------------14-------------|
d|-12h14h15-14--12h14h15-14--------------------------------------|
a|---------------------------------------------------------------|
D|---------------------------------------------------------------|

e|--15p12----------12--18-17-15----------------------------------|
b|--------13----13--------------18-17-15-------------------------|
g|-----------12--------------------------17-15-14----------------|
d|-------------------------------------------------17-15-14------|
a|-----------------------------------------------------------17--|

Matt

e|--------------------------------------------------------------------------------------------------------|
b|--------------------------------------------------------------------------------------------------------|
g|--------------------------------------------------------------------------------------------------------|
d|-----------------------------------------------------------3-3-3-------2-2-2-------2-2-2--------3-3-3---|
a|---------7-7-7-------5-5-5-------8-8-8-------7-7-7---1-1-1-------1-1-1-------0-0-0----------------------|
d|---0-0-0-------0-0-0-------0-0-0-------0-0-0----------------------------------------------3-3-3---------|

Corey

e|------------------------------------------------------------------------------------------------------------|
b|------------------------------------------------------------------------------------------------------------|
g|------------------------------------------------------------------------------------------------------------|
d|-----------------------------------------------------------3-3-3-------2-2-2-------2-2-2--------3-3-3-------|
a|---------7-7-7-------5-5-5-------8-8-8-------7-7-7---1-1-1-------1-1-1-------0-0-0--------------------------|
d|---0-0-0-------0-0-0-------0-0-0-------0-0-0----------------------------------------------3-3-3-------------|

Matt

e|-----------------------------------------------------------------------------10------12---------------------|
b|---15\10-10-10--13-13-13\8-8-8--10-10-10\6-6-6--8-8-8\5--5-5-6-5-6b(8)r-------------------------------------|
g|------------------------------------------------------------------------7--7----9/10----10/14b(15)----------|
d|------------------------------------------------------------------------------------------------------------|
a|------------------------------------------------------------------------------------------------------------|
d|------------------------------------------------------------------------------------------------------------|

Corey

e|---------------------------------------------------------10----12-12-13-12----12-------------------------13-12--------|
b|---------------------------------------10----11-10-12-13----12-------------15----15-13-15-13-11-13-11-10-------13-10~-|
g|-----------------------9----10-9-10-12----12--------------------------------------------------------------------------|
d|--------7----8-7-10-12---12-------------------------------------------------------------------------------------------|
a|--5-7-8---10----------------------------------------------------------------------------------------------------------|
d|----------------------------------------------------------------------------------------------------------------------|

Matt

e|------------------------------------------------------------------------------------------------------------|
b|------------------------------------------------------------------------------------------------------------|
g|------------------------------------------------------------------------------------------------------------|
d|-----------------------------------------------------------3-3-3-------2-2-2-------2-2-2--------3-3-3-------|
a|---------7-7-7-------5-5-5-------8-8-8-------7-7-7---1-1-1-------1-1-1-------0-0-0--------------------------|
d|---0-0-0-------0-0-0-------0-0-0-------0-0-0----------------------------------------------3-3-3-------------|

Corey

e|------------------------------------------------------------------------------------------------------------|
b|------------------------------------------------------------------------------------------------------------|
g|------------------------------------------------------------------------------------------------------------|
d|-----------------------------------------------------------3-3-3-------2-2-2-------2-2-2--------3-3-3-------|
a|---------7-7-7-------5-5-5-------8-8-8-------7-7-7---1-1-1-------1-1-1-------0-0-0--------------------------|
d|---0-0-0-------0-0-0-------0-0-0-------0-0-0----------------------------------------------3-3-3-------------|

Matt

e|----------------------------------------------------------------------------------------------------------|
b|----------------------------------------------------------------------------------------------------------|
g|----------------------------------------------------------------------------------------------------------|
d|----------------------------------------------------------------------------------------12-13-15-12-13-15-|
a|-/12-12-12-12-12-12-12-12-12-12-12-12--12-10--8--7~-------------------12-14-15-12-14-15-------------------|
d|----------------------------------------------------12-13-15-12-13-15-------------------------------------|


e|---------------------------------------------------------------|
b|---------------------------------------------------------------|
g|-------------------------------------12-13-15-12-13-15-17b(19)-|
d|-------------------12-13-15-12-13-15---------------------------|
a|-12-14-15-12-14-15---------------------------------------------|
d|---------------------------------------------------------------|


Harmony

Corey

e|---13--10-----10---------------------------------------------------------|
b|-----------11----11----11------------------------------------------------|
g|--------------------10----10------10-------------------------------------|
d|------------------------------12-----12--10--12--10------10--------------|
a|-----------------------------------------------------13------13--12--13~-|
d|-------------------------------------------------------------------------|


e|-10--6-----6--------------------------------------------------------|
b|--------8----8-----8------------------------------------------------|
g|----------------7-----7-----7---------------------------------------|
d|-------------------------8-----8---7---8---7-----7------------------|
a|----------------------------------------------10----10-8-10~--------|
d|--------------------------------------------------------------------|


Matt

e|---17--13-----13---------------------------------------------------------|
b|-----------15----15----15------------------------------------------------|
g|--------------------14----14------14-------------------------------------|
d|------------------------------15-----15--14--15--14------14--------------|
a|-----------------------------------------------------17------17--15--17~-|
d|-------------------------------------------------------------------------|


e|--13--10---10--------------------------------------------------------|
b|---------11---11----11-----------------------------------------------|
g|-----------------10----10----10--------------------------------------|
d|--------------------------12----12--10--12--10----10-----------------|
a|-----------------------------------------------13----13-12-13~-------|
d|---------------------------------------------------------------------|


Corey

e|---13--10-----10---------------------------------------------------------|
b|-----------11----11----11------------------------------------------------|
g|--------------------10----10------10-------------------------------------|
d|------------------------------12-----12--10--12--10------10--------------|
a|-----------------------------------------------------13------13--12--13~-|
d|-------------------------------------------------------------------------|

e|-13--15--17--15--17--18--18(20)r--18b(19)---------------------------|
b|--------------------------------------------------------------------|
g|--------------------------------------------------------------------|
d|--------------------------------------------------------------------|
a|--------------------------------------------------------------------|
d|--------------------------------------------------------------------|

Matt

e|---17--13-----13---------------------------------------------------------|
b|-----------15----15----15------------------------------------------------|
g|--------------------14----14------14-------------------------------------|
d|------------------------------15-----15--14--15--14------14--------------|
a|-----------------------------------------------------17------17--15--17~-|
d|-------------------------------------------------------------------------|


e|---------------------------------------------------------------------|
b|--15--17--18--17--18--20--20b(22)r--20b(21)--------------------------|
g|---------------------------------------------------------------------|
d|---------------------------------------------------------------------|
a|---------------------------------------------------------------------|
d|---------------------------------------------------------------------|


Pre Chorus
Chorus x2

END


                             ----------------------
                             |     Ascendancy     |
                             ----------------------


Intro/Chorus - Cory

|-------------------------|-------------------------|
|-------------------------|-------------------------|
|-----6--------6----------|-----2--------2----------|
|--4--4--x--4--4--x-x-x-x-|--0--4--x--0--4--x-x-x-x-|
|--4-----x--4-----x-x-x-x-|--0-----x--0-----x-x-x-x-|
|--4-----4--4-----4-4-4-4-|--0-----0--0-----0-0-0-0-| Do this 4 times.

Intro/Chorus - Matt

|-------------------------|-------------------------|
|-------------------------|-------------------------|
|-----6--------6----------|-----2--------2----------|
|--4--6--x--4--6--x-x-x-x-|--0--0--x--0--0--x-x-x-x-|
|--4-----x--4-----x-x-x-x-|--0-----x--0-----x-x-x-x-|
|--4-----4--4-----4-4-4-4-|--0-----0--0-----0-0-0-0-| Do This 4 Times.

Guitar 3 (Do this 2 times)

|-----------------------|
|-----------------------|
|-----------------------|
|--6--4--2~---6--4--7~--|
|-----------------------|
|-----------------------| Then...

|--------------------------|--------------------------|
|--------------------------|--------------------------|
|--------------------------|--------------------------|
|--11--9--7~---11--9--6~---|--11--9--7~---11--9--12~--|
|--------------------------|--------------------------|
|--------------------------|--------------------------| Do this once.

Verse - Cory (Do this twice)

|---------------------------------|---------------------------------|
|---------------------------------|---------------------------------|
|---------------------------------|---------------------------------|
|-----------------7-7-7-7-7-7-7-7-|-----------------7-7-7-7-6-6-6-6-|
|---------------------------------|---------------------------------|
|-4-4-4-4-4-4-4-4-----------------|-4-4-4-4-4-4-4-4-----------------|

|---------------------------------|----------------------------------|
|---------------------------------|----------------------------------|
|---------------------------------|----------------------------------|
|-----------------6-6-6-6-6-6-6-6-|---------4-4-4-4----------6-6-6-6-|
|---------------------------------|----------------------------------|
|-3-3-3-3-3-3-3-3-----------------|-0-0-0-0---------3-3-3-3----------|

(Do this twice too)

|-------------------|---------------------|-------------------|
|-------------------|---------------------|-------------------|
|-------------------|---------------------|-------------------|
|-----------------7-|-----------------7-6-|-----------------6-|
|-----------------4-|-----------------4-4-|-----------------4-|
|-4-4-4-4-4-4-4-4---|-4-4-4-4-4-4-4-4-----|-3-3-3-3-3-3-3-3---|

Continued from above...
|----------------------|
|----------------------|
|----------------------|
|---------4----------6-|
|---------4----------4-|
|-0-0-0-0----3-3-3-3---|

Verse - Matt (Do this four times)

|---------------------------------|---------------------------------|
|---------------------------------|---------------------------------|
|---------------------------------|---------------------------------|
|-----------------7-7-7-7-7-7-7-7-|-----------------7-7-7-7-6-6-6-6-|
|---------4-4-4-4-----------------|---------4-4-4-4-----------------|
|-4-4-4-4-------------------------|-4-4-4-4-------------------------|

|---------------------------------|---------------------------------|
|---------------------------------|---------------------------------|
|---------------------------------|---------------------------------|
|-----------------6-6-6-6-6-6-6-6-|---------4-4-4-4---------6-6-6-6-|
|---------3-3-3-3-----------------|---------------------------------|
|-3-3-3-3-------------------------|-0-0-0-0---------3-3-3-3---------|

Pre Chorus - Cory (Do this twice)

|---------------------------------------------|
|---------------------------------------------|
|----------------------------------4----------|
|-4----------6----------7---------------------|
|---5--5-5-5---5--5-5-5---5--5-5-5---5--5-5-5-|
|---------------------------------------------|

Continued from above...
|---------------------------------------------|-----------------------|
|---------------------------------------------|-----------------------|
|----------------------------------6----------|--13-11-14--13--14--16-|
|-6----------7----------9---------------------|--x--x--x---x---x---x--|
|---7--7-7-7---7--7-7-7---7--7-7-7---7--7-7-7-|--11-9--12--11--12--14-|
|---------------------------------------------|-----------------------|

Pre Chorus - Matt (Do this twice)

|---------------------------------------------|
|---------------------------------------------|
|------------4----------6----------7----------|
|-7-------------------------------------------|
|---5--5-5-5---5--5-5-5---5--5-5-5---5--5-5-5-|
|---------------------------------------------|

Continued from above...

|---------------------------------------------|------|---------------------|
|---------------------------------------------|------|---------------------|
|------------6----------7----------9----------|------|---------------------|
|-9-------------------------------------------|--0~--|--------99-1111-1212-|
|---7--7-7-7---7--7-7-7---7--7-7-7---7--7-7-7-|--0~--|-7-9-7---------------|
|---------------------------------------------|--0~--|---------------------|

Do The Intro/Chorus Here.
Now Repeat All The Above Then...

Bridge and backing for solo - Matt

|-----------------------|---------------------------|---------------------|
|-----------------------|---------------------------|---------------------|
|-----------------------|---------------------------|-7-------6-----------|
|-7----------6----------|---------------------------|----------------7----|
|-----------------------|---------------------------|---------------------|
|---4--4-4-4---4--4-4-4-|-4--4-4-4--4--4-4-4--4-4-4-|---4-4-----4-4----4-4|

Continued from above...
Cory joins here--x
|----------------x|-----------------------|---------------------------|
|----------------x|-----------------------|---------------------------|
|----------------x|-----------------------|---------------------------|
|---6--------6--7x|-7----------6----------|---------------------------|
|-----------------|-----------------------|---------------------------|
|-4---4--4-4------|---0--0-0-0---0--0-0-0-|-0--0-0-0--0--0-0-0--0-0-0-|

Continued from above...
|----------------------|-------------|
|----------------------|-------------|
|----------------------|-------------|
|----------------------|-------------|
|------9------11-------|-11--12---16-|
|-0--7---0--9----0--11-|-------------|

Bridge and backing for solo - Cory (look in Matts part to see where to join)

|------------------------|------------------|------------------------------|
|------------------------|-----10-----9-----|---------------------------14-|
|------------------------|------------------|-----11-----13------13-14-----|
|----4-------------------|-0-7----0-6---0-7-|-0-7----0-9----0-11-----------|
|---------------7--------|------------------|------------------------------|
|-12---0--0--0---0--0--0-|------------------|------------------------------|

Continued from above...
|-----------------------|---------------------------|
|-----------------------|---------------------------|
|-----------------------|---------------------------|
|-4---------------------|---------------------------|
|------------7----------|---------------------------|
|---4--4-4-4---4--4-4-4-|-4--4-4-4--4--4-4-4--4-4-4-|

Continued from above...
|------------------------|----------------|-----------------------|
|------------------------|----------------|-----------------------|
|-4----------------------|----------------|-----------------------|
|---------7--------4-----|----------------|-4---------------------|
|------------------------|---7--------7-9-|------------7----------|
|---4-4-4---4-4-4----4-4-|-4---4--4-4-----|---0--0-0-0---0--0-0-0-|

Solo

|--------------------------------|----------------------|----------|
|-14--14-12----12----------------|----------------------|----------|
|-----------14----14-13-14-13-11-|-13-11----11----------|----------|
|--------------------------------|-------14----14-12-11-|-9--14-11-|
|--------------------------------|----------------------|----------|
|--------------------------------|----------------------|----------|

|----------|--------------------------------|----------------------|
|----------|-15--15-14-12-14-12----12-------|----------------------|
|----------|--------------------14----14-13-|-14-13-11-13-11-------|
|-9-11-9---|--------------------------------|----------------14-12-|
|--------12|--------------------------------|----------------------|
|----------|--------------------------------|----------------------|

|14-14-17-16|------------------------------------------------------------14|
|-----------|-14-15-15b-15b-14-14-14-14-12-----------------------14-15-17--|
|-----------|------------------------------13--14-13-------14-16-----------|
|-----------|----------------------------------------14-16-----------------|
|-----------|--------------------------------------------------------------|
|-----------|--------------------------------------------------------------|

(Tremlo pick this twice)
|17161414191714141716141419171414|14---------------------------------------|
|--------------------------------|-----------------------------------------|
|--------------------------------|-----------------------16-18-------------|
|--------------------------------|--------------16-18-19-------------16-18-|
|--------------------------------|-----16-17-19----------------17-19-------|
|--------------------------------|-----------------------------------------|

|----------------------------------------|
|---------------------------------17--19~|
|---16-18-19-------------16-18-19--------|
|19-------------16-18-19-----------------|
|------------19--------------------------|
|----------------------------------------| End Solo

Part after Solo - Cory

|------------------------------|----------------------------------|
|------------------------------|----------------------------------|
|------------------------------|11-----9-----7-------11---9---7---|
|------------------------------|---7-7---7-7---7-7-7----7---7---7-|
|------------------------------|----------------------------------|
|4-4-4-4-6-6-6-7-7-7-7-7-6-6-6-|----------------------------------|

|------------------------------|-----------------|-----------|
|------------------------------|-----------------|--------10-|
|------------------------------|-----------------|-----------|
|------------------------------|0-6-7-0-7-11-0-7-|0-7-9-0----|
|------------------------------|-----------------|-----------|
|4-4-4-4-6-6-6-7-7-7-7-7-6-6-6-|-----------------|-----------|

Part after Solo - Matt

|------------------------------|----------------------------------|
|------------------------------|10-----9-----7-------10---9---7---|
|------------------------------|----------------------------------|
|------------------------------|---7-7---7-7---7-7-7----7---7---7-|
|------------------------------|----------------------------------|
|4-4-4-4-6-6-6-7-7-7-7-7-6-6-6-|----------------------------------|

|------------------------------|-----------------|-----------|
|------------------------------|-----------------|-----------|
|------------------------------|-----------------|-----------|
|------------------------------|-----------------|--------11-|
|------------------------------|-----------------|-----------|
|4-4-4-4-6-6-6-7-7-7-7-7-6-6-6-|0-6-7-0-7-11-0-7-|0-7-9-0----|

Final bit before last Pre Chorus - Cory

|---------------|-------------|-----------------------------------------|
|---------------|-------------|-----------------------------------------|
|---------------|-------------|-----------------------------------------|
|------11------9|------7------|12-11-9----11-9-------9------------------|
|9-7-9-----9-7--|9-7-9---9-7-9|--------12------12-11---12-11-9-12-11-9-7|
|---------------|-------------|-----------------------------------------|

Final bit before last Pre Chorus - Matt

|---------------|-------------|------------------------------------|
|---------------|-------------|------------------------------------|
|------9-------7|------6------|11-9-7----9-7------7----------------|
|7-6-7-----7-6--|7-6-7---7-6-7|-------11-----11-9---11-9-7-11-9-7-6|
|---------------|-------------|------------------------------------|
|---------------|-------------|------------------------------------|

Now repeat the Pre Chorus and the Chorus.

Both Guitars end on...

|---|
|---|
|-6-|
|-7-|
|-4-|
|-0-|

              ------------------------------------------------
              |     A Gunshot to the Head of Trepidation     |
              ------------------------------------------------

Key:
x  = Mute String
PM = Palm Mute
/  = Slide Upwards
\  = Slide Downwards
b  = Bend Note
h  = Hammer On
p  = Pull Off
~  = Let Note Ring
ps = Pick Scrape

Notes:
Okay. I didn't tab this song out. I infact copied it out
of Total Guitar magazine. I can only take credit for finding
it and taking the time to type it up. And it seems pretty
much 100% to me. I haven't got round to doing the solo but as
soon as it's done I shall put it up for you.
Enjoy!


GUITAR TAB:
==========

Intro/Part 1:
(0:00)
E]---------------------------|
B]---------------------------|
G]--7~-----6~-----9~----10~--|
D]--x------x------x------x---|
A]--5~-----4~-----7~-----8~--|
D]---------------------------|

E]---------------------------|
B]---------------------------|
G]--7~-----6~----12~----10~--|
D]--x------x------x------x---|
A]--5~-----4~----10~-----8~--|
D]---------------------------|

E]-----------------------|
B]-----------------------|
G]--12~----10~-----------|
D]---x------x------/12\--|
A]--10~-----8~-----/12\--|
D]-----------------/12\--|

Intro/Part 2:
(0:16)
E]------------------------------------------------------------------------|
B]------------------------------------------------------------------------|
G]--7-----------7---6-----------6---9-----------9--10---------------------|
D]--x-----------x---x-----------x---x-----------x---x---------------------|
A]--5-----------5---4-----------4---7-----------7---8---------------------|
D]-----0-0-0-0---------0-0-0-0---------0-0-0-0---------0-0-0-0-0-0-0-0-0--|
PM     . . . .         . . . .         . . . .         . . . . . . . . .

E]------------------------------------------------------------------------------------|
B]------------------------------------------------------------------------------------|
G]--7-----------7---6-----------6---9-----------9---12-12-12-12-12-12-10-10-10-10-10--|
D]--x-----------x---x-----------x---x-----------x----x--x--x--x--x--x--x--x--x--x--x--|
A]--5-----------5---4-----------4---7-----------7---10-10-10-10-10-10--8--8--8--8--8--|
D]-----0-0-0-0---------0-0-0-0---------0-0-0-0----------------------------------------|
PM     . . . .         . . . .         . . . .

E]------------------------------------------------------------------------|
B]------------------------------------------------------------------------|
G]--7-----------7---6-----------6---9-----------9--10---------------------|
D]--x-----------x---x-----------x---x-----------x---x---------------------|
A]--5-----------5---4-----------4---7-----------7---8---------------------|
D]-----0-0-0-0---------0-0-0-0---------0-0-0-0---------0-0-0-0-0-0-0-0-0--|
PM     . . . .         . . . .         . . . .         . . . . . . . . .

E]---------------------------------------------------------------------------|
B]---------------------------------------------------------------------------|
G]--7-----------7---6-----------6---9-----------9---12-12-12-12-10-10-10-10--|
D]--x-----------x---x-----------x---x-----------x----x--x--x--x--x--x--x--x--|
A]--5-----------5---4-----------4---7-----------7---10-10-10-10--8--8--8--8--|
D]-----0-0-0-0---------0-0-0-0---------0-0-0-0-------------------------------|
PM     . . . .         . . . .         . . . .

Intro/Part 3:
(0:32)
E]-----------------------------------------------------------|
B]-----------------------------------------------------------|
G]-----------------------------------------------------------|
D]------7-7-5-5-7-7-----7-7-5-5-7-7-----7-7-7-7-----5-5------|
A]------------------3-3-------------5-5---------8-8-----7-7--|
D]--0-0------------------------------------------------------|

E]-----------------------------------------------------------|
B]-----------------------------------------------------------|
G]-----------------------------------------------------------|
D]------7-7-5-5-7-7-----7-7-5-5-7-7-----7-7-7-7-----5-5------|
A]------------------3-3-------------5-5---------8-8-----7-7--|
D]--0-0------------------------------------------------------|

E]-------------------------------------------------|
B]-------------------------------------------------|
G]-------------------------------------------------|
D]-----7--5--7-----7--5--7-----7--5--7--7----5-----|
A]--------------3-----------5-------------8-----7--|
D]--0----------------------------------------------|

E]-------------------------------------------------|
B]-------------------------------------------------|
G]-------------------------------------------------|
D]-----7--5--7-----7--5--7-----7--5--7--7----5-----|
A]--------------3-----------5-------------8-----7--|
D]--0----------------------------------------------|

Verse 1:
(0:49)
E]------------------------------------------------------------------------|
B]------------------------------------------------------------------------|
G]--7-----------7---6-----------6---9-----------9--10---------------------|
D]--x-----------x---x-----------x---x-----------x---x---------------------|
A]--5-----------5---4-----------4---7-----------7---8---------------------|
D]-----0-0-0-0---------0-0-0-0---------0-0-0-0---------0-0-0-0-0-0-0-0-0--|
PM     . . . .         . . . .         . . . .         . . . . . . . . .

E]------------------------------------------------------------------------------------|
B]------------------------------------------------------------------------------------|
G]--7-----------7---6-----------6---9-----------9---12-12-12-12-12-12-10-10-10-10-10--|
D]--x-----------x---x-----------x---x-----------x----x--x--x--x--x--x--x--x--x--x--x--|
A]--5-----------5---4-----------4---7-----------7---10-10-10-10-10-10--8--8--8--8--8--|
D]-----0-0-0-0---------0-0-0-0---------0-0-0-0----------------------------------------|
PM     . . . .         . . . .         . . . .

E]------------------------------------------------------------------------|
B]------------------------------------------------------------------------|
G]--7-----------7---6-----------6---9-----------9--10---------------------|
D]--x-----------x---x-----------x---x-----------x---x---------------------|
A]--5-----------5---4-----------4---7-----------7---8---------------------|
D]-----0-0-0-0---------0-0-0-0---------0-0-0-0---------0-0-0-0-0-0-0-0-0--|
PM     . . . .         . . . .         . . . .         . . . . . . . . .

E]---------------------------------------------------------------------------|
B]---------------------------------------------------------------------------|
G]--7-----------7---6-----------6---9-----------9---12-12-12-12-10-10-10-10--|
D]--x-----------x---x-----------x---x-----------x----x--x--x--x--x--x--x--x--|
A]--5-----------5---4-----------4---7-----------7---10-10-10-10--8--8--8--8--|
D]-----0-0-0-0---------0-0-0-0---------0-0-0-0-------------------------------|
PM     . . . .         . . . .         . . . .

Chorus 1:
(1:05)
E]-----------------------------------------------------------|
B]-----------------------------------------------------------|
G]-----------------------------------------------------------|
D]------7-7-5-5-7-7-----7-7-5-5-7-7-----7-7-7-7-----5-5------|
A]------------------3-3-------------5-5---------8-8-----7-7--|
D]--0-0------------------------------------------------------|

E]-----------------------------------------------------------|
B]-----------------------------------------------------------|
G]-----------------------------------------------------------|
D]------7-7-5-5-7-7-----7-7-5-5-7-7-----7-7-7-7-----5-5------|
A]------------------3-3-------------5-5---------8-8-----7-7--|
D]--0-0------------------------------------------------------|

E]-------------------------------------------------|
B]-------------------------------------------------|
G]-------------------------------------------------|
D]-----7--5--7-----7--5--7-----7--5--7--7----5-----|
A]--------------3-----------5-------------8-----7--|
D]--0----------------------------------------------|

E]-------------------------------------------------|
B]-------------------------------------------------|
G]-------------------------------------------------|
D]-----7--5--7-----7--5--7-----7--5--7--7----5-----|
A]--------------3-----------5-------------8-----7--|
D]--0----------------------------------------------|

GUITAR 1
Harmony Interlude 1:
(1:22)
E]---------------------------------------------------------------------|
B]---------------------------------------------------------------------|
G]--9--10--9h10p9-----------------9--10--9h10p9----------12/14--12--9--|
D]-----------------12--------------------------------------------------|
A]---------------------12h13--12-----------------12--10----------------|
D]---------------------------------------------------------------------|

E]----------------------------------------------------------------------------------------|
B]----------------------------------------------------------------------------------------|
G]--10--9h10p9-----------------10-9p7----7-9-10-9p7----9-10-12-10p9----10-12-14-12p10-----|
D]--------------12--------------------10------------10--------------12----------------14--|
A]------------------12h13--12-------------------------------------------------------------|
D]----------------------------------------------------------------------------------------|

E]------------------------------------------------------------------|
B]------------------------------------------------------------------|
G]--10--9h10p9-----------------9--10--9h10p9----------12/14--12--9--|
D]--------------12--------------------------------------------------|
A]------------------12h13--12-----------------12--10----------------|
D]------------------------------------------------------------------|

E]----------------------------------------------------------------------------------------|
B]----------------------------------------------------------------------------------------|
G]--10--9h10p9-----------------10-9p7----7-9-10-9p7----9-10-12-10p9----10-12-14-12p10-----|
D]--------------12--------------------10------------10--------------12----------------14--|
A]------------------12h13--12-------------------------------------------------------------|
D]----------------------------------------------------------------------------------------|

GUITAR 2
Harmony Interlude 1:
(1:22)
E]--3--5--3h5p3-------------3--5--3h5p3--------6/8--6--3--|
B]---------------6--3h5--3---------------6--5-------------|
G]--------------------------------------------------------|
D]--------------------------------------------------------|
A]--------------------------------------------------------|
D]--------------------------------------------------------|

E]--5--3h5p3-------------5p3p1---1-3-5p3p1---3-5-6p5p3---5-6-8p6p5----|
B]------------6--3h5--3--------5-----------5-----------6-----------8--|
G]--------------------------------------------------------------------|
D]--------------------------------------------------------------------|
A]--------------------------------------------------------------------|
D]--------------------------------------------------------------------|

E]--5--3h5p3-------------3--5--3h5p3--------6/8--6--3--|
B]------------6--3h5--3---------------6--5-------------|
G]-----------------------------------------------------|
D]-----------------------------------------------------|
A]-----------------------------------------------------|
D]-----------------------------------------------------|

E]--5--3h5p3-------------5p3p1---1-3-5p3p1---3-5-6p5p3---5-6-8p6p5----|
B]------------6--3h5--3--------5-----------5-----------6-----------8--|
G]--------------------------------------------------------------------|
D]--------------------------------------------------------------------|
A]--------------------------------------------------------------------|
D]--------------------------------------------------------------------|

Verse 2:
(1:38)
E]------------------------------------------------------------------------|
B]------------------------------------------------------------------------|
G]--7-----------7---6-----------6---9-----------9--10---------------------|
D]--x-----------x---x-----------x---x-----------x---x---------------------|
A]--5-----------5---4-----------4---7-----------7---8---------------------|
D]-----0-0-0-0---------0-0-0-0---------0-0-0-0---------0-0-0-0-0-0-0-0-0--|
PM     . . . .         . . . .         . . . .         . . . . . . . . .

E]------------------------------------------------------------------------------------|
B]------------------------------------------------------------------------------------|
G]--7-----------7---6-----------6---9-----------9---12-12-12-12-12-12-10-10-10-10-10--|
D]--x-----------x---x-----------x---x-----------x----x--x--x--x--x--x--x--x--x--x--x--|
A]--5-----------5---4-----------4---7-----------7---10-10-10-10-10-10--8--8--8--8--8--|
D]-----0-0-0-0---------0-0-0-0---------0-0-0-0----------------------------------------|
PM     . . . .         . . . .         . . . .

E]------------------------------------------------------------------------|
B]------------------------------------------------------------------------|
G]--7-----------7---6-----------6---9-----------9--10---------------------|
D]--x-----------x---x-----------x---x-----------x---x---------------------|
A]--5-----------5---4-----------4---7-----------7---8---------------------|
D]-----0-0-0-0---------0-0-0-0---------0-0-0-0---------0-0-0-0-0-0-0-0-0--|
PM     . . . .         . . . .         . . . .         . . . . . . . . .

E]---------------------------------------------------------------------------|
B]---------------------------------------------------------------------------|
G]--7-----------7---6-----------6---9-----------9---12-12-12-12-10-10-10-10--|
D]--x-----------x---x-----------x---x-----------x----x--x--x--x--x--x--x--x--|
A]--5-----------5---4-----------4---7-----------7---10-10-10-10--8--8--8--8--|
D]-----0-0-0-0---------0-0-0-0---------0-0-0-0-------------------------------|
PM     . . . .         . . . .         . . . .

Chorus 2:
(1:54)
E]-----------------------------------------------------------|
B]-----------------------------------------------------------|
G]-----------------------------------------------------------|
D]------7-7-5-5-7-7-----7-7-5-5-7-7-----7-7-7-7-----5-5------|
A]------------------3-3-------------5-5---------8-8-----7-7--|
D]--0-0------------------------------------------------------|

E]-----------------------------------------------------------|
B]-----------------------------------------------------------|
G]-----------------------------------------------------------|
D]------7-7-5-5-7-7-----7-7-5-5-7-7-----7-7-7-7-----5-5------|
A]------------------3-3-------------5-5---------8-8-----7-7--|
D]--0-0------------------------------------------------------|

E]-------------------------------------------------|
B]-------------------------------------------------|
G]-------------------------------------------------|
D]-----7--5--7-----7--5--7-----7--5--7--7----5-----|
A]--------------3-----------5-------------8-----7--|
D]--0----------------------------------------------|

E]-------------------------------------------------|
B]-------------------------------------------------|
G]-------------------------------------------------|
D]-----7--5--7-----7--5--7-----7--5--7--7----5-----|
A]--------------3-----------5-------------8-----7--|
D]--0----------------------------------------------|

GUITAR 1
Harmony Interlude 2:
(2:11)
E]---------------------------------------------------------------------|
B]---------------------------------------------------------------------|
G]--9--10--9h10p9-----------------9--10--9h10p9----------12/14--12--9--|
D]-----------------12--------------------------------------------------|
A]---------------------12h13--12-----------------12--10----------------|
D]---------------------------------------------------------------------|

E]----------------------------------------------------------------------------------------|
B]----------------------------------------------------------------------------------------|
G]--10--9h10p9-----------------10-9p7----7-9-10-9p7----9-10-12-10p9----10-12-14-12p10-----|
D]--------------12--------------------10------------10--------------12----------------14--|
A]------------------12h13--12-------------------------------------------------------------|
D]----------------------------------------------------------------------------------------|

E]------------------------------------------------------------------|
B]------------------------------------------------------------------|
G]--10--9h10p9-----------------9--10--9h10p9----------12/14--12--9--|
D]--------------12--------------------------------------------------|
A]------------------12h13--12-----------------12--10----------------|
D]------------------------------------------------------------------|

E]----------------------------------------------------------------------------------------|
B]----------------------------------------------------------------------------------------|
G]--10--9h10p9-----------------10-9p7----7-9-10-9p7----9-10-12-10p9----10-12-14-12p10-----|
D]--------------12--------------------10------------10--------------12----------------14--|
A]------------------12h13--12-------------------------------------------------------------|
D]----------------------------------------------------------------------------------------|

GUITAR 2
Harmony Interlude 2:
(2:11)
E]--3--5--3h5p3-------------3--5--3h5p3--------6/8--6--3--|
B]---------------6--3h5--3---------------6--5-------------|
G]--------------------------------------------------------|
D]--------------------------------------------------------|
A]--------------------------------------------------------|
D]--------------------------------------------------------|

E]--5--3h5p3-------------5p3p1---1-3-5p3p1---3-5-6p5p3---5-6-8p6p5----|
B]------------6--3h5--3--------5-----------5-----------6-----------8--|
G]--------------------------------------------------------------------|
D]--------------------------------------------------------------------|
A]--------------------------------------------------------------------|
D]--------------------------------------------------------------------|

E]--5--3h5p3-------------3--5--3h5p3--------6/8--6--3--|
B]------------6--3h5--3---------------6--5-------------|
G]-----------------------------------------------------|
D]-----------------------------------------------------|
A]-----------------------------------------------------|
D]-----------------------------------------------------|

E]--5--3h5p3-------------5p3p1---1-3-5p3p1---3-5-6p5p3---5-6-8p6p5----|
B]------------6--3h5--3--------5-----------5-----------6-----------8--|
G]--------------------------------------------------------------------|
D]--------------------------------------------------------------------|
A]--------------------------------------------------------------------|
D]--------------------------------------------------------------------|

GUITAR 1
Middle Section:
(2:27)
E]---------------------------------------------------------------------|
B]---------------------------------------------------------------------|
G]--9--10--9h10p9-----------------9--10--9h10p9----------12/14--12--9--|
D]-----------------12--------------------------------------------------|
A]---------------------12h13--12-----------------12--10----------------|
D]---------------------------------------------------------------------|

E]----------------------------------------------------------------------------------------|
B]----------------------------------------------------------------------------------------|
G]--10--9h10p9-----------------10-9p7----7-9-10-9p7----9-10-12-10p9----10-12-14-12p10-----|
D]--------------12--------------------10------------10--------------12----------------14--|
A]------------------12h13--12-------------------------------------------------------------|
D]----------------------------------------------------------------------------------------|

E]------------------------------------------------------------------|
B]------------------------------------------------------------------|
G]--10--9h10p9-----------------9--10--9h10p9----------12/14--12--9--|
D]--------------12--------------------------------------------------|
A]------------------12h13--12-----------------12--10----------------|
D]------------------------------------------------------------------|

E]----------------------------------------------------------------------------------------|
B]----------------------------------------------------------------------------------------|
G]--10--9h10p9-----------------10-9p7----7-9-10-9p7----9-10-12-10p9----10-12-14-12p10-----|
D]--------------12--------------------10------------10--------------12----------------14--|
A]------------------12h13--12-------------------------------------------------------------|
D]----------------------------------------------------------------------------------------|

GUITAR 2
Middle Section:
(2:27)
E]--3--5--3h5p3-------------3--5--3h5p3--------6/8--6--3--|
B]---------------6--3h5--3---------------6--5-------------|
G]--------------------------------------------------------|
D]--------------------------------------------------------|
A]--------------------------------------------------------|
D]--------------------------------------------------------|

E]--5--3h5p3-------------5p3p1---1-3-5p3p1---3-5-6p5p3---5-6-8p6p5----|
B]------------6--3h5--3--------5-----------5-----------6-----------8--|
G]--------------------------------------------------------------------|
D]--------------------------------------------------------------------|
A]--------------------------------------------------------------------|
D]--------------------------------------------------------------------|

E]--5--3h5p3-------------3--5--3h5p3--------6/8--6--3--|
B]------------6--3h5--3---------------6--5-------------|
G]-----------------------------------------------------|
D]-----------------------------------------------------|
A]-----------------------------------------------------|
D]-----------------------------------------------------|

E]--5--3h5p3-------------5p3p1---1-3-5p3p1---3-5-6p5p3---5-6-8p6p5----|
B]------------6--3h5--3--------5-----------5-----------6-----------8--|
G]--------------------------------------------------------------------|
D]--------------------------------------------------------------------|
A]--------------------------------------------------------------------|
D]--------------------------------------------------------------------|

Bridge:
(2:43)
E]-------------------------------------------------------------|
B]-------------------------------------------------------------|
G]--3-----5-----7-----------------3-----5----------------------|
D]--3-----5-----7-----------------3-----5-----5/7--3--3-3-3-3--|
A]--1-----3-----5--0-0-0-0-0-0-0--1-----5-----5/7--3--3-3-3-3--|
D]-----0-----0-----0-0-0-0-0-0-0-----0-----0--5/7--3--3-3-3-3--|
PM     .     .     . . . . . . .     .     .          . . . .

E]-------------------------------------------------------------|
B]-------------------------------------------------------------|
G]--3-----5-----7-----------------3-----5----------------------|
D]--3-----5-----7-----------------3-----5-----5/7--3--3-3-3-3--|
A]--1-----3-----5--0-0-0-0-0-0-0--1-----5-----5/7--3--3-3-3-3--|
D]-----0-----0-----0-0-0-0-0-0-0-----0-----0--5/7--3--3-3-3-3--|
PM     .     .     . . . . . . .     .     .          . . . .

E]-------------------------------------------------------------|
B]-------------------------------------------------------------|
G]--3-----5-----7-----------------3-----5----------------------|
D]--3-----5-----7-----------------3-----5-----5/7--3--3-3-3-3--|
A]--1-----3-----5--0-0-0-0-0-0-0--1-----5-----5/7--3--3-3-3-3--|
D]-----0-----0-----0-0-0-0-0-0-0-----0-----0--5/7--3--3-3-3-3--|
PM     .     .     . . . . . . .     .     .          . . . .

E]-------------------------------------------------------------|
B]-------------------------------------------------------------|
G]--3-----5-----7-----------------3-----5----------------------|
D]--3-----5-----7-----------------3-----5-----5/7--3--3-3-3-3--|
A]--1-----3-----5--0-0-0-0-0-0-0--1-----5-----5/7--3--3-3-3-3--|
D]-----0-----0-----0-0-0-0-0-0-0-----0-----0--5/7--3--3-3-3-3--|
PM     .     .     . . . . . . .     .     .          . . . .

Heavy Interlude:
(3:10)
E]------------------------------------------------------|
B]------------------------------------------------------|
G]------------------------------------------------------|
D]------------------------------------------------------|
A]---------5------3------6--5b-------5-------3--4--5----|
D]--0--0-0----0-0----0-0---------0-0----0-0--3--4--5-0--|
PM     . .    . .    . .         . .    . .

E]-------------------------------------------------------|
B]-------------------------------------------------------|
G]-------------------------------------------------------|
D]-------------------------------------------------------|
A]---------5------3------6--5b-------5-------3--4--5-----|
D]--0--0-0----0-0----0-0---------0-0----0-0--3--4--5--0--|
PM     . .    . .    . .         . .    . .

E]-------------------------------------------------------|
B]-------------------------------------------------------|
G]-------------------------------------------------------|
D]-------------------------------------------------------|
A]---------5------3------6--5b-------5-------3--4--5-----|
D]--0--0-0----0-0----0-0---------0-0----0-0--3--4--5--0--|
PM     . .    . .    . .         . .    . .

E]--------------------------------------------|
B]--------------------------------------------|
G]--7--7-----5--5-----4--4--------------------|
D]--7--7-----5--5-----5--5--------------------|
A]--5--5-----3--3-----2--2--------------------|
D]--------0--------0--------0--2--3--4--5--0--|
PM        .        .        .

Solo:
(3:22)
E]-18p15----------------------------15h18p14-17p14-------14\8----\5---------------------------------------------------|
B]------16p15\11------------11/15h16--------------15----------------7-8p7---------------------------------------------|
G]--------------12--------12------------------------14\11-------------------------------------------------------------|
D]----------------13p12h13--------------------------------------------------------------------------------------------|
A]--------------------------------------------------------------------------------------------------------------------|
D]--------------------------------------------------------------------------------------------------------------------|

E]------------------------------------------------------------8---------------10-11h13p11----------10h11---13/15------|
B]-------------------------------------------8p10h11--8h10p11---11p10p8-11h13-------------13p10h13--------------------|
G]--------7--------7--8h10p7h8p10h12-10-8h10--------------------------------------------------------------------------|
D]-7h8p10--10p7h10----------------------------------------------------------------------------------------------------|
A]--------------------------------------------------------------------------------------------------------------------|
D]--------------------------------------------------------------------------------------------------------------------|

E]-13p11----------11h13-15/17-15p13----------------13h15h17/18p17p15-------------15h17/20p18--------------------------|
B]-------15p13h15-------------------16p15p13h15h16-------------------18p16p15-18-------------20p17h20h22------20(22)--|
G]--------------------------------------------------------------------------------------------------------------------|
D]--------------------------------------------------------------------------------------------------------------------|
A]--------------------------------------------------------------------------------------------------------------------|
D]--------------------------------------------------------------------------------------------------------------------|

E]-------------------22-----------18------20----20(22)----------------------------------------------------------------|
B]----------------------------------------------------------------------------------------------------------\10-------|
G]--------------------------------------------------------------------------------------------------------------------|
D]--------------------------------------------------------------------------------------------------------------------|
A]--------------------------------------------------------------------------------------------------------------------|
D]--------------------------------------------------------------------------------------------------------------------|

solo 2

E]--------------------------------------------------------------------------------------------------------------------|
B]------------------------11----------------------------------------10------------------------------------------------|
G]-------9---------10----------------------\9--------7------9--------------------------------\7-----------------------|
D]--------------------------------------------------------------------------------------------------------------------|
A]--------------------------------------------------------------------------------------------------------------------|
D]--------------------------------------------------------------------------------------------------------------------|

E]------------------------------------------8-------------------------------------------------------------------------|
B]------------------------6/8---------------------8----------6--------------------5--6--5-----------------------------|
G]-------5----------7-----------------------------------------------------------------------7-------5------7\---------|
D]--------------------------------------------------------------------------------------------------------------------|
A]--------------------------------------------------------------------------------------------------------------------|
D]--------------------------------------------------------------------------------------------------------------------|

E]----------------------------10h13p10--------------------------------------------------------------------------------|
B]----------------------10h13----------13p10h13--10-------------------------------------------------------------------|
G]-----------------9h12-----------------------------12p10h12p10-----12(14)-------12----10-----------------------------|
D]------------8h12--------------------------------------------------------------------------12------------------------|
A]-------8h12---------------------------------------------------------------------------------------------------------|
D]--------------------------------------------------------------------------------------------------------------------|

E]------------------------------------------------------------------------------------------------------------------|
B]---------10-------------10-------------10-------------10--------------10-------------10-------------------13(15)--|
G]---------10------x------10------x------10------x------10------x-------10------x------10------12-------------------|
D]------------------------------------------------------------------------------------------------------------------|
A]------------------------------------------------------------------------------------------------------------------|
D]------------------------------------------------------------------------------------------------------------------|

E]----10--13--12vvv-----10------10--------12----12--15--13vvv----12------13------13--17--15vvv-----13----15--15/18----|
B]----------------------------------13-15(17)----------------------15-16(18)------------------------------------------|
G]--------------------------------------------------------------------------------------------------------------------|
D]--------------------------------------------------------------------------------------------------------------------|
A]--------------------------------------------------------------------------------------------------------------------|
D]--------------------------------------------------------------------------------------------------------------------|

E]----17--------------------------------------------------------------------------------------------------------------|
B]-----------18-------------------------------------------------------------------------------------------------------|
G]------------------17\-----12-----------------------14---------------------------------------------------------------|
D]--------------------------------------------------------------------------------------------------------------------|
A]--------------------------------------------------------------------------------------------------------------------|
D]--------------------------------------------------------------------------------------------------------------------|
--
E]-------10-----------10----------------12-----------------13-----------13-----------------15-----------17------------|
B]----13(15)-------13(15)------------15(17)-------------16(18)-------16(18)-------------18(20)-------20(22)-----------|
G]--------------------------------------------------------------------------------------------------------------------|
D]--------------------------------------------------------------------------------------------------------------------|
A]--------------------------------------------------------------------------------------------------------------------|
D]--------------------------------------------------------------------------------------------------------------------|

Harmony part

Guitar 1
E]--------5-------------------------5-8h8p6p5----6-8-10-8----------------5------------|
B]------6-----8------5---/6-----6-8-----------8-------------10-8-6-----8---8-----6-5--|
G]----7----------------5--------------------------------------------------------------|
D]------------------------------------------------------------------------------------|
A]------------------------------------------------------------------------------------|
D]------------------------------------------------------------------------------------|

Guitar 2

E]------------------------------------5-3h5p3-----3-5-6-5------------------------------|
B]---------6--5-------------------5-6---------6-5-------------6-5-3-----5-6-5-----3----|
G]-------7-----------5---/7-----7---------------------------------------------------5--|
D]-----8---------------7---------------------------------------------------------------|
A]-------------------------------------------------------------------------------------|
D]-------------------------------------------------------------------------------------|

Guitar 1

E]---------5----------------------5-8-6h8p6p5----12------12-------12-(13)--(12)---------------------------------------|
B]-------6---8-----5---/6-----6-8-------------8-----10-8----10-8------------------------------------------------------|
G]-----7-------------5------------------------------------------------------------------------------------------------|
D]--------------------------------------------------------------------------------------------------------------------|
A]--------------------------------------------------------------------------------------------------------------------|
D]--------------------------------------------------------------------------------------------------------------------|

Guitar 2

E]----------------------------------5-3h5p3-----8-----8-----8--(10--(8)-----------------------------------------------|
B]---------6-5------------------5-6---------6-5---6-5---6-5-----------------------------------------------------------|
G]-------7---------5---/7-----7---------------------------------------------------------------------------------------|
D]-----8-------------7------------------------------------------------------------------------------------------------|
A]--------------------------------------------------------------------------------------------------------------------|
D]--------------------------------------------------------------------------------------------------------------------|

Guitar 1    Note: do this bit 2 times before the next bit

E]--------------------------------------------------------------------------------------------------------------------|
B]--------------------------------------------6-5-----------------------6-----8(10)(8)-6------------------------------|
G]------------------------------------------------7-5-------5-7-----7-7---7-7------------7----------------------------|
D]-----------7-----5-7-/10-----7------------7-------------7-----------------------------------------------------------|
A]-----8-7-8------------------------------8---------------------------------------------------------------------------|
D]--------------------------------------------------------------------------------------------------------------------|

Guitar 2

E]------------------------------------------5-------------------------5-----6(8)(6)-5---------------------------------|
B]---------------------5----------------------8-6-5-------5-6-----6-6---6-6-----------6-------------------------------|
G]-----------5-------5-------7--------------------------5-------------------------------------------------------------|
D]-----7-5-7-------8--------------------7-5---------------------------------------------------------------------------|
A]--------------------------------------------------------------------------------------------------------------------|
D]--------------------------------------------------------------------------------------------------------------------|

Guitar 1

E]-12p10------12p10------12p10------12p10------13p10-13p10-------13p10-13p10------13p10-------------------------------|
B]------11-11------11-11------11-11------11-11-------------11-11------------11-11------11-11--------------------------|
G]--------------------------------------------------------------------------------------------------------------------|
D]--------------------------------------------------------------------------------------------------------------------|
A]--------------------------------------------------------------------------------------------------------------------|
D]--------------------------------------------------------------------------------------------------------------------|

Guitar 2

E]-15p13------15p13------15p13------15p13------17p13-17p13------17p13-17p13------17p13-------|
B]------15-15------15-15-------15-15------15-15------------15-15------------15-15-----15-15--|
G]-------------------------------------------------------------------------------------------|
D]-------------------------------------------------------------------------------------------|
A]-------------------------------------------------------------------------------------------|
D]-------------------------------------------------------------------------------------------|

Guitar 1

E]-13p12------13p12------13p12------13p12------15p12-15p12------15p12-15p12------15p12--------------------------------|
B]------13-13------13-13------13-13------13-13------------13-13------------13-13------13-13---------------------------|
G]--------------------------------------------------------------------------------------------------------------------|
D]--------------------------------------------------------------------------------------------------------------------|
A]--------------------------------------------------------------------------------------------------------------------|
D]--------------------------------------------------------------------------------------------------------------------|

Guitar 2

E]-17p15------17p15------17p15------17p15------18p15-18p15------18p15-18p15------17p15--------------------------------|
B]------17-17------17-17------17-17------17-17------------17-17------------17-17------17-17---------------------------|
G]--------------------------------------------------------------------------------------------------------------------|
D]--------------------------------------------------------------------------------------------------------------------|
A]--------------------------------------------------------------------------------------------------------------------|
D]--------------------------------------------------------------------------------------------------------------------|

Guitar 1

E]-13p10----10--------------------------------------------------------------------------------------------------------|
B]-------13----13p10-13p10----10---------------------------------------13-----10-13-----(15)vvvvvvvvvvvvvvvvvvvv------|
G]-------------------------12----12p10-12p10----10-----12(14)-(12)--10------------------------------------------------|
D]-------------------------------------------12-----------------------------------------------------------------------|
A]--------------------------------------------------------------------------------------------------------------------|
D]--------------------------------------------------------------------------------------------------------------------|

E]-20p17----17--------------------------------------------------------------------------------------------------------|
B]-------20----20p17-20p17----17---------------------------------------20-----17-20-----(21-----(22)vvvvvvvvvvvvvvv---|
G]-------------------------19----19p17-19p17----17-----19(21)-(19)--17------------------------------------------------|
D]-------------------------------------------19-----------------------------------------------------------------------|
A]--------------------------------------------------------------------------------------------------------------------|
D]--------------------------------------------------------------------------------------------------------------------|

Epic Riff:
(4:50)
E]--------------------------------------------|
B]--------------------------------------------|
G]--3-------5-------7\------------------------|
D]--3-------5-------7\------------------------|
A]--1-------3-------5\------------------------|
D]------0-------0-----------------------------|
PM      .       .

E]--------------------------------------------|
B]--------------------------------------------|
G]--3-------5-------7\------------------------|
D]--3-------5-------7\------------------------|
A]--1-------3-------5\------------------------|
D]------0-------0-----------------------------|
PM      .       .

E]--------------------------------------------|
B]--------------------------------------------|
G]--3-------5-------7\------------------------|
D]--3-------5-------7\------------------------|
A]--1-------3-------5\------------------------|
D]------0-------0-----------------------------|
PM      .       .

E]---------------------------------------------------|
B]---------------------------------------------------|
G]--3-------5-------7\-------------------------------|
D]--3-------5-------7\-------------------------------|
A]--1-------3-------5\--0-0-0-0-0-0-0-0-0-0---ps\\\--|
D]------0-------0-------0-0-0-0-0-0-0-0-0-0---ps\\\--|
PM      .       .       . . . . . . . . . .

Outro Bridge:
(5:14)
E]-------------------------------------------------------------|
B]-------------------------------------------------------------|
G]--3-----5-----7-----------------3-----5----------------------|
D]--3-----5-----7-----------------3-----5-----5/7--3--3-3-3-3--|
A]--1-----3-----5--0-0-0-0-0-0-0--1-----5-----5/7--3--3-3-3-3--|
D]-----0-----0-----0-0-0-0-0-0-0-----0-----0--5/7--3--3-3-3-3--|
PM     .     .     . . . . . . .     .     .          . . . .

E]-------------------------------------------------------------|
B]-------------------------------------------------------------|
G]--3-----5-----7-----------------3-----5----------------------|
D]--3-----5-----7-----------------3-----5-----5/7--3--3-3-3-3--|
A]--1-----3-----5--0-0-0-0-0-0-0--1-----5-----5/7--3--3-3-3-3--|
D]-----0-----0-----0-0-0-0-0-0-0-----0-----0--5/7--3--3-3-3-3--|
PM     .     .     . . . . . . .     .     .          . . . .

E]-------------------------------------------------------------|
B]-------------------------------------------------------------|
G]--3-----5-----7-----------------3-----5----------------------|
D]--3-----5-----7-----------------3-----5-----5/7--3--3-3-3-3--|
A]--1-----3-----5--0-0-0-0-0-0-0--1-----5-----5/7--3--3-3-3-3--|
D]-----0-----0-----0-0-0-0-0-0-0-----0-----0--5/7--3--3-3-3-3--|
PM     .     .     . . . . . . .     .     .          . . . .

E]-------------------------------------------------------------|
B]-------------------------------------------------------------|
G]--3-----5-----7-----------------3-----5----------------------|
D]--3-----5-----7-----------------3-----5-----5/7--3--3-3-3-3--|
A]--1-----3-----5--0-0-0-0-0-0-0--1-----5-----5/7--3--3-3-3-3--|
D]-----0-----0-----0-0-0-0-0-0-0-----0-----0--5/7--3--3-3-3-3--|
PM     .     .     . . . . . . .     .     .          . . . .

E]-------------------------------------------------------------|
B]-------------------------------------------------------------|
G]--3-----5-----7-----------------3-----5----------------------|
D]--3-----5-----7-----------------3-----5-----5/7--3--3-3-3-3--|
A]--1-----3-----5--0-0-0-0-0-0-0--1-----5-----5/7--3--3-3-3-3--|
D]-----0-----0-----0-0-0-0-0-0-0-----0-----0--5/7--3--3-3-3-3--|
PM     .     .     . . . . . . .     .     .          . . . .

E]----------------------------------------------------|
B]----------------------------------------------------|
G]--3-----5-----7-----------------3-----5-------------|
D]--3-----5-----7-----------------3-----5-----5/7--3--|
A]--1-----3-----5--0-0-0-0-0-0-0--1-----5-----5/7--3--|
D]-----0-----0-----0-0-0-0-0-0-0-----0-----0--5/7--3--|
PM     .     .     . . . . . . .     .     .


                     -------------------------------
                     |     Like Light to Flies     |
                     -------------------------------


Intro

Guitar 1
E|--------|
B|--------|
G|-7----9-|
D|-x----x-|
A|-5----7-|
D|--------|

Guitar 2
E|---------|
B|---------|
G|---------|
D|-8----10-|
A|-8----10-|
D|-8----10-|

Verse
Guitars 1 and 2
E|-------------------------------------|
B|-------------------------------------|
G|-------------------------------------|
D|-------------------------------------|
A|-10--8--7--5--7-8-10--8--7--12--10-8-|
D|---00-00-00-00-0-0--00-00-00--00--0-0|
 pm  .. .. .. .. . .  .. .. ..  ..  . .

Guitar 1
E|-----------------------------------------|
B|-----------------------------------------|
G|-------------------10--9--7---14--12--10-|
D|--------------------x--x--x----x---x---x-|
A|-10--8--7--5--7-8---8--7--5---12--10---8-|
D|---00-00-00-00-0-0-----------------------|
pm   .. .. .. .. . .

Guitar 2
E|------------------------------------|
B|------------------------------------|
G|------------------------------------|
D|-------------------8---------10-----|
A|-10--8--7--5--7-8--8---------10-----|
D|---00-00-00-00-0-0-8---------10-----|
pm   .. .. .. .. . .

Guitars 1 and 2
E|-------------------------------------|
B|-------------------------------------|
G|-------------------------------------|
D|-------------------------------------|
A|-10--8--7--5--7-8-10--8--7--12--10-8-|
D|---00-00-00-00-0-0--00-00-00--00--0-0|
 pm  .. .. .. .. . .  .. .. ..  ..  . .

Guitar 1
E|-----------------------------------------|
B|-----------------------------------------|
G|-------------------10--9--7---14--12--10-|
D|--------------------x--x--x----x---x---x-|
A|-10--8--7--5--7-8---8--7--5---12--10---8-|
D|---00-00-00-00-0-0-----------------------|
pm   .. .. .. .. . .

Guitar 2
E|------------------------------------|
B|------------------------------------|
G|------------------------------------|
D|-------------------8---------10-----|
A|-10--8--7--5--7-8--8---------10-----|
D|---00-00-00-00-0-0-8---------10-----|
pm   .. .. .. .. . .

Verse Pt.2

Guitars 1 and 2
E|----------------------------------|
B|----------------------------------|
G|----------------------------------|
D|-8p0------------------3---5---7---|
A|-8p0--0-0-0-0-0-0-0-0-3-0-5-0-7-0-|
D|-8p0--0-0-0-0-0-0-0-0-3-0-5-0-7-0-|
   pm   . . . . . . . .   .   .   .

Guitar 1
E|----------------------------------|
B|----------------------------------|
G|----------------------10--9---7---|
D|-8p0------------------x---x---x---|
A|-8p0--0-0-0-0-0-0-0-0-8-0-7-0-5-0-|
D|-8p0--0-0-0-0-0-0-0-0---0---0---0-|
   pm   . . . . . . . .   .   .   .

Guitar 2
E|----------------------------------|
B|----------------------------------|
G|----------------------------------|
D|-8p0------------------7---5---3---|
A|-8p0--0-0-0-0-0-0-0-0-7-0-5-0-3-0-|
D|-8p0--0-0-0-0-0-0-0-0-7-0-5-0-3-0-|
   pm   . . . . . . . .   .   .   .

Guitars 1 and 2
E|----------------------------------|
B|----------------------------------|
G|----------------------------------|
D|-8p0------------------3---5---7---|
A|-8p0--0-0-0-0-0-0-0-0-3-0-5-0-7-0-|
D|-8p0--0-0-0-0-0-0-0-0-3-0-5-0-7-0-|
   pm   . . . . . . . .   .   .   .

E|----------------------------------|
B|----------------------------------|
G|----------------------------------|
D|----------------------------------|
A|---------5---------------7--------|
D|-8-7-5-7---8-7-5-8-7-5-7---8-7-5--|

Repeat Verse Pt. 2

Prechorus
Guitars 1 and 2
E|------------------------------------|
B|------------------------------------|
G|------------------------------------|
D|----------7-------------------------|
A|-8--8--7-----8--5--8--8--7-8-10-8-7-|
D|--88-88-88-88-------88-88-8-8--8-8--|
 pm .. .. .. ..       .. .. . .  . .

Guitars 1 and 2
E|------------------------------------|
B|------------------------------------|
G|------------------------------------|
D|----------7-------------------------|
A|-8--8--7-----8--5--8--8--7-8-10-8-7-|
D|--00-00-00-00-------00-00-0-0--0-0--|
 pm .. .. .. ..       .. .. . .  . .

Guitar 1
E|------------------------------------|
B|------------------------------------|
G|------------------------------------|
D|----------7-------------------------|
A|-8--8--7-----8--5--8--8--7-8-10-8-7-|
D|--88-88-88-88-------88-88-8-8--8-8--|
 pm .. .. .. ..       .. .. . .  . .

Guitar 2
E|------------------------------------|
B|------------------------------------|
G|----------5-------------------------|
D|-7--7--5-----7--3--7--7--5-7-8--7-5-|
A|------------------------------------|
D|------------------------------------|

Guitar 1
E|------------------------------------|
B|------------------------------------|
G|------------------------------------|
D|----------7-------------------------|
A|-8--8--7-----8--5--8--8--7-8-10-8-7-|
D|--00-00-00-00-------00-00-0-0--0-0--|
 pm .. .. .. ..       .. .. . .  . .

Guitar 2
E|--------------------------------------|
B|--------------------------------------|
G|----------5--------7----9----10----12-|
D|-7--7--5-----7--3--x----x-----x-----x-|
A|-------------------5----7-----8----10-|
D|--------------------------------------|

Prechorus Pt. 2
Guitar 1
E|------------------------------------|
B|------------------------------------|
G|------------------------------------|
D|----------7-------------------------|
A|-8--8--7-----8--5--8--8--7-8-10-8-7-|
D|--88-88-88-88-------88-88-8-8--8-8--|
 pm .. .. .. ..       .. .. . .  . .

Guitar 2
E|-----------------------------------|
B|-----------------------------------|
G|-3-----------5--7------------9--10-|
D|-x-----------x--x------------x--x--|
A|-1-----------3--5------------7--8--|
D|-----------------------------------|

Guitar 1
E|------------------------------------|
B|------------------------------------|
G|------------------------------------|
D|----------7-------------------------|
A|-8--8--7-----8--5--8--8--7-8-10-8-7-|
D|--00-00-00-00-------00-00-0-0--0-0--|
 pm .. .. .. ..       .. .. . .  . .

Guitar 2
E|-----------------------------------|
B|-----------------------------------|
G|-(10)----------0-------------10--9-|
D|-(x)-----------x-------------x---x-|
A|-(8)-----------2-------------9---7-|
D|-----------------------------------|

Guitar 1
E|------------------------------------|
B|------------------------------------|
G|------------------------------------|
D|----------7-------------------------|
A|-8--8--7-----8--5--8--8--7-8-10-8-7-|
D|--88-88-88-88-------88-88-8-8--8-8--|
 pm .. .. .. ..       .. .. . .  . .

Guitar 2
E|-----------------------------------|
B|-----------------------------------|
G|-3-----------5--7------------9--10-|
D|-x-----------x--x------------x--x--|
A|-1-----------3--5------------7--8--|
D|-----------------------------------|

Guitar 1
E|------------------------------------|
B|------------------------------------|
G|------------------------------------|
D|----------7-------------------------|
A|-8--8--7-----8--5--8--8--7-8-10-8-7-|
D|--00-00-00-00-------00-00-0-0--0-0--|
 pm .. .. .. ..       .. .. . .  . .

Guitar 2
E|------------------------------------|
B|------------------------------------|
G|-(10)--------------14---------------|
D|-(x)----------------x---------------|
A|-(8)---------------12---------------|
D|------------------------------------|

Chorus
Guitar 1
E|-----------------------------------|
B|-----------------------------------|
G|-----------------------------------|
D|-------10-------8---------7--------|
A|-8-7-8------8-7-----8-7-8---10-8-7-|
D|-----------------------------------|

Guitar 2
E|-----------------------------------|
B|-----------------------------------|
G|-----------------------------------|
D|-0-----0-0-0-------8------8-8-8----|
A|-0-----0-0-0-------8------8-8-8----|
D|-0-----0-0-0-------8------8-8-8----|
 pm      . .                  . .

Guitar 1
E|-----------------------------------|
B|-----------------------------------|
G|-----------------------------------|
D|-------10-------8---------7--------|
A|-8-7-8------8-7-----8-7-8---10-8-7-|
D|-----------------------------------|

Guitar 2
E|----------------------------------|
B|----------------------------------|
G|----------------------------------|
D|-3-----3-3-3-------7-------7-7-7--|
A|-3-----3-3-3-------7-------7-7-7--|
D|-3-----3-3-3-------7-------7-7-7--|
 pm      . .                   . .

Guitar 1
E|-------------------------------------|
B|-------------------------------------|
G|-------------------------------------|
D|-------10---------8---------7--------|
A|-8-7-8------8-7-8-----8-7-8---10-8-7-|
D|-------------------------------------|

Guitar 2
E|-------------------------------------|
B|-------------------------------------|
G|-------------------------------------|
D|-0-----0-0-0---------8------8-8-8----|
A|-0-----0-0-0---------8------8-8-8----|
D|-0-----0-0-0---------8------8-8-8----|
 pm      . .                  . .

Guitar 1
E|-------------------------------------|
B|-------------------------------------|
G|-------------------------------------|
D|-------10---------8---------7--------|
A|-8-7-8------8-7-8-----8-7-8---10-8-7-|
D|-------------------------------------|

Guitar 2
E|-------------------------------------|
B|-------------------------------------|
G|-------------------------------------|
D|-3-----3-3-3----------7------7-7-7---|
A|-3-----3-3-3----------7------7-7-7---|
D|-3-----3-3-3----------7------7-7-7---|
 pm      . .                   . .


Repeat Verse Pt. 1 and 2
Repeat Prechorus Pt. 1. and 2
Repeat Chorus


Solo Intro
Guitar 1
E|---------------------------------------------|
B|---------------------------------------------|
G|---------------------------------------------|
D|------7--------5---------5-8---8-7--10-8-7---|
A|--5-8------4-7---7-4---7-------------------8-|
D|-0-0-0--000-0-0-------0-0-0-00----88---------|
pm . . .  ... . .      . . . ..    ..
                                                        x2
Guitar 2
E|---------------------------------------------|
B|---------------------------------------------|
G|---------------------------------------------|
D|-0-------------------------------------------|
A|-0-------------------------------------------|
D|-0-------------------------------------------|


Solo

Guitar 2 plays this underneath solo
E|---------------------------------------------|
B|---------------------------------------------|
G|---------------------------------------------|
D|------7--------5---------5-8---8-7--10-8-7---|  4x
A|--5-8------4-7---7-4---7-------------------8-|
D|-0-0-0--000-0-0-------0-0-0-00----88---------|
pm . . .  ... . .      . . . ..    ..

Guitar 1
E|-------------------------------------------10h12h13-12-10-------------------------------|
B|-----------------------------------10h11h13--------------13p11p10---------------10------|
G|----------------7-10-9--7-9-10-9----------------------------------12h14h12p10-12--12-12-|
D|----------------------------------------------------------------------------------------|
A|-5--7-8-7--5-7--------------------------------------------------------------------------|
D|----------------------------------------------------------------------------------------|

E|--------------------------17--17--15-12h13p12p10------------------------------|
B|------------------------------------------------13p11p10--------------10------|
G|-15-15-15-15-15-14-14~~-14--14--14----------------------12h14h12p10-12--12-12-|
D|------------------------------------------------------------------------------|
A|------------------------------------------------------------------------------|
D|------------------------------------------------------------------------------|

E|-------------------------------------------------------------------------|
B|-------------------------------------------------------------------------|
G|---------------------------------12-14-15-14-15-17-15p14h15-12-14-15-14~-|
D|-12h13p12-10-12--14h15p14-12-14------------------------------------------|
A|-------------------------------------------------------------------------|
D|-------------------------------------------------------------------------|

E|-17p15p13------13-17-13--15p13p12------12-15-12--18p17p15------15-18-15-|
B|---------15--15------------------14--14------------------17--17---------|
G|-----------14----------------------15----------------------18-----------|
D|------------------------------------------------------------------------|
A|------------------------------------------------------------------------|
D|------------------------------------------------------------------------|

E|-20-18-17--18-17-----17-------------------22---|
B|---------20-----20-18--20-18-17-20-18-17-------|
G|----------------------------------------19-----|
D|-----------------------------------------------|
A|-----------------------------------------------|
D|-----------------------------------------------|

Guitar 2 (Clean)

E|-------13-13--------12-12--------10-10--------12-|
B|----15-15-15-----13-13-13-----11-11-10-----13-13-|
G|-14----14-14--12----12-12--10----10-10--12----12-|
D|-------------------------------------------------|               2x
A|-------------------------------------------------|
D|-------------------------------------------------|

Guitar 1
E|------------------------------15-15---22-22-18-18-20-20-|
B|---15-17-18-17h18p17-15-17-18---------------------------|
G|-14-----------------------------------------------------|
D|--------------------------------------------------------|
A|--------------------------------------------------------|
D|--------------------------------------------------------|

E|-----------------------------------15-15--17--18-18-20-20-22-22-|
B|-15------15-17-18-17h18p17-15-17-18-----------------------------|
G|-------14-------------------------------------------------------|
D|----------------------------------------------------------------|
A|----------------------------------------------------------------|
D|----------------------------------------------------------------|

Guitar 2
E|--------------------------------------------|
B|--------------------------------------------|
G|--------------------------------------------|
D|-0----------3------------5-----------8----7-|  4x
A|-0----------3------------5-----------8----7-|
D|-0----------3------------5-----------8----7-|

E|------------------------------------------------------13-15-17b(18)r17-15-|
B|-----------------------15-18-15------------------13-15--------------------|
G|---------------------12------------------12-14-15-------------------------|
D|-14-15-14h15p14-12-15------------12-14-15---------------------------------|
A|-------------------------------15-----------------------------------------|
D|--------------------------------------------------------------------------|

E|-17-15h17p15-----------15-17-20--22-17--18-17h18p17--17----------------------|
B|------------17-15-17-18----------------------------18--18-17-15-----15-18-15-|
G|---------------------------------------------------------------14-17---------|
D|-----------------------------------------------------------------------------|
A|-----------------------------------------------------------------------------|
D|-----------------------------------------------------------------------------|

E|------------------------------------10-10-------10-10-------10-10-------10-10-|
B|-13b(15)r13p10-13b(15)r13p10-13b(15)-----13b(15)-----13b(15)-----13b(15)------|
G|------------------------------------------------------------------------------|
D|------------------------------------------------------------------------------|
A|------------------------------------------------------------------------------|
D|------------------------------------------------------------------------------|

E|-12--13--15--17---20-17------17-20-17------18--20-17------17-20----------|
B|-----------------------18--18--------18--18---------18--18-----18--18-20-|
G|-------------------------19------------19-------------19---------19------|
D|-------------------------------------------------------------------------|
A|-------------------------------------------------------------------------|
D|-------------------------------------------------------------------------|

E|-20-17------17-20-17------17---20b(22)r20-17-24~~~-|
B|------18--18--------18--18-------------------------|
G|--------19------------19---------------------------|
D|---------------------------------------------------|
A|---------------------------------------------------|
D|---------------------------------------------------|


Bridge

Guitar 1
E|-------------------------------------|
B|-------------------------------------|
G|-------------------------------------|
D|-------------------------------------|
A|-10--8--7--5--7-8-10--8--7--12--10-8-|
D|---00-00-00-00-0-0--00-00-00--00--0-0|
 pm  .. .. .. .. . .  .. .. ..  ..  . .

Guitar 2
E|-------------------------------------|
B|-------------------------------------|
G|-------------------------------------|
D|-0----------------0------------------|
A|-0----------------0------------------|
D|-0----------------0------------------|

Guitar 1
E|-----------------------------------------|
B|-----------------------------------------|
G|-------------------10--9--7---14--12--10-|
D|--------------------x--x--x----x---x---x-|
A|-10--8--7--5--7-8---8--7--5---12--10---8-|
D|---00-00-00-00-0-0-----------------------|
pm   .. .. .. .. . .

Guitar 2
E|------------------------------------|
B|------------------------------------|
G|------------------------------------|
D|-------------------8---------10-----|
A|-10--8--7--5--7-8--8---------10-----|
D|---00-00-00-00-0-0-8---------10-----|
pm   .. .. .. .. . .


Prechorus
Guitar 1
E|------------------------------------|
B|------------------------------------|
G|------------------------------------|
D|----------7-------------------------|
A|-8--8--7-----8--5--8--8--7-8-10-8-7-|
D|--88-88-88-88-------88-88-8-8--8-8--|
 pm .. .. .. ..       .. .. . .  . .

Guitar 2
E|-----------------------------------|
B|-----------------------------------|
G|-3-----------5--7------------9--10-|
D|-x-----------x--x------------x--x--|
A|-1-----------3--5------------7--8--|
D|-----------------------------------|

Guitar 1
E|------------------------------------|
B|------------------------------------|
G|------------------------------------|
D|----------7-------------------------|
A|-8--8--7-----8--5--8--8--7-8-10-8-7-|
D|--00-00-00-00-------00-00-0-0--0-0--|
 pm .. .. .. ..       .. .. . .  . .

Guitar 2
E|-----------------------------------|
B|-----------------------------------|
G|-(10)----------0-------------10--9-|
D|-(x)-----------x-------------x---x-|
A|-(8)-----------2-------------9---7-|
D|-----------------------------------|

Guitar 1
E|------------------------------------|
B|------------------------------------|
G|------------------------------------|
D|----------7-------------------------|
A|-8--8--7-----8--5--8--8--7-8-10-8-7-|
D|--88-88-88-88-------88-88-8-8--8-8--|
 pm .. .. .. ..       .. .. . .  . .

Guitar 2
E|-----------------------------------|
B|-----------------------------------|
G|-3-----------5--7------------9--10-|
D|-x-----------x--x------------x--x--|
A|-1-----------3--5------------7--8--|
D|-----------------------------------|

Guitar 1
E|------------------------------------|
B|------------------------------------|
G|------------------------------------|
D|----------7-------------------------|
A|-8--8--7-----8--5--8--8--7-8-10-8-7-|
D|--00-00-00-00-------00-00-0-0--0-0--|
 pm .. .. .. ..       .. .. . .  . .

Guitar 2
E|------------------------------------|
B|------------------------------------|
G|-(10)--------------14---------------|
D|-(x)----------------x---------------|
A|-(8)---------------12---------------|
D|------------------------------------|

Repeat Chorus

Octave Chorus
Guitar 1
E|-------8--------6----------5-------|
B|-6-5-6------6-5------6-5-6---8-6-5-|
G|-----------------------------------|
D|-----------------------------------|
A|-----------------------------------|
D|-----------------------------------|

Guitar 2
E|-----------------------------------|
B|-----------------------------------|
G|-----------------------------------|
D|-0-----0-0-0-------8------8-8-8----|
A|-0-----0-0-0-------8------8-8-8----|
D|-0-----0-0-0-------8------8-8-8----|

Guitar 1
E|-------8--------6----------5-------|
B|-6-5-6------6-5------6-5-6---8-6-5-|
G|-----------------------------------|
D|-----------------------------------|
A|-----------------------------------|
D|-----------------------------------|

Guitar 2
E|-----------------------------------|
B|-----------------------------------|
G|-----------------------------------|
D|-3-----3-3-3--------7------7-7-7---|
A|-3-----3-3-3--------7------7-7-7---|
D|-3-----3-3-3--------7------7-7-7---|
 pm      . .                   . .

Guitar 1
E|-------8--------6----------5-------|
B|-6-5-6------6-5------6-5-6---8-6-5-|
G|-----------------------------------|
D|-----------------------------------|
A|-----------------------------------|
D|-----------------------------------|

Guitar 2
E|-----------------------------------|
B|-----------------------------------|
G|-----------------------------------|
D|-0-----0-0-0-------8------8-8-8----|
A|-0-----0-0-0-------8------8-8-8----|
D|-0-----0-0-0-------8------8-8-8----|

Guitar 1
E|-------8--------6----------5-------|
B|-6-5-6------6-5------6-5-6---8-6-5-|
G|-----------------------------------|
D|-----------------------------------|
A|-----------------------------------|
D|-----------------------------------|

Guitar 2
E|-----------------------------------|
B|-----------------------------------|
G|-----------------------------------|
D|-3-----3-3-3--------7------7-7-7---|
A|-3-----3-3-3--------7------7-7-7---|
D|-3-----3-3-3--------7------7-7-7---|
 pm      . .                   . .


Last Note
Guitar 1
E|-10----|
B|-x-----|
G|-7-----|
D|-------|
A|-------|
D|-------|

Guitar 2
E|-------|
B|-------|
G|-------|
D|-0-----|
A|-0-----|
D|-0-----|

Done.


                       --------------------------------
                       |      Dying in your Arms      |
                       --------------------------------


 Intro/Chorus
    Gtr I
||---------------15---------------------------------------------------------------------------||
||o-13---12-13------13-----12----12-13-12--------13---12-13---12-13-----12----12-13-12-------o||
||----------------------------14----------14-12----------------------------14----------14-12--||
||--------------------------------------------------------------------------------------------||
||o------------------------------------------------------------------------------------------o||
||--------------------------------------------------------------------------------------------||
|
|   Gtr II
||--------------------------------------------------------------------------------------------||
||o------------------------------------------------------------------------------------------o||
||--------------------------------------------------------------------------------------------||
||---7-7--7--7-7--7--7---2--2--2--2--2--2--2--2---3-3--3--3-3--3--3---5--5--5--5--2--2--2--2--||
||o--7-7--7--7-7--7--7---2--2--2--2--2--2--2--2---3-3--3--3-3--3--3---5--5--5--5--2--2--2--2-o||
||---7-7--7--7-7--7--7---2--2--2--2--2--2--2--2---3-3--3--3-3--3--3---5--5--5--5--2--2--2--2--||

Verse
 Gtrs I, II
  PM----M-----M-----M-----------------|
|------------------------------|------|
|------------------------------|------|
|------------------------------|------|
|-7-7---2-2---3-3---5-5---2-2--|------|
|-7-7---2-2---3-3---5-5---2-2--|------|
|-7-7---2-2---3-3---5-5---2-2--|------|

Prechorus
  Gtr I
|--------------------|--------------------|
|--------------------|--------------------|
|-9-9-9-7-7-12-12-12-|-9-9-9-7-7-12-12-12-|
|--------------------|--------------------|
|-7-7-7-5-5-10-10-10-|-7-7-7-5-5-10-10-10-|
|--------------------|--------------------|
|
| Gtr II
|--------------------|--------------------|
|--------------------|--------------------|
|--------------------|--------------------|
|-7-7-7-7-7--7--7--7-|-7-7-7-7-7--7--7--7-|
|-7-7-7-7-7--7--7--7-|-7-7-7-7-7--7--7--7-|
|-7-7-7-7-7--7--7--7-|-7-7-7-7-7--7--7--7-|


|--------------------|--------------------|
|--------------------|--------------------|
|-9-9-9-7-7-12-12-12-|-9-9-9-7-7-12-12-12-|
|--------------------|--------------------|
|-7-7-7-5-5-10-10-10-|-7-7-7-5-5-10-10-10-|
|--------------------|--------------------|
|
|--------------------|--------------------|
|--------------------|--------------------|
|--------------------|--------------------|
|-0-0-0-0-0--0--0--0-|-0-0-0-0-0--0--0--0-|
|-0-0-0-0-0--0--0--0-|-0-0-0-0-0--0--0--0-|
|-0-0-0-0-0--0--0--0-|-0-0-0-0-0--0--0--0-|


  Gtr I
|--------------------|--------------------|
|--------------------|--------------------|
|-9-9-9-7-7-12-12-12-|-9-9-9-7-7-12-12-12-|
|--------------------|--------------------|
|-7-7-7-5-5-10-10-10-|-7-7-7-5-5-10-10-10-|
|--------------------|--------------------|
|
| Gtr II
|--------------------|--------------------|
|--------------------|--------------------|
|--------------------|--------------------|
|-3-3-3-3-3--3--3--3-|-3-3-3-3-3--3--3--3-|
|-3-3-3-3-3--3--3--3-|-3-3-3-3-3--3--3--3-|
|-3-3-3-3-3--3--3--3-|-3-3-3-3-3--3--3--3-|


|--------------------|--------------------|
|--------------------|--------------------|
|-9-9-9-7-7-12-12-12-|-9-9-9-7-7-12-12-12-|
|--------------------|--------------------|
|-7-7-7-5-5-10-10-10-|-7-7-7-5-5-10-10-10-|
|--------------------|--------------------|
|
|--------------------|--------------------|
|--------------------|--------------------|
|--------------------|--------------------|
|-5-5-5-5-5--5--5--5-|-2-2-2-2-2--2--2--2-|
|-5-5-5-5-5--5--5--5-|-2-2-2-2-2--2--2--2-|
|-5-5-5-5-5--5--5--5-|-2-2-2-2-2--2--2--2-|


 Chorus


 Verse

 Prechorus

 Chorus   4x

Bridge
       PM   PM             PM   PM
||--------------------|--------------------||----|
||o-------------------|-------------------o||----|
||--------------------|--------------------||----|
||--7--0-2--0-3-(3)---|-7--0-2--0-5-(5)----||----|
||o-7--0-2--0-3-(3)---|-7--0-2--0-5-(5)---o||----|
||--7--0-2--0-3-(3)---|-7--0-2--0-5-(5)----||----|
|


Rhythm behind the solo
    PM|             PM|          PM|             PM|    PM      PM
||--------------------------------------------------------------------||-|
||o------------------------------------------------------------------o||-|
||------10-12--14-------7-9--5-------9-10--12--------12---14-12---10--||-|
||--------------------------------------------------------------------||-|
||o-0-0--8-10--12---0-0-5-7--3---0-0-7--8--10----0-0-10-0-12-10-0--8-o||-|
||--0-0-------------0-0----------0-0-------------0-0----0-------0-----||-|

Solo 1

  Guitar 1
E|----------------------------------------------------------------------8-----|
B|-13\10-10-10-10/12-12-12\8-8-8/10-10\5-5-3~-----------------------------8---|
G|-----------------------------------------------4~-4h5h7-7-9-9~-----7h9------|
D|----------------------------------------------------------------------------|
A|----------------------------------------------------------------------------|
D|----------------------------------------------------------------------------|


  Guitar 1
E|--12-10~----------15-13-12----12--------------------------------------------|
B|------------13-------------15----15-12----------------121315----------------|
G|---------------12----------------------12~-----141214-----------------------|
D|----------------------------------------------------------------------------|
A|----------------------------------------------------------------------------|
D|----------------------------------------------------------------------------|

Solo 2

  Guitar 1
E|--12p8----8h12p8h12p8----8h12p8h12p8----8---------10p7---7h10p7h10p7---7h10p-|
B|-------10-------------10-------------10----------------8-------------8-------|
G|-----------------------------------------------------------------------------|
D|-----------------------------------------------------------------------------|
A|-----------------------------------------------------------------------------|
D|-----------------------------------------------------------------------------|


  Guitar 2 (harmony)
E|-----------------------------------------------------------------------------|
B|-----------------------------------------------------------------------------|
G|--9p5---5h9p5h9p5---5h9p5h9p5---5--------7p4---4h7p4h7p4--4h7p4h7p4---4------|
D|------7-----------7-----------7--------------5-----------5----------5--------|
A|-----------------------------------------------------------------------------|
D|-----------------------------------------------------------------------------|


  Guitar 1
E|--7h10p7---7----------5h8p5---5h8p5h8p5---5h8p5h8p5---5--------|
B|---------8------------------6-----------6-----------6----------|
G|---------------------------------------------------------------|
D|---------------------------------------------------------------|
A|---------------------------------------------------------------|
D|---------------------------------------------------------------|


  Guitar 2 (harmony)
E|--------------------------------------|
B|--------------------------------------|
G|--2h5p2---2h5p2h5p2---2h5p2h5p2--2----|
D|--------3-----------3-----------3-----|
A|--------------------------------------|
D|--------------------------------------|


  Guitar 1
E|-13-12-10---12-10-------10-----------------=----------|
B|----------13------13-12----13-12-10-13-12-10----------|
G|---------------------------------------------12-------|
D|------------------------------------------------------|
A|------------------------------------------------------|
D|------------------------------------------------------|


  Guitar 2 (harmony)
E|------------------------------------------------------|
B|------------------------------------------------------|
G|---10-9-7----9-7------7-------------------------------|
D|----------10-----10-9---10-9-7-10-9-7-----------------|
A|------------------------------------------------------|
D|------------------------------------------------------|

The harmony part should sound about right.

\=slide
~=vibrato
h=hammer on
p=pull off

Part one of Solo    X1
Part two of Solo    X2


                         ----------------------------
                         |       The Decieved       |
                         ----------------------------


the only other decieved tab was pretty hard to read and get through so i thought
i'd tab out how i think its played and well yeh its
pretty close but i dont think perfect

Gtr I (D A D G B E) - \'Matt Heafy\'
Gtr II (D A D G B E) - \'Corey Beaulieu\'
Gtr III (D A D G B E) - \'Harmonies/Fills\'

Order-  | Intro/Verse   |
        | Pre-Chorus    |
        | Pre-Chorus #2 |  X 2
        | Chorus        |
        -----------------
          Bridge
          Solo 1
          Bridge 2
          Solo 2
          Chorus
          Ending

 Intro/Verse
  Q=213
 4/4
  Gtrs I, II
|-------------------------|-----------------------|
|-------------------------|-----------------------|
|-------------------------|-----------------------|
|-------------------------|-----------------------|
|-4--4-4-4--4-4-4--4-4-4--|-4-4-4--4-4-4--------4-|
|-4--4-4-4--4-4-4--4-4-4--|-4-4-4--4-4-4--4-6-7-4-|


|---------------------------|---------------|----------------------------|
|---------------------------|---------------|----------------------------|
|---------------------------|---------------|----------------------------|
|---------------------------|---------------|----------------------------|
|-(4)--4-4-4--4-4-4--4-4-4--|-------------4-|-(4)--4-4-4--4-4-4--4-4-4---|
|-(4)--4-4-4--4-4-4--4-4-4--|-0--7--6-4-2-4-|-(4)--4-4-4--4-4-4--4-4-4---|


|-----------------------|---------------------------|------|
|-----------------------|---------------------------|------|
|-----------------------|---------------------------|------|
|-----------------------|---------------------------|------|
|-4-4-4--4-4-4--------4-|-(4)--4-4-4--4-4-4--4-4-4--|-0----|
|-4-4-4--4-4-4--4-6-7-4-|-(4)--4-4-4--4-4-4--4-4-4--|-0----|


 Pre-Chorus
  Gtr I
|-----------------------|----------------------|
|-----------------------|----------------------|
|-----------------------|----------------------|
|-----------------------|-------------6-7-6----|
|-----------------------|----------------------|
|-2-0-0--0--0--0--0--0--|-0--0--0--0--------2--|
|
| Gtr II
|-----------------------|----------------------|
|-----------------------|----------------------|
|-----------------------|----------------------|
|-----------------------|-------------2-4-2----|
|-----------------------|----------------------|
|-2-0-0--0--0--0--0--0--|-0--0--0--0--------2--|


|-------------------------|-----------------------|
|-------------------------|-----------------------|
|-------------------------|-----------------------|
|-------------------------|-7-------9----11-------|
|-------------------------|-----------------------|
|-(2)-0-0--0--0--0--0--0--|---0--0----0-----0--4--|
|
|-------------------------|-----------------------|
|-------------------------|-----------------------|
|-------------------------|-----------------------|
|-------------------------|-4-------6-----7-------|
|-------------------------|-----------------------|
|-(2)-0-0--0--0--0--0--0--|---0--0----0-----0--4--|


  Gtrs I, II
|-------------------------|----------------------|
|-------------------------|----------------------|
|-------------------------|----------------------|
|-------------------------|-7-------6----4-------|
|-------------------------|----------------------|
|-(4)-4-4--4--4--4--4--4--|---4--4----4----4--4--|


|-------------------------|------------------|
|-------------------------|------------------|
|-------------------------|-6----------------|
|-------------------------|---9-7-6---6-7-9--|
|-------------------------|---------9--------|
|-(4)-4-4--4--4--4--4--4--|------------------|
|
|-------------------------|------------------|
|-------------------------|------------------|
|-------------------------|------------------|
|-------------------------|-7-6-4-------4-6--|
|-------------------------|-------7-5-7------|
|-(4)-4-4--4--4--4--4--4--|------------------|


 Pre-Chorus #2
|-----------------|-----------------|
|-----------------|-----------------|
|-----------------|-----------------|
|-----------------|-----------------|
|-----------------|-----------------|
|-2-0-0-0-2-0-0-0-|-4-0-0-7-0-6-0-4-|


|---------------------------|------------------|----|
|---------------------------|------------------|----|
|---------------------------|------------------|----|
|---------------------------|------------------|----|
|---------------------------|------------------|----|
|-(4)--4-4-4--4-4-4--4-4-4--|-4-6-6-7-7-9-9-11-|----|


 Chorus
|--------------------------|--------------------------------|
|--------------------------|--------------------------------|
|--------------------------|--------------------------------|
|--0-0-----------------0-0-|-----------------0----0---------|
|--0-0-----------------0-0-|-----------------0----0---------|
|--0-0-<4>-<4>-<4>-<4>-0-0-|-<4>-<4>-<4>-<4>-0----0-<4>-<4>-|
|
|--------------------------|--------------------------------|
|-10--------9--(9)-----7---|-(7)-----10------9h10p9--7------|
|--------------------------|--------------------------------|
|--------------------------|--------------------------------|
|--------------------------|--------------------------------|
|--------------------------|--------------------------------|


|-----------------------------|
|-----------------------------|
|-----------------------------|
|--2-2-----------------2-2----|
|--2-2-----------------2-2----|
|--2-2-<4>-<4>-<4>-<4>-2-2----|
|
|-----------------------------|
|-10--------9--(9)------------|
|----------------------9------|
|-----------------------------|
|-----------------------------|
|-----------------------------|


|--------------------------------|--------------------------|
|--------------------------------|--------------------------|
|--------------------------------|--------------------------|
|-----------------2----2---------|--4-4-----------------4-4-|
|-----------------2----2---------|--4-4-----------------4-4-|
|-<4>-<4>-<4>-<4>-2----2-<4>-<4>-|--4-4-<4>-<4>-<4>-<4>-4-4-|
|
|--------------------------------|--------------------------|
|---------10------9h10p9---------|-10--------9--(9)-----7---|
|--9----------------------9------|--------------------------|
|--------------------------------|--------------------------|
|--------------------------------|--------------------------|
|--------------------------------|--------------------------|


|--------------------------------|--------------------------|
|--------------------------------|--------------------------|
|--------------------------------|--------------------------|
|-----------------4----4---------|--4-4-----------------4-4-|
|-----------------4----4---------|--4-4-----------------4-4-|
|-<4>-<4>-<4>-<4>-4----4-<4>-<4>-|--4-4-<4>-<4>-<4>-<4>-4-4-|
|
|--------------------------------|--------------------------|
|-(7)-----10------9h10p9--7------|-10--------9--(9)-----7---|
|--------------------------------|--------------------------|
|--------------------------------|--------------------------|
|--------------------------------|--------------------------|
|--------------------------------|--------------------------|


|-----------------------------|----------------|
|-----------------------------|----------------|
|-----------------------------|----------------|
|------------------2----------|--0-------------|
|------------------2----------|--0-------------|
|-<4>-<4>-<4>-<4>--2----------|--0-------------|
|
|-----------------------------|----------------|
|-----12----------------------|-10---9-(9)--7--|
|-11------14--13--14-13-11----|----------------|
|--------------------------14-|----------------|
|-----------------------------|----------------|
|-----------------------------|----------------|


|--------------------|-----------------|
|--------------------|-----------------|
|--------------------|-----------------|
|-(0)----------------|--2--------------|
|-(0)----------------|--2--------------|
|-(0)----------------|--2--------------|
|
|--------------------|-----------------|
|-(7)--10--9h10p9-7--|-10---9-(9)------|
|--------------------|-------------9---|
|--------------------|-----------------|
|--------------------|-----------------|
|--------------------|-----------------|


|--------------------|----------------|--------------------|----------------|
|--------------------|----------------|--------------------|----------------|
|--------------------|----------------|--------------------|--6-------------|
|-(2)----------------|--4-------------|-(4)----------------|----------------|
|-(2)----------------|--4-------------|-(4)----------------|--4-------------|
|-(2)----------------|--4-------------|-(4)----------------|----------------|
|
|--------------------|----------------|--------------------|----------------|
|------10--9h10p9----|-10---9-(9)--7--|-(7)--10--9h10p9-7--|-10---9-(9)--7--|
|-(9)-------------9--|----------------|--------------------|----------------|
|--------------------|----------------|--------------------|----------------|
|--------------------|----------------|--------------------|----------------|
|--------------------|----------------|--------------------|----------------|


|--------------------------|----------------|
|--------------------------|----------------|
|-(6)----------------------|----------------|
|--------------------------|--0-------------|
|-(4)----------------------|--0-------------|
|--------------------------|--0-------------|
|
|--------------------------|----------------|
|-----14-------------------|-10---9-(9)--7--|
|-11-----14-13-14-13-11----|----------------|
|-----------------------14-|----------------|
|--------------------------|----------------|
|--------------------------|----------------|


|--------------------|-----------------|
|--------------------|-----------------|
|--------------------|-----------------|
|-(0)----------------|--2--------------|
|-(0)----------------|--2--------------|
|-(0)----------------|--2--------------|
|
|--------------------|-----------------|
|-(7)--10--9h10p9-7--|-10---9-(9)------|
|--------------------|-------------9---|
|--------------------|-----------------|
|--------------------|-----------------|
|--------------------|-----------------|


|--------------------|----------------|--------------------|---------------|
|--------------------|----------------|--------------------|---------------|
|--------------------|----------------|--------------------|---------------|
|-(2)----------------|--4-------------|-(4)----------------|-7---6-(6)-----|
|-(2)----------------|--4-------------|-(4)----------------|------------9--|
|-(2)----------------|--4-------------|-(4)----------------|---------------|
|
|--------------------|----------------|--------------------|---------------|
|------10--9h10p9----|-10---9-(9)--7--|-(7)--10--9h10p9-7--|---------------|
|-(9)-------------9--|----------------|--------------------|-6-------------|
|--------------------|----------------|--------------------|-----9-(9)--7--|
|--------------------|----------------|--------------------|---------------|
|--------------------|----------------|--------------------|---------------|


|--------------------|---------------|----|
|--------------------|---------------|----|
|--------------------|---------------|----|
|-------7--6h=7p6----|---------------|----|
|-(9)-------------9--|---------------|----|
|--------------------|---------------|----|
|
|--------------------|---------------|----|
|--------------------|---------------|----|
|--------------------|---------------|----|
|-(7)--11--9h11p9-7--|---------------|----|
|--------------------|---------------|----|
|--------------------|---------------|----|


 Bridge
|----------|------------|--------|
|----------|------------|--------|
|----------|------------|--------|
|-4--------|-(4)--------|-(4)----|
|-4--------|-(4)--------|-(4)----|
|-4--------|-(4)--------|-(4)----|
|
|----------|------------|--------|
|----------|------------|--------|
|----------|------------|--------|
|-4--------|-(4)--------|-(4)----|
|-4--------|-(4)--------|-(4)----|
|-4--------|-(4)--------|-(4)----|


  Gtr I
|---------|---------------|---------------|----------------|
|---------|---------------|---------------|----------------|
|---------|---------------|---------------|----------------|
|---------|-4---6-(6)--7--|-9---7-(7)--6--|------6-(6)--7--|
|---------|---------------|---------------|--7-------------|
|---------|---------------|---------------|----------------|
|
| Gtr II
|---------|---------------|---------------|----------------|
|---------|---------------|---------------|----------------|
|---------|------------6--|-7---6-(6)-----|-------------6--|
|---------|-7---9-(9)-----|------------9--|------9-(9)-----|
|---------|---------------|---------------|-11-------------|
|---------|---------------|---------------|----------------|


|---------------|---------------|---------------|----------------|
|---------------|---------------|---------------|----------------|
|---------------|---------------|---------------|----------------|
|-9---7-(7)--6--|-----6-(6)--7--|-9---7-(7)--6--|------6-(6)--7--|
|---------------|-5-------------|---------------|--7-------------|
|---------------|---------------|---------------|----------------|
|
|---------------|---------------|---------------|----------------|
|---------------|---------------|---------------|----------------|
|-7---6-(6)-----|------------6--|-7---6-(6)-----|-------------6--|
|------------9--|-----9-(9)-----|------------9--|------9-(9)-----|
|---------------|-9-------------|---------------|-11-------------|
|---------------|---------------|---------------|----------------|


|---------------|---------------|---------------|----------------|
|---------------|---------------|---------------|----------------|
|---------------|---------------|---------------|----------------|
|-9---7-(7)--6--|-4---6-(6)--7--|-9---7-(7)--6--|------6-(6)--7--|
|---------------|---------------|---------------|--7-------------|
|---------------|---------------|---------------|----------------|
|
|---------------|---------------|---------------|----------------|
|---------------|---------------|---------------|----------------|
|-7---6-(6)-----|------------6--|-7---6-(6)-----|-------------6--|
|------------9--|-7---9-(9)-----|------------9--|------9-(9)-----|
|---------------|---------------|---------------|-11-------------|
|---------------|---------------|---------------|----------------|


|---------------|---------------|---------------|----------------|
|---------------|---------------|---------------|----------------|
|---------------|---------------|---------------|----------------|
|-9---7-(7)--6--|-----6-(6)--7--|-9---7-(7)--6--|------6-(6)--7--|
|---------------|-5-------------|---------------|--7-------------|
|---------------|---------------|---------------|----------------|
|
|---------------|---------------|---------------|----------------|
|---------------|---------------|---------------|----------------|
|-7---6-(6)-----|------------6--|-7---6-(6)-----|-------------6--|
|------------9--|-----9-(9)-----|------------9--|------9-(9)-----|
|---------------|-9-------------|---------------|-11-------------|
|---------------|---------------|---------------|----------------|

                 Bridge 2
|---------------|--------------------------|-------------------------|
|---------------|--------------------------|-------------------------|
|---------------|--------------------------|-------------------------|
|-9---7-(7)--6--|--------------------------|-------------------------|
|---------------|-4-4-4-4-4-4-4-4--4-------|--------4--4-4-4-4-4-4-4-|
|---------------|-4-4-4-4-4-4-4-4--4-------|--------4--4-4-4-4-4-4-4-|
|
|---------------|--------------------------|-------------------------|
|---------------|--------------------------|-------------------------|
|-7---6-(6)-----|--------------------------|-------------------------|
|------------9--|--------------------------|-------------------------|
|---------------|-4-4-4-4-4-4-4-4--4-------|--------4--4-4-4-4-4-4-4-|
|---------------|-4-4-4-4-4-4-4-4--4-------|--------4--4-4-4-4-4-4-4-|
|
| Gtr III
|---------------|--------------------------|-------------------------|
|---------------|--------------------------|-------------------------|
|---------------|--------------------------|-------------------------|
|---------------|-4-----------6---(6)---7--|-9---7-(7)-------6-------|
|---------------|--------------------------|-------------------------|
|---------------|--------------------------|-------------------------|


  Gtrs I, II
|--------------------------|-------------------------|
|--------------------------|-------------------------|
|--------------------------|-------------------------|
|--------------------------|-------------------------|
|-2-2-2-2-2-2-2-2--2-------|--------2--2-2-2-2-2-2-2-|
|-2-2-2-2-2-2-2-2--2-------|--------2--2-2-2-2-2-2-2-|
|
| Gtr III
|--------------------------|-------------------------|
|--------------------------|-------------------------|
|--------------------------|-------------------------|
|-------------6---(6)---7--|-9---7-(7)-------6-------|
|-7------------------------|-------------------------|
|--------------------------|-------------------------|


|--------------------------|-------------------------|
|--------------------------|-------------------------|
|--------------------------|-------------------------|
|--------------------------|-------------------------|
|-0-0-0-0-0-0-0-0--0-------|--------0--0-0-0-0-0-0-0-|
|-0-0-0-0-0-0-0-0--0-------|--------0--0-0-0-0-0-0-0-|
|
|--------------------------|-------------------------|
|--------------------------|-------------------------|
|--------------------------|-------------------------|
|-------------6---(6)---7--|-9---7-(7)-------6-------|
|-5------------------------|-------------------------|
|--------------------------|-------------------------|


|--------------------------|-------------------------|
|--------------------------|-------------------------|
|--------------------------|-------------------------|
|--------------------------|-------------------------|
|-2-2-2-2-2-2-2-2--2-------|--------2--2-2-2-2-2-2-2-|
|-2-2-2-2-2-2-2-2--2-------|--------2--2-2-2-2-2-2-2-|
|
|--------------------------|-------------------------|
|--------------------------|-------------------------|
|--------------------------|-------------------------|
|-------------6---(6)---7--|-9---7-(7)-------6-------|
|-7------------------------|-------------------------|
|--------------------------|-------------------------|


|--------------------------|-------------------------|
|--------------------------|-------------------------|
|--------------------------|-------------------------|
|--------------------------|-------------------------|
|-4-4-4-4-4-4-4-4--4-------|--------4--4-4-4-4-4-4-4-|
|-4-4-4-4-4-4-4-4--4-------|--------4--4-4-4-4-4-4-4-|
|
|--------------------------|-------------------------|
|--------------------------|-------------------------|
|--------------------------|-------------------------|
|-4-----------6---(6)---7--|-9---7-(7)-------6-------|
|--------------------------|-------------------------|
|--------------------------|-------------------------|


|--------------------------|-------------------------|
|--------------------------|-------------------------|
|--------------------------|-------------------------|
|--------------------------|-------------------------|
|-2-2-2-2-2-2-2-2--2-------|--------2--2-2-2-2-2-2-2-|
|-2-2-2-2-2-2-2-2--2-------|--------2--2-2-2-2-2-2-2-|
|
|--------------------------|-------------------------|
|--------------------------|-------------------------|
|--------------------------|-------------------------|
|-------------6---(6)---7--|-9---7-(7)-------6-------|
|-7------------------------|-------------------------|
|--------------------------|-------------------------|


|--------------------------|-------------------------|---------------|
|--------------------------|-------------------------|---------------|
|--------------------------|-------------------------|---------------|
|--------------------------|-------------------------|-2-------------|
|-0-0-0-0-0-0-0-0--0-------|--------0--0-0-0-0-0-0-0-|-2-------------|
|-0-0-0-0-0-0-0-0--0-------|--------0--0-0-0-0-0-0-0-|-2-------------|
|
|--------------------------|-------------------------|---------------|
|--------------------------|-------------------------|---------------|
|--------------------------|-------------------------|---------------|
|-------------6---(6)---7--|-9---7-(7)-------6-------|-----6-(6)--7--|
|-5------------------------|-------------------------|-7-------------|
|--------------------------|-------------------------|---------------|


 Solo #1 Beaulieu
  Gtr I
|-----------------|----------------|---------------------|---------------|
|-----------------|----------------|---------------------|---------------|
|-----------------|----------------|---------------------|---------------|
|-(2)------2------|-4--------------|-(4)-------7---------|--2------------|
|-(2)------2------|-4--------------|-(4)-------7---------|--2------------|
|-(2)------2------|-4--------------|-(4)-------7---------|--2------------|
|
| Gtr II          (Beaulieu Solo)
|-----------------|----------------|---------------------|---------------|
|-----------------|----------------|---------------------|----------7-9--|
|-----------------|----------------|-------------------9-|-(9)-----------|
|-(2)------2------|-4----(4)-4-6-7-|--4--6-7-6-7-9-7-6---|---------------|
|-(2)------2------|----------------|---------------------|---------------|
|-(2)------2------|----------------|---------------------|---------------|
|
| Gtr III
|-----------------|----------------|---------------------|---------------|
|-----------------|----------------|---------------------|---------------|
|-----------------|----------------|---------------------|---------------|
|--9----7-(7)--6--|----------------|---------------------|---------------|
|-----------------|----------------|---------------------|---------------|
|-----------------|----------------|---------------------|---------------|


|--------------------------------|
|--------------------------------|
|--------------------------------|
|-(2)-----6-----------7----------|
|-(2)-----6-----------7----------|
|-(2)-----6-----------7----------|
|
|--------------------------------|
|--7-----------------------17-19-|
|-----------------16-18-19-------|
|--------16-18-19----------------|
|--------------------------------|
|--------------------------------|
|
|--------------------------16-17-|
|-----------------15-17-19-------|
|--------14-16-18----------------|
|--------------------------------|
|--------------------------------|
|--------------------------------|


|------------------|-----------------------------|
|------------------|-----------------------------|
|------------------|-----------------------------|
|--0---------------|-(0)-----6---------7---------|
|--0---------------|-(0)-----6---------7---------|
|--0---------------|-(0)-----6---------7---------|
|
|-16b17------16-17-|-16---------------16-17--19--|
|------------------|--------15-17--19------------|
|------------------|-----------------------------|
|------------------|-----------------------------|
|------------------|-----------------------------|
|------------------|-----------------------------|
|
|-19b20------19-21-|-19---------------19-21--22--|
|------------------|--------19-21--22------------|
|------------------|-----------------------------|
|------------------|-----------------------------|
|------------------|-----------------------------|
|------------------|-----------------------------|


|-------------------|--------------------|
|-------------------|--------------------|
|-------------------|--------------------|
|--2----------------|--------------------|
|--2----------------|--7-6-(6)--7-6-(6)--|
|--2----------------|--7-6-(6)--7-6-(6)--|
|
|-19b21------19b21--|-19-----------------|
|-------------------|--------------------|
|-------------------|--------------------|
|-------------------|--------------------|
|-------------------|--------------------|
|-------------------|--------------------|
|
|-22b24------22b24--|-22-----------------|
|-------------------|--------------------|
|-------------------|--------------------|
|-------------------|--------------------|
|-------------------|--------------------|
|-------------------|--------------------|


|------------------------------------------|
|------------------------------------------|
|------------------------------------------|
|--4---------------------------------------|
|--4---------------------------------------|
|--4---------------------------------------|
|
|-21-17------------17-21-17------------17--|
|--------19----19------------19----19------|
|-----------18------------------18---------|
|------------------------------------------|
|------------------------------------------|
|------------------------------------------|
|
|------------------------------------------|
|------------------------------------------|
|------------------------------------------|
|------------------------------------------|
|------------------------------------------|
|------------------------------------------|


|------------------------------------|-------------------|--------------------|
|------------------------------------|-------------------|--------------------|
|-----------------------2------------|-------------------|--------------------|
|-(4)-------------------2------------|--2----------------|-(2)--------6----7--|
|-(4)-------------------0------------|--2----------------|-(2)--------6----7--|
|-(4)--------------------------------|--2----------------|-(2)--------6----7--|
|
|-21--17------------17-21-17---------|-17---16-(16)--14--|--------------------|
|---------19----19------------19-----|-------------------|-15----14-(14)--12--|
|------------18------------------18--|-------------------|--------------------|
|------------------------------------|-------------------|--------------------|
|------------------------------------|-------------------|--------------------|
|------------------------------------|-------------------|--------------------|
|
|------------------------------------|-------------------|--------------------|
|------------------------------------|-19---17-(17)--15--|--------------------|
|------------------------------------|-------------------|-16----14-(14)--13--|
|------------------------------------|-------------------|--------------------|
|------------------------------------|-------------------|--------------------|
|------------------------------------|-------------------|--------------------|


|---------------|--------------------|
|---------------|--------------------|
|---------------|--------------------|
|--0------------|-(0)---------6---7--|
|--0------------|-(0)---------6---7--|
|--0------------|-(0)---------6---7--|
|
|---------------|--------------------|
|-15------15-15-|-15S14-14--(14)-----|
|---------------|--------------------|
|---------------|--------------------|
|---------------|--------------------|
|---------------|--------------------|
|
|---------------|--------------------|
|-19------19-19-|-19S17-17--(17)-----|
|---------------|--------------------|
|---------------|--------------------|
|---------------|--------------------|
|---------------|--------------------|


|-------------------------|---------------------------|
|-------------------------|---------------------------|
|-------------------------|---------------------------|
|--2----------------------|---------------------------|
|--2----------------------|--7--6-(6)-----7--6-(6)----|
|--2----------------------|--7--6-(6)-----7--6-(6)----|
|
|-------------------------|---------------------------|
|-------------------------|---------------------------|
|-13-13-13-14-14-14-13-13-|-16-16-16--14-14-14-13--13-|
|-------------------------|---------------------------|
|-------------------------|---------------------------|
|-------------------------|---------------------------|
|
|-------------------------|---------------------------|
|-12-12-12-14-14-14-12-12-|-15-15-15--14-14-14-12--12-|
|-------------------------|---------------------------|
|-------------------------|---------------------------|
|-------------------------|---------------------------|
|-------------------------|---------------------------|

  Gtr I   (Heafy Solo)
|--------------------------|--------------------|-----------------|
|--------------------------|-----------------10-|-9-----------9---|
|----------9-----------9---|--------------------|---7-6-4-6-7---7-|
|------------7-6---6-7---7-|--6----6-7-6-7-9----|-----------------|
|----------------9---------|-----9--------------|-----------------|
|--------------------------|--------------------|-----------------|
|
| Gtr II
|--------------------------|--------------------|-----------------|
|--------------------------|--------------------|-----------------|
|--------------------------|--------------------|-----------------|
|----------4---------------|-(4)-------7--------|-2---------------|
|----------4---------------|-(4)-------7--------|-2---------------|
|----------4---------------|-(4)-------7--------|-2---------------|


|----------------------|-17---16-(16)------|--------------------|
|-----------9-10-10-12-|---------------17--|-15----14-(14)--12--|
|--6----6-7------------|-------------------|--------------------|
|-----9----------------|-------------------|--------------------|
|----------------------|-------------------|--------------------|
|----------------------|-------------------|--------------------|
|
|----------------------|-------------------|--------------------|
|----------------------|-------------------|--------------------|
|----------------------|-------------------|--------------------|
|-(2)-------6-----7----|--0----------------|-(0)--------6----7--|
|-(2)-------6-----7----|--0----------------|-(0)--------6----7--|
|-(2)-------6-----7----|--0----------------|-(0)--------6----7--|
|
|----------------------|-14---12-(12)------|--------------------|
|----------------------|---------------14--|-12----10-(10)---9--|
|----------------------|-------------------|--------------------|
|----------------------|-------------------|--------------------|
|----------------------|-------------------|--------------------|
|----------------------|-------------------|--------------------|


|-19-16------------16-17-16------------16-|
|--------17----17------------17----17-----|
|-----------18------------------16--------|
|-----------------------------------------|
|-----------------------------------------|
|-----------------------------------------|
|
|-----------------------------------------|
|-----------------------------------------|
|-----------------------------------------|
|--2--------------------------------------|
|--2--------------------------------------|
|--2--------------------------------------|


|-19-16--------------16-17-16--------------16-|
|---------17-----17-------------17-----17-----|
|------------18--------------------16---------|
|---------------------------------------------|
|---------------------------------------------|
|---------------------------------------------|
|
|---------------------------------------------|
|---------------------------------------------|
|---------------------------------------------|
|---------------------------------------------|
|--7----6----(6)---------7----6----(6)--------|
|--7----6----(6)---------7----6----(6)--------|


|--------14-------14-14------|-14---------14-------14-16-14-|
|-17b19-----17b19----17b19---|-----17b19-----17b19----------|
|----------------------------|------------------------------|
|----------------------------|------------------------------|
|----------------------------|------------------------------|
|----------------------------|------------------------------|
|
|----------------------------|------------------------------|
|----------------------------|------------------------------|
|----------------------------|------------------------------|
|--4-------------------------|-(4)------------7-------------|
|--4-------------------------|-(4)------------7-------------|
|--4-------------------------|-(4)------------7-------------|
|
| Gtr III
|----------------------------|------------------------------|
|----------------------------|------------------------------|
|----------------------------|------------------------------|
|----------------------------|------------------------------|
|----------------------------|------------------------------|
|----------------------------|------------------------------|


|-16b17------16b17r=14-|-16b17-16b17-(16)--(16)-----|
|----------------------|----------------------------|
|----------------------|----------------------------|
|----------------------|----------------------------|
|----------------------|----------------------------|
|----------------------|----------------------------|
|
|----------------------|----------------------------|
|----------------------|----------------------------|
|----------------------|----------------------------|
|--2-------------------|-(2)-----------------6---7--|
|--2-------------------|-(2)-----------------6---7--|
|--2-------------------|-(2)-----------------6---7--|
|
|-19b21------19pb21r17-|-19b21-19b21-(19)--(19)-----|
|----------------------|----------------------------|
|----------------------|----------------------------|
|----------------------|----------------------------|
|----------------------|----------------------------|
|----------------------|----------------------------|


|----17-------16-------14-|--------17----17----17----|
|-14----14s12----12s10----|-12s=14----14----14----14-|
|-------------------------|--------------------------|
|-------------------------|--------------------------|
|-------------------------|--------------------------|
|-------------------------|--------------------------|
|
|-------------------------|--------------------------|
|-------------------------|--------------------------|
|-------------------------|--------------------------|
|--0----------------------|-(0)-----------6-----7----|
|--0----------------------|-(0)-----------6-----7----|
|--0----------------------|-(0)-----------6-----7----|
|
|-------------------------|--------------------------|
|-------------------------|--------------------------|
|-------------------------|--------------------------|
|-------------------------|--------------------------|
|-------------------------|--------------------------|
|-------------------------|--------------------------|


|-16b17----16b17r==16-14-|-16b17-----------------|
|------------------------|-----------------------|
|------------------------|-----------------------|
|------------------------|-----------------------|
|------------------------|-----------------------|
|------------------------|-----------------------|
|
|------------------------|-----------------------|
|------------------------|-----------------------|
|------------------------|-----------------------|
|--2---------------------|-----------------------|
|--2---------------------|--7----6-(6)--7-6-(6)--|
|--2---------------------|--7----6-(6)--7-6-(6)--|
|
|-19b21----19pb21r=19-17-|-19b21-----------------|
|------------------------|-----------------------|
|------------------------|-----------------------|
|------------------------|-----------------------|
|------------------------|-----------------------|
|------------------------|-----------------------|


|----------------|-----------------------------------|
|----------------|-----------------------------------|
|----------------|-----------------------------------|
|--7---6-(6)-----|--------7--6h=7p6------------------|
|-------------9--|--(9)-------------9----------------|
|----------------|-----------------------------------|
|
|----------------|-----------------------------------|
|----------------|-----------------------------------|
|----------------|-----------------------------------|
|-11---9-(9)--7--|--(7)--11--9h11p9-7----------------|
|----------------|-----------------------------------|
|----------------|-----------------------------------|
|
|----------------|-----------------------------------|
|-10---9-(9)--7--|-------10--9h10p9-7----------------|
|----------------|-(11)------------------------------|
|----------------|-----------------------------------|
|----------------|-----------------------------------|
|----------------|-----------------------------------|


 Ending
|---------------|----------*|
|---------------|----------*|
|-6-------------|----------*|
|-----9-(9)--6--|-7--------*|
|---------------|----------*|
|---------------|----------*|
|
|---------------|----------*|
|---------------|----------*|
|---------------|----------*|
|-7---6-(6)-----|----------*|
|------------7--|-9--------*|
|---------------|----------*|


Tablature Legend
----------------
 h   - hammer-on
 p   - pull-off
 b   - bend
 pb  - pre-bend
 r   - bend release (if no number after the r, then release immediately)
 /  - slide into or out of (from/to \"nowhere\")
 s   - legato slide
 S   - shift slide
  - natural harmonic
[n]  - artificial harmonic
n(n) - tapped harmonic
 ~   - vibrato
 tr  - trill
 T   - tap
 TP  - trem. picking
 PM  - palm muting
n/  - tremolo bar dip; n = amount to dip
 n  - tremolo bar down
 n/  - tremolo bar up
/n  - tremolo bar inverted dip
 =   - hold bend; also acts as connecting device for hammers/pulls
 <>  - volume swell (louder/softer)
 x   - on rhythm slash represents muted slash
 o   - on rhythm slash represents single note slash

Misc Legend
-----------
 |  - bar
||  - double bar
||o - repeat start
o|| - repeat end
*|  - double bar (ending)
 :  - bar (freetime)
 $  - Segno
 &  - Coda
Tempo markers -  = BPM(8/16=s8/s16), where s8 = swing 8ths, s16 = swing 16ths





                        ------------------------------
                        |     Suffocating Sight      |
                        ------------------------------




  Intro

  [#]artifical harmonic
    Gtrs I, II
||---------------|--------------|--------------|--------------|
||o--------------|--------------|--------------|--------------|
||---------------|--------------|--------------|--------------|
||--8-8-8-8---8--|-7-7-7-7---7--|-5-5-5-5---5--|-7-7-7-7---7--|
||o-5-5-5-5---5--|-5-5-5-5---5--|-5-5-5-5---5--|-5-5-5-5---5--|
||--5-5-5-5---5--|-5-5-5-5---5--|-5-5-5-5---5--|-5-5-5-5---5--|


  Gtr I
|-------------------|-------------------|
|-------------------|-------------------|
|-------------------|-------------------|
|-7-7-7-7-(7)-7-7-7-|-5-5-5-5-(5)-5-5-5-|
|-5-5-5-5-(5)-5-5-5-|-5-5-5-5-(5)-5-5-5-|
|-0-0-0-0-(0)-0-0-0-|-0-0-0-0-(0)-0-0-0-|
|
| Gtr II
|-------------------|-------------------|
|-------------------|-------------------|
|-7-7-7-7-(7)-7-7-7-|-7-7-7-7-(7)-7-7-7-|
|-------------------|-------------------|
|-5-5-5-5-(5)-5-5-5-|-5-5-5-5-(5)-5-5-5-|
|-------------------|-------------------|


|-------------------|--------------------||
|-------------------|-------------------o||
|-------------------|--------------------||
|-8-8-8-8-(8)-8-8-8-|-7-7-7-7-(7)-7-7-7--||
|-5-5-5-5-(5)-5-5-5-|-5-5-5-5-(5)-5-5-5-o||
|-0-0-0-0-(0)-0-0-0-|-0-0-0-0-(0)-0-0-0--||
|
|-------------------|--------------------||
|-------------------|-------------------o||
|-7-7-7-7-(7)-7-7-7-|-7-7-7-7-(7)-7-7-7--||
|-------------------|--------------------||
|-5-5-5-5-(5)-5-5-5-|-5-5-5-5-(5)-5-5-5-o||
|-------------------|--------------------||


|-----------------------|-----------------------|
|-----------------------|-----------------------|
|-----------------------|-----------------------|
|-------------------8---|-------------------7---|
|---------------5-6---6-|---------------5-6---6-|
|-5-5-5--5-5-5----------|-5-5-5--5-5-5----------|


|-------------------------|-------------------------|
|-------------------------|-------------------------|
|-------------------------|-------------------------|
|-5-----------7-----------|-12--------10--------8---|
|---5--5-5-5----6--6-6-6--|----9--9-9----9--9-9-----|
|-------------------------|-------------------------|


|-----------------------|-----------------------|
|-----------------------|-----------------------|
|-----------------------|-----------------------|
|-------------------8---|-------------------7---|
|---------------5-6---6-|---------------5-6---6-|
|-5-5-5--5-5-5----------|-5-5-5--5-5-5----------|
|
| Gtr II
|-----------------------|-----------------------|
|-----------------------|-----------------------|
|-----------------------|-----------------------|
|-----------------------|-----------------------|
|-5-5-5--5-5-5----------|-5-5-5--5-5-5----------|
|-5-5-5--5-5-5----------|-5-5-5--5-5-5----------|


|-------------------------|--------------------------|
|-------------------------|--------------------------|
|-------------------------|--------------------------|
|-5-----------7-----------|-12---------10--------8---|
|---5--5-5-5----6--6-6-6--|-----9--9-9----9--9-9-----|
|-------------------------|--------------------------|
|
|-------------------------|--------------------------|
|-------------------------|--------------------------|
|-------------------------|--------------------------|
|-------------------------|--------------------------|
|-0-----------------------|-(0)----------------------|
|-0-----------------------|-(0)----------------------|


 Verse
  Gtrs I, II
|-----------------------|-----------------------|
|-----------------------|-----------------------|
|-----------------------|-----------------------|
|-------------------8---|-------------------7---|
|---------------5-6---6-|---------------5-6---6-|
|-5-5-5--5-5-5----------|-5-5-5--5-5-5----------|


|-------------------------|-------------------------|
|-------------------------|-------------------------|
|-------------------------|-------------------------|
|-5-----------7-----------|-12--------10--------8---|
|---5--5-5-5----6--6-6-6--|----9--9-9----9--9-9-----|
|-------------------------|-------------------------|


 Pre-Chorus
|-------------------------|-------------------------|
|-------------------------|-------------------------|
|-------------------------|-------------------------|
|-7---------------------7-|-7---------------------7-|
|-5-5--5-5-5--5--5-5-5--5-|-4-4--4-4-4--4--4-4-4--4-|
|-------------------------|-------------------------|


|-------------------------|---------------------------|
|-------------------------|---------------------------|
|-------------------------|---------------------------|
|-8---------------------8-|-10-----------11-----------|
|-6-6--6-6-6--6--6-6-6--6-|--8-8--8-8-8---9-9--9-9-9--|
|-------------------------|---------------------------|


||-----------|----------|----------|--------------||-|
||o----------|----------|----------|-------------o||-|
||-----------|----------|----------|--------------||-|
||--7--------|-7--------|-8--------|-10----11-----||-|
||o-5--------|-4--------|-6--------|--8-----9----o||-|
||-----------|----------|----------|--------------||-|


  Gtr I
|---------------------------------------|
|---------------------------------------|
|---------------------------------------|
|---------------------------------------|
|-10--10-10-10--10--10-10-10--10-10-10--|
|---------------------------------------|


|---------------------------------------|
|---------------------------------------|
|---------------------------------------|
|---------------------------------------|
|-10--10-10-10--10--10-10-10--10-10-10--|
|---------------------------------------|


 Chorus
|------------|-----------|---------------|------------|
|------------|-----------|---------------|------------|
|------------|-----------|---------------|------------|
|-5----------|-0---------|-1-------------|-3----------|
|-5----------|-0---------|-1-------------|-3----------|
|-5----------|-0---------|-1-------------|-3----------|
|
| Gtr II
|------------|-----------|---------------|------------|
|------------|-----------|---------------|------------|
|------------|-----------|-7---5-(5)-----|---------5--|
|-5----5--8--|-7------7--|------------8--|-7----7-----|
|------------|-----------|---------------|------------|
|------------|-----------|---------------|------------|


|------------|-----------|----------------|-----------|
|------------|-----------|----------------|-----------|
|------------|-----------|----------------|-----------|
|-5----------|-0---------|-1--------------|-3---------|
|-5----------|-0---------|-1--------------|-3---------|
|-5----------|-0---------|-1--------------|-3---------|
|
|------------|-----------|----------------|-----------|
|------------|-----------|-6--------------|-----------|
|------------|-----------|-----8-(8)--7-8-|-----------|
|-5----5--8--|-7------7--|----------------|-8----7----|
|------------|-----------|----------------|-----------|
|------------|-----------|----------------|-----------|


|------------|-----------|---------------|------------|
|------------|-----------|---------------|------------|
|------------|-----------|---------------|------------|
|-5----------|-0---------|-1-------------|-3----------|
|-5----------|-0---------|-1-------------|-3----------|
|-5----------|-0---------|-1-------------|-3----------|
|
|------------|-----------|---------------|------------|
|------------|-----------|---------------|------------|
|------------|-----------|-7---5-(5)-----|---------5--|
|-5----5--8--|-7------7--|------------8--|-7----7-----|
|------------|-----------|---------------|------------|
|------------|-----------|---------------|------------|


|------------|-----------|----------------|-----------|
|------------|-----------|----------------|-----------|
|------------|-----------|----------------|-----------|
|-5----------|-0---------|-1--------------|-3---------|
|-5----------|-0---------|-1--------------|-3---------|
|-5----------|-0---------|-1--------------|-3---------|
|
|------------|-----------|----------------|-----------|
|------------|-----------|-6--------------|-----------|
|------------|-----------|-----8-(8)--7-8-|-----------|
|-5----5--8--|-7------7--|----------------|-8----7----|
|------------|-----------|----------------|-----------|
|------------|-----------|----------------|-----------|


 Bridge
  Gtrs I, II
|-----------|-----------|-|
|-----------|-----------|-|
|-----------|-----------|-|
|-5----4----|-1----0----|-|
|-5----4----|-1----0----|-|
|-5----4----|-1----0----|-|


||------------------------------|----------------------------||
||o-----------------------------|----------------------------||
||------------------------------|----------------------------||
||------------------------------|----------------------------||
||o-5-5-5--5-5-5--5-5-5--5-5-5--|-5-5-5--5-5-5--5-5-5--5-5-5-||
||--5-5-5--5-5-5--5-5-5--5-5-5--|-5-5-5--5-5-5--5-5-5--5-5-5-||


|--------------------|----------------||
|--------------------|---------------o||
|--------------------|----------------||
|--------------------|----------------||
|-5-5--5--5--5--5--5-|-5--5--5--5--5-o||
|-4-4--4--4--4--4--4-|-4--4--4--4--4--||


  Gtr I
|----------------------|----------------------|
|----------------------|----------------------|
|----------------------|----------------------|
|----------------------|----------------------|
|--5-5--5-5------------|-5-5--5-5-------------|
|--5-5--5-5------------|-5-5--5-5--------8\---|
|
| Gtr II
|----------------------|----------------------|
|----------------------|----------------------|
|----------------------|----------------------|
|------------------8---|-----------------7----|
|--5-5--5-5----5-6---6-|-5-5--5-5----5-6----6-|
|--5-5--5-5-5----------|-5-5--5-5-5-----------|


|---------------------------|
|---------------------------|
|---------------------------|
|---------------------------|
|-0-0----0-0----------------|
|-0-0----0-0----------------|
|
|---------------------------|
|---------------------------|
|---------------------------|
|-5-------------7-----------|
|-----5--5-5-5----6--6-6-6--|
|---------------------------|


|-------------------------------|-----------------------|
|-------------------------------|-----------------------|
|-------------------------------|-----------------------|
|-------------------------------|-----------------------|
|--1-1----1-1----4-4------4--4--|-5-5--5-5--------------|
|--1-1----1-1----4-4------4--4--|-5-5--5-5--------------|
|
|-------------------------------|-----------------------|
|-------------------------------|-----------------------|
|-------------------------------|-----------------------|
|-12----------10---------[8]----|-----------------8-----|
|------9--9-9----9---9-9--------|-5-5--5-5----5-6---6---|
|-------------------------------|-5-5--5-5-5------------|


|---------------------|---------------------------|
|---------------------|---------------------------|
|---------------------|---------------------------|
|---------------------|---------------------------|
|-5-5--5-5------------|-0-0----0-0----------------|
|-5-5--5-5--------8---|-0-0----0-0----------------|
|
|---------------------|---------------------------|
|---------------------|---------------------------|
|---------------------|---------------------------|
|-----------------7---|-5-------------7-----------|
|-5-5--5-5----5-6---6-|-----5--5-5-5----6--6-6-6--|
|-5-5--5-5-5----------|---------------------------|


|---------------------------------|
|---------------------------------|
|---------------------------------|
|---------------------------------|
|--1-1----1-1----4-4------4--4----|
|--1-1----1-1----4-4------4--4----|
|
|---------------------------------|
|---------------------------------|
|---------------------------------|
|-12----------10---------[8]------|
|------9--9-9----9---9-9----------|
|---------------------------------|


  Gtrs I, II
|---------------|-----------------|---------------|
|---------------|-----------------|---------------|
|---------------|-----------------|---------------|
|---------------|-----------------|---------------|
|-5-5--5-5------|-5-5--5-5--------|-0-0--0-0------|
|-5-5--5-5------|-5-5--5-5----8\--|-0-0--0-0------|


|---------------------|---------------|------------------|
|---------------------|---------------|------------------|
|---------------------|---------------|------------------|
|---------------------|---------------|------------------|
|-1-1--1-1--4-4--4-4--|-5-5--5-5------|-5-5--5-5---------|
|-1-1--1-1--4-4--4-4--|-5-5--5-5------|-5-5--5-5----8\---|


|---------------|---------------------|
|---------------|---------------------|
|---------------|---------------------|
|---------------|---------------------|
|-0-0--0-0------|-1-1--1-1--4-4--4-4--|
|-0-0--0-0------|-1-1--1-1--4-4--4-4--|


 Solo
  Gtr I
|-----------------------------------|---------------------------------|
|-----------------------------------|---------------------------------|
|-----------------------------------|---------------------------------|
|-----------------------------------|---------------------------------|
|-----------------------------------|---------------------------------|
|--5-5-5-5-5-5-5-5-5-5-5-5--5-5-5-5-|-5-5-5-5-5-5-5-5-7-7-7-7-8-8-8-8-|
|
| Gtr II
|-----------------------------------|---------------------------------|
|-----------------------------------|---------------------------------|
|-----------------------------------|-8-------7-------5---------------|
|----------7-------8-------10-------|-------------------------8-------|
|-10--------------------------------|---------------------------------|
|-----------------------------------|---------------------------------|


|-----------------------------------|---------------------------------------|
|-----------------------------------|---------------------------------------|
|-----------------------------------|---------------------------------------|
|-----------------------------------|---------------------------------------|
|-----------------------------------|---------------------------------------|
|-4-4-4-4-4-4-4-4-4-4-4-4-4---4-4-4-|--1----1-1-1-1-1--1-1--4-4-4-4-4-4-4-4-|

|-----------------------------------|---------------------------------------|
|-----------------------------------|---------------------------------------|
|-----------------------------------|-14b15r==========12---11---------------|
|-7-----------------------7b8-------|---------------------------------------|
|-----------------------------------|---------------------------------------|
|-----------------------------------|---------------------------------------|

 Gtr III
|-----------------------------------|---------------------------------------|
|-----------------------------------|---------------------------------------|
|-----------------------------------|-17b18r==========15---14---------------|
|-----------------------------------|---------------------------------------|
|-----------------------------------|---------------------------------------|
|-----------------------------------|---------------------------------------|


|-------------------------------------------------|
|-------------------------------------------------|
|-------------------------------------------------|
|-------------------------------------------------|
|-------------------------------------------------|
|--5--5--5--5--5--5--5--5--5--5--5--5--5--5--5--5-|
|
|-------------------------13-11-10-------10-11-13-|
|----------13-15-13----13----------13-11----------|
|-12-14-15----------15----------------------------|
|-------------------------------------------------|
|-------------------------------------------------|
|-------------------------------------------------|


|-------------------------------------------------|
|-------------------------------------------------|
|-------------------------------------------------|
|-------------------------------------------------|
|-------------------------------------------------|
|--5--5--5--5--5--5--5--5--7--7--7--7--8--8--8--8-|
|
|-15-13-11-10-------13-15-17-15-13----------------|
|-------------13-15----------------16-15-13-------|
|-------------------------------------------15-14-|
|-------------------------------------------------|
|-------------------------------------------------|
|-------------------------------------------------|


|----------------------------------------|-----------------------------------|
|----------------------------------------|-----------------------------------|
|----------------------------------------|-----------------------------------|
|----------------------------------------|-----------------------------------|
|----------------------------------------|-----------------------------------|
|-4--4-4-4--4-4-4-4--4-4-4-4--4-4-4-4----|1-1-1-1--1-1-1-1--4-4-4-4--4-4-4-4-|
|
|-17b18-------17-------15----------------|----------------------------14----|
|-------------------------------16-------|-15-------------------------------|
|----------------------------------------|----------15-------14-------------|
|----------------------------------------|----------------------------------|
|----------------------------------------|----------------------------------|
|----------------------------------------|----------------------------------|

Gtr III
|-20b21-------20-------18----------------|----------------------------------|
|-------------------------------20-------|-18-------------------------15----|
|----------------------------------------|----------19-------17-------------|
|----------------------------------------|----------------------------------|
|----------------------------------------|----------------------------------|
|----------------------------------------|----------------------------------|

  Gtr II
|-15---------------------|-----------------------|
|------------------------|-----------------------|
|------------------------|-----------------------|
|--------------------8---|-------------------7---|
|----------------5-6---6-|---------------5-6---6-|
|----5-5--5-5-5----------|-5-5-5--5-5-5----------|
|
| Gtr III
|------------------------|-----------------------|
|-16---------------------|-----------------------|
|------------------------|-----------------------|
|------------------------|-----------------------|
|------------------------|-----------------------|
|------------------------|-----------------------|


|-------------------------|-------------------------|
|-------------------------|-------------------------|
|-------------------------|-------------------------|
|-5-----------7-----------|-12--------10--------8---|
|---5--5-5-5----6--6-6-6--|----9--9-9----9--9-9-----|
|-------------------------|-------------------------|


  Gtrs I, II
|-----------------------|-----------------------|-----------|
|-----------------------|-----------------------|-----------|
|-----------------------|-----------------------|-----------|
|-------------------8---|-------------------7---|-----------|
|---------------5-6---6-|---------------5-6---6-|-0---------|
|-5-5-5--5-5-5----------|-5-5-5--5-5-5----------|-0---------|
|
| Gtr III
|-----------------------|-----------------------|-----------|
|-----------------------|-----------------------|-----------|
|-----------------------|-----------------------|-7----5----|
|-----------------------|-----------------------|-0---------|
|-----------------------|-----------------------|-----------|
|-----------------------|-----------------------|-----------|


 Synth Part
  Gtr III
|-----------|-----------|----------|-----------|
|-----------|-----------|----------|-----------|
|-----------|-----------|----------|------5----|
|-8----7----|-5----8----|-7--------|-8---------|
|-----------|-----------|----------|-----------|
|-----------|-----------|----------|-----------|


|-----------|------------|----------|-----------|
|-----------|------------|----------|-----------|
|-----------|------------|----------|------5----|
|-7---------|-------8----|-7--------|-8---------|
|------8----|-10---------|----------|-----------|
|-----------|------------|----------|-----------|


 Outro
  Gtr I
|---------|-------------|-----------|----------------|
|---------|-------------|-----------|----------------|
|---------|-------------|-----------|----------------|
|---------|-7-----------|-2---------|-3--------------|
|---------|-7-----------|-2---------|-3--------------|
|---------|-7-----------|-2---------|-3--------------|
|
| Gtr II
|---------|-------------|-----------|----------------|
|---------|-------------|-----------|----------------|
|---------|-------------|-----------|-9---7-(7)------|
|---------|-7----7--10--|-9------9--|------------10--|
|---------|-------------|-----------|----------------|
|---------|-------------|-----------|----------------|


|------------|------------|-----------|-------------------|
|------------|------------|-----------|-------------------|
|------------|------------|-----------|-------------------|
|-5----------|-7----------|-2---------|-3-----------------|
|-5----------|-7----------|-2---------|-3-----------------|
|-5----------|-7----------|-2---------|-3-----------------|
|
|------------|------------|-----------|-------------------|
|------------|------------|-----------|-8-----------------|
|---------7--|---------5--|-----------|-----10-(10)--9-10-|
|-9----9-----|-7----7-----|-9------9--|-------------------|
|------------|------------|-----------|-------------------|
|------------|------------|-----------|-------------------|


|------------|-------------|-----------|----------------|
|------------|-------------|-----------|----------------|
|------------|-------------|-----------|----------------|
|--5---------|-7-----------|-2---------|-3--------------|
|--5---------|-7-----------|-2---------|-3--------------|
|--5---------|-7-----------|-2---------|-3--------------|
|
|------------|-------------|-----------|----------------|
|------------|-------------|-----------|----------------|
|------------|-------------|-----------|-9---7-(7)------|
|-10----9----|-7----7--10--|-9------9--|------------10--|
|------------|-------------|-----------|----------------|
|------------|-------------|-----------|----------------|


|------------|-------------|-----------|-------------------|
|------------|-------------|-----------|-------------------|
|------------|-------------|-----------|-------------------|
|-5----------|-7-----------|-2---------|-3-----------------|
|-5----------|-7-----------|-2---------|-3-----------------|
|-5----------|-7-----------|-2---------|-3-----------------|
|
|------------|-------------|-----------|-------------------|
|------------|-------------|-----------|-8-----------------|
|---------7--|-------------|-----------|-----10-(10)--9-10-|
|-9----9-----|-7----7--10--|-9------9--|-------------------|
|------------|-------------|-----------|-------------------|
|------------|-------------|-----------|-------------------|


|------------|-------------|-----------|----------------|
|------------|-------------|-----------|----------------|
|------------|-------------|-----------|----------------|
|--5---------|-7-----------|-2---------|-3--------------|
|--5---------|-7-----------|-2---------|-3--------------|
|--5---------|-7-----------|-2---------|-3--------------|
|
|------------|-------------|-----------|----------------|
|------------|-------------|-----------|----------------|
|------------|-------------|-----------|-9---7-(7)------|
|-10----9----|-7----7--10--|-9------9--|------------10--|
|------------|-------------|-----------|----------------|
|------------|-------------|-----------|----------------|


|------------|-------------|-----------|-------------------|
|------------|-------------|-----------|-------------------|
|------------|-------------|-----------|-------------------|
|-5----------|-7-----------|-2---------|-3-----------------|
|-5----------|-7-----------|-2---------|-3-----------------|
|-5----------|-7-----------|-2---------|-3-----------------|
|
|------------|-------------|-----------|-------------------|
|------------|-------------|-----------|-8-----------------|
|---------7--|-------------|-----------|-----10-(10)--9-10-|
|-9----9-----|-7----7--10--|-9------9--|-------------------|
|------------|-------------|-----------|-------------------|
|------------|-------------|-----------|-------------------|


|------------|------------|-----------|----------------|
|------------|------------|-----------|----------------|
|------------|------------|-----------|----------------|
|--5---------|-7----------|-2---------|-3--------------|
|--5---------|-7----------|-2---------|-3--------------|
|--5---------|-7----------|-2---------|-3--------------|
|
|------------|------------|-----------|----------------|
|------------|------------|-----------|----------------|
|------------|---------5--|-----------|-9---7-(7)------|
|-10----9----|-7----7-----|-9------9--|------------10--|
|------------|------------|-----------|----------------|
|------------|------------|-----------|----------------|


|------------|-------------|-----------|-------------------|
|------------|-------------|-----------|-------------------|
|------------|-------------|-----------|-------------------|
|-5----------|-7-----------|-2---------|-3-----------------|
|-5----------|-7-----------|-2---------|-3-----------------|
|-5----------|-7-----------|-2---------|-3-----------------|
|
|------------|-------------|-----------|-------------------|
|------------|-------------|-----------|-8-----------------|
|---------7--|-------------|-----------|-----10-(10)--9-10-|
|-9----9-----|-7----7--10--|-9------9--|-------------------|
|------------|-------------|-----------|-------------------|
|------------|-------------|-----------|-------------------|


|------------|----------*|
|------------|----------*|
|------------|----------*|
|--5---------|-7--------*|
|--5---------|-7--------*|
|--5---------|-7--------*|
|
|------------|----------*|
|------------|----------*|
|------------|----------*|
|-10----9----|-7--------*|
|------------|-7--------*|
|------------|-7--------*|




                           -----------------------
                           |      Departure      |
                           -----------------------




-----------------------------------------------------------------------------
| ... Palm Mute
| 2:87 Time in song
| /  slide up
| \  slide down
| h  hammer-on
| p  pull-off
| ~  vibrato
| +  harmonic
| x  Mute note
-----------------------------------------------------------------------------
 Intro.  Rhythm guitar
  0:00-0:29
e|-----------------------------------------------------------------|
B|-----------------------------------------------------------------|
G|-----------------------------------------------------------------|
D|--0---2---3---5-7--8--10--0--------------------------------------|
A|--0---2---3---5-7--8--10--0----x2--------------------------------|
D|--0---2---3---5-7--8--10--0--------------------------------------|

 Verse Part 1.
  Lead guitar-Clean
  0:34-0:56
e|---------------------------------------------------------------------------|
B|------6-5-----6-5-----3------5---------------------------------------------|
G|-----7-------7-------3------5----------------------------------------------|
D|----7-------7-------3------5--------x4-------------------------------------|
A|---5-------5-------1------3------------------------------------------------|
D|---------------------------------------------------------------------------|

 Verse Part 1 cont.
  Rhythm guitar-Distortion
  0:46-0:56
e|---------------------------------------------------------------------------|
B|---------------------------------------------------------------------------|
G|---------------------------------------------------------------------------|
D|--0--7-8-10----------------------------------------------------------------|
A|--0--7-8-10-----x2---------------------------------------------------------|
D|--0--7-8-10----------------------------------------------------------------|

 Verse Part 2.
  Rhythm + Lead guitar-Distortion
  0:56-1:08
e|---------------------------------------------------------------------------|
B|---------------------------------------------------------------------------|
G|---------------------------------------------------------------------------|
D|---777777-777777-888888-101010101010---------------------------------------|
A|---555555-777777-888888-101010101010----x2---------------------------------|
D|----------777777-888888-101010101010---------------------------------------|
  PM ...... ...... ...... ............

 Pre-Chorus
  Rhythm + Lead guitar-Distortion
  1:08-1:19
e|---------------------------------------------------------------------------|
B|---------------------------------------------------------------------------|
G|---------------------------------------------------------------------------|
D|---000000-0---888888-8---777777-7------------------------------------------|
A|---000000-0---888888-8---777777-7----x2------------------------------------|
D|---000000-0---888888-8---777777-7------------------------------------------|
  PM ......     ......     ......

 Back to Verse Part 1. 1:19-1:41
 Verse Part 2. 1:41-1:51
 Then Pre-Chorus x4. 1:51-2:13

 Chorus
  Rhythm + Lead guitar-Distortion
  2:13-2:35
e|---------------------------------------------------------------------------|
B|---------------------------------------------------------------------------|
G|---------------------------------------------------------------------------|
D|---8--10--12--7--8--10---0--000--0--000--0---------------------------------|
A|---8--10--12--7--8--10---0--000--0--000--0---x2----------------------------|
D|---8--10--12--7--8--10---0--000--0--000--0---------------------------------|
  PM                          ...     ...

 Then
  2:35-3:03
e|---------------------------------------------------------------------------|
B|---------------------------------------------------------------------------|
G|---------------------------------------------------------------------------|
D|---3--------3/6--------6/7-------------------------------------------------|
A|---1--------1/4--------4/5--------33-3-22----------------------------------|
D|-----000000-----000000-----000000-33-3-22----------------------------------|
  PM   ......     ......     ......

 Then
  Lead guitar.
  3:03-3:21
e|---------------------------------------------------------------------------|
B|---------------------------------------------------------------------------|
G|---3---5---7/--------------------------------------------------------------|
D|---x---x---x/--------------------------------------------------------------|
A|---1---3---5/--000000000000000---------------------------------------------|
D|---------------000000000000000---------------------------------------------|
  PM             ...............

  Rhythm guitar.
  3:03-3:21
e|---------------------------------------------------------------------------|
B|---------------------------------------------------------------------------|
G|---------------------------------------------------------------------------|
D|---3---4---7/--------------------------------------------------------------|
A|---1---6---5/--000000000000000---------------------------------------------|
D|---------------000000000000000---------------------------------------------|
  PM             ...............

       -------------
 Solo 3:49-4:08
  Sorry but no solo tabbed!
       -------------
 Then after solo
  Clean guitar
  4:10-4:21
e|---------------------------------------------------------------------------|
B|------6---6-------3--------5-----------------------------------------------|
G|------7---7-------3--------5-----------------------------------------------|
D|----7---7---7---3---3--3/5-------------------------------------------------|
A|----5---5---5---1---1--1/3-------------------------------------------------|
D|---------------------------------------------------------------------------|

 Pre-Chorus x4. 4:21-4:43
 Chorus x4. 4:43-5:28

 End On
e|-----------|
B|-----------|
G|-----------|
D|----0------|
A|----0------|
D|----0------|




                        ---------------------------
                        |       Declaration       |
                        ---------------------------



Intro (guitar 1)						Repeat	4x
e|---------------------------------------------------------------------------|
B|---------------------9-10-9------------------------------------------------|
G|-----9-----9-----9----------9--------------------------6-9-6-7-------------|
D|-6-7---6-7---6-7---9----------9-11-----------------7-9---------9-----------|
A|------------------------------------7-99-7-99-7-99-------------------------|
D|---------------------------------------------------------------------------|

Intro (guitar 2, comes in after guitar one plays the riff twice, played slowly)
e|---------------------------------------------------------------------------|
B|------------------------------------10-9-----------------------------------|
G|--------9-7-6----------------9-7-6-------9---------------------------------|
D|-6-7-6---------6-7~----6-7-6-----------------------------------------------|
A|---------------------------------------------------------------------------|
D|---------------------------------------------------------------------------|

Both guitars:
e|---------------------|
B|---------------------|
G|---11------13--------|
D|---------------------|
A|---9-------11--------|
D|---------------------|


Guitar 1 (very hard riff to play, and I'm pretty sure this isn't 100% right, but it's close)
								Repeat 2x
e|---------------------------------------------------------------------------|
B|---------------------------------------------------------------------------|
G|---------------------------------------------------------------------------|
D|---------------------------------------------------------------------------|
A|-4h5h7-------------5h7h8-------7h8h10--------8h9h11------------------------|
D|-------0000000000--------0000---------000000-------------------------------|

Both Guitars:
e|---------------------------------------------------------------------------|
B|---------------------------------------------------------------------------|
G|---------------------------------------------------------------------------|
D|--0h2-------------------2h4------------------------------------------------|
A|--------------------3h5----------------------------------------------------|
D|-------1111111111------------4444444444444---------------------------------|

Both guitars repeat the above parts twice. Then:


Both guitars:
e|--------------------------------------------------------------------------------|
B|--------------------------------------------------------------------------------|
G|--------------------------------------------------------------------------------|
D|-0-------------------7-6----------6-7-6-7--2/4--------2/4-----------------------|
A|-0-------------------5-4----------4-5-4-5--2/4--------2/4-----------------------|
D|-0-000000000000-4-00-----00000000----------2/4-444444-2/4-44444444--------------|

Guitar 1 then plays:
e|------------------------------------------------|
B|------------------------------------------------|
G|------------------------------------------------|
D|-------------4h5h7-------4h5h7-4h5h7--777777----|
A|-------4h5h7-------4h5h7------------------------|
D|-4h5h7------------------------------------------|
 |						  |
 |						  |
 | While guitar 2 plays:			  |
e|------------------------------------------------|
B|------------------------------------------------|
G|-------------------------------4h6p4--666666----|
D|-------------4h5h7-------4h5h7------------------|
A|-------4h5h7-------4h5h7------------------------|
D|-4h5h7------------------------------------------|

Repeat both these parts again.


Then it goes back to the part right after the intro and plays through to here.
Then you play: (The strumming might not be entirely right, but these are the chords)


e|------------------------------------------------------------------------------|
B|------------------------------------------------------------------------------|
G|--11-11-11-11-11-11-11-11-11-11-9-9-9-9-9-9-9-13-13-13-14-14-14-14------------|
D|------------------------------------------------------------------------------|
A|--9-9-9-9-9-9-9-9-9-9-9-9-9-9-9-7-7-7-7-7-7-7-11-11-11-12-12-12-12------------|
D|------------------------------------------------------------------------------|

e|------------------------------------------------------------------------------|
B|------------------------------------------------------------------------------|
G|--18-18-18-18-----18-18-18-18-18----18-18-18--------9-----9-----9-----9-----9-|
D|------------------------------------------------6-7---6-7---6-7---6-7---6-7---|
A|--16-16-16-16-----16-16-16-16-16----16-16-16----------------------------------|
D|------------------------------------------------------------------------------|

Repeat that whole riff again, then some easy chords:


e|--------------------|
B|--------------------|
G|--------------------|
D|-0---4---0---7------|
A|-0---4---0---7------|
D|-0---4---0---7------|

Then it goes into the solo, and I'm not entirely sure about the rest of the song from
this point. It eventually goes into a

e|------------------------------------------------------|
B|------------------------------------------------------|
G|------------------------------------------------------|
D|------------------------------------------------------|
A|------------------------------------------------------|
D|--55555666644--55566644---555555566666444--55566644---|


and then back into the main part.


=============================================================================

                         THAT'S IT! FINISH. ENJOY!
14 comments total. Showing first comments.
0 reply
abs_n91 wrote on August 21 2006, 05:10 am

THANKYOU DUDE! I've been looking for a tab for the whole album for ****ing ages. God bless you ^.^

0 reply
Nuums wrote on August 21 2006, 10:35 am

ure welcome :D (please rate?!)

0 reply
abs_n91 wrote on August 21 2006, 12:16 pm

Rating....hmmm....I'd give this a 4 dude. There are some really minor details missing on the solos, besides that it's fine

I want to post or [tab]
guest
You may want to rate the tab now too:
select rating
Please do not post tabs as comments. Select "correction" instead!