Oops, an error
Loading. Please wait.

Crusade Tab

ver1
ver1

Intro

Album

Whole song

More versions @911Tabs.com
11,787 views 3 this week
25 commentsread comments
1 2 3 4 5
worth learning
x 13
add to favorites launch autoscroll
font size
0
reset
Autoscroll
+/-
esc
set tempo
stop
Contributor
Difficulty
advanced
WARNING: You are trying to view
                                    content from Ultimate-Guitar.com
                                    in an unauthorized application,
                                    which is prohibited.

                                    Please use an official Ultimate
                                    Guitar Tabs application for iPhone,
                                    iPad or Android to access legitimate
                                    chords, guitar, bass, and drum tabs
                                    from Ultimate-Guitar.com database.

                                    Type "ultimate guitar tabs" in Apple
                                    App Store's or Android Market's
                                    search to find the application.
This is The Crusade, the entire album. I just got the best tabs I could find on this 
and put them on here. So I cant take credit for any of the tabs written. Some songs are 
on 7 string guitars.

Songlist:

Ignition
Detonation
Entrance of the Conflagration
Anthem (We are the Fire)
Unrepentant
And Sadness Will Sear
Becoming the Dragon
To the Rats
This World Cant Tear Us Apart
Tread the Floods
Contempt Breeds Contamination
The Rising
The Crusade


|Ignition|

Gtr I (E A D G B E) - 'Matt'
Gtr II (E A D G B E) - 'Corey'

 Intro
  Q=240
 4/4                2/4     4/4
  Gtr I
   E  E  Q  Q   Q    Q  Q    S S E S S E Q  S S E   S S E Q  S S E Q
|------------------|-------|----------------------|-------------------|
|------------------|-------|----------------------|-------------------|
|------------------|-------|----------------------|-------------------|
|--8--9--8--6---8--|-6--5--|-------------6--------|-------6--------8--|
|--8--9--8--6---8--|-6--5--|-5-5-5-5-5-5-6--5-5-5-|-5-5-5-6--5-5-5-8--|
|--6--7--6--4---6--|-4--3--|-3-3-3-3-3-3-4--3-3-3-|-3-3-3-4--3-3-3-6--|
|
| Gtr II
|  E  E  Q  Q   Q    Q  Q    S S E S S E Q  S S E   S S E Q  S S E Q
|------------------|-------|----------------------|-------------------|
|------------------|-------|----------------------|-------------------|
|-10-11-10--8--10--|-8--7--|----------------------|-------------------|
|------------------|-------|----------------------|-------------------|
|--8--9--8--6---8--|-6--5--|-5-5-5-5-5-5----5-5-5-|-5-5-5----5-5-5----|
|------------------|-------|-3-3-3-3-3-3----3-3-3-|-3-3-3----3-3-3----|


                                           2/4
  S S E S S E Q  S S E    E  E  Q  Q   Q    Q  Q
|----------------------|------------------|-------|
|----------------------|------------------|-------|
|----------------------|------------------|-------|
|-------------6--------|--8--9--8--6---8--|-6--5--|
|-5-5-5-5-5-5-6--5-5-5-|--8--9--8--6---8--|-6--5--|
|-3-3-3-3-3-3-4--3-3-3-|--6--7--6--4---6--|-4--3--|
|
| S S E S S E Q  S S E    E  E  Q  Q   Q    Q  Q
|----------------------|------------------|-------|
|----------------------|------------------|-------|
|----------------------|-10-11-10--8--10--|-8--7--|
|----------------------|------------------|-------|
|-5-5-5-5-5-5----5-5-5-|--8--9--8--6---8--|-6--5--|
|-3-3-3-3-3-3----3-3-3-|------------------|-------|


 4/4
  S S E S S E Q  S S E   S S E Q  S S E Q
|----------------------|-------------------|
|----------------------|-------------------|
|----------------------|-------------------|
|-------------6--------|-------6--------8--|
|-5-5-5-5-5-5-6--5-5-5-|-5-5-5-6--5-5-5-8--|
|-3-3-3-3-3-3-4--3-3-3-|-3-3-3-4--3-3-3-6--|
|
| S S E S S E Q  S S E   S S E Q  S S E
|----------------------|-------------------|
|----------------------|-------------------|
|----------------------|-------------------|
|----------------------|-------------------|
|-5-5-5-5-5-5----5-5-5-|-5-5-5----5-5-5----|
|-3-3-3-3-3-3----3-3-3-|-3-3-3----3-3-3----|


                                           2/4
  S S E S S E Q  S S E    E  E  Q  Q   Q    Q  Q
|----------------------|------------------|-------|
|----------------------|------------------|-------|
|----------------------|------------------|-------|
|-------------6--------|--8--9--8--6---8--|-6--5--|
|-5-5-5-5-5-5-6--5-5-5-|--8--9--8--6---8--|-6--5--|
|-3-3-3-3-3-3-4--3-3-3-|--6--7--6--4---6--|-4--3--|
|
| S S E S S E Q  S S E    E  E  Q  Q   Q    Q  Q
|----------------------|------------------|-------|
|----------------------|------------------|-------|
|----------------------|-10-11-10--8--10--|-8--7--|
|----------------------|------------------|-------|
|-5-5-5-5-5-5----5-5-5-|--8--9--8--6---8--|-6--5--|
|-3-3-3-3-3-3----3-3-3-|------------------|-------|


 Verse One
 4/4
  E E E E E E E E   E E E E E E E E   E E E E E E E E   E E E E E E E E
|-----------------|-----------------|-----------------|------------------|
|-----------------|-----------------|-----------------|------------------|
|-----------------|-----------------|-----------------|------------------|
|-----------------|---------3-6-6-6-|-----------------|-------3-6-3------|
|-7-------8---5---|-7---------------|-7-------8---5---|---2-5-------5-2--|
|---0-0-0---0---0-|---0-0-0-1-4-4-4-|---0-0-0---0---0-|-4----------------|
|
| E E E E E E E E   E E E E E E E E   E E E E E E E E   E E E E E E E E
|-----------------|-----------------|-----------------|------------------|
|-----------------|-----------------|-----------------|------------------|
|-----------------|-----------------|-----------------|-------1-4-1------|
|-----------------|---------3-6-6-6-|-----------------|---2-3-------3-2--|
|-7-------8---5---|-7---------------|-7-------8---5---|-2----------------|
|---0-0-0---0---0-|---0-0-0-1-4-4-4-|---0-0-0---0---0-|------------------|


  E E E E E E E E   E E E E E E E E   E E E E E E E E   E E E E E E E E
|-----------------|-----------------|-----------------|-----------------|
|-----------------|-----------------|-----------------|-----------------|
|-----------------|-----------------|-----------------|-----------------|
|-----------------|---------3-6-6-6-|-----------------|-------3-6-3-----|
|-7-------8---5---|-7---------------|-7-------8---5---|---2-5-------5-2-|
|---0-0-0---0---0-|---0-0-0-1-4-4-4-|---0-0-0---0---0-|-4---------------|
|
| E E E E E E E E   E E E E E E E E   E E E E E E E E   E E E E E E E E
|-----------------|-----------------|-----------------|-----------------|
|-----------------|-----------------|-----------------|-----------------|
|-----------------|-----------------|-----------------|-------1-4-1-----|
|-----------------|---------3-6-6-6-|-----------------|---2-3-------3-2-|
|-7-------8---5---|-7---------------|-7-------8---5---|-2---------------|
|---0-0-0---0---0-|---0-0-0-1-4-4-4-|---0-0-0---0---0-|-----------------|


  S S E S S E Q  S S E   S S E Q  S S E Q
|----------------------|-------------------|
|----------------------|-------------------|
|----------------------|-------------------|
|-------------6--------|-------6--------8--|
|-5-5-5-5-5-5-6--5-5-5-|-5-5-5-6--5-5-5-8--|
|-3-3-3-3-3-3-4--3-3-3-|-3-3-3-4--3-3-3-6--|
|
| S S E S S E Q  S S E   S S E Q  S S E
|----------------------|-------------------|
|----------------------|-------------------|
|----------------------|-------------------|
|----------------------|-------------------|
|-5-5-5-5-5-5----5-5-5-|-5-5-5----5-5-5----|
|-3-3-3-3-3-3----3-3-3-|-3-3-3----3-3-3----|


                                           2/4
  S S E S S E Q  S S E    E  E  Q  Q   Q    Q  Q
|----------------------|------------------|--------|
|----------------------|------------------|--------|
|----------------------|------------------|--------|
|-------------6--------|--8--9--8--6---8--|-6--5---|
|-5-5-5-5-5-5-6--5-5-5-|--8--9--8--6---8--|-6--5---|
|-3-3-3-3-3-3-4--3-3-3-|--6--7--6--4---6--|-4--3---|
|
| S S E S S E Q  S S E    E  E  Q  Q   Q    Q  Q
|----------------------|------------------|--------|
|----------------------|------------------|--------|
|----------------------|-10-11-10--8--10--|-8--7---|
|----------------------|------------------|--------|
|-5-5-5-5-5-5----5-5-5-|--8--9--8--6---8--|-6--5---|
|-3-3-3-3-3-3----3-3-3-|------------------|--------|


 4/4
  S S E S S E Q  S S E   S S E Q  S S E Q
|----------------------|-------------------|
|----------------------|-------------------|
|----------------------|-------------------|
|-------------6--------|-------6--------8--|
|-5-5-5-5-5-5-6--5-5-5-|-5-5-5-6--5-5-5-8--|
|-3-3-3-3-3-3-4--3-3-3-|-3-3-3-4--3-3-3-6--|
|
| S S E S S E Q  S S E   S S E Q  S S E
|----------------------|-------------------|
|----------------------|-------------------|
|----------------------|-------------------|
|----------------------|-------------------|
|-5-5-5-5-5-5----5-5-5-|-5-5-5----5-5-5----|
|-3-3-3-3-3-3----3-3-3-|-3-3-3----3-3-3----|


                                           2/4
  S S E S S E Q  S S E    E  E  Q  Q   Q    Q  Q
|----------------------|------------------|-------|
|----------------------|------------------|-------|
|----------------------|------------------|-------|
|-------------6--------|--8--9--8--6---8--|-6--5--|
|-5-5-5-5-5-5-6--5-5-5-|--8--9--8--6---8--|-6--5--|
|-3-3-3-3-3-3-4--3-3-3-|--6--7--6--4---6--|-4--3--|
|
| S S E S S E Q  S S E    E  E  Q  Q   Q    Q  Q
|----------------------|------------------|-------|
|----------------------|------------------|-------|
|----------------------|-10-11-10--8--10--|-8--7--|
|----------------------|------------------|-------|
|-5-5-5-5-5-5----5-5-5-|--8--9--8--6---8--|-6--5--|
|-3-3-3-3-3-3----3-3-3-|------------------|-------|


 4/4
  E E E E E E E E   E E E E E E E E   E E E E E E E E   E E E E E E E E
|-----------------|-----------------|-----------------|------------------|
|-----------------|-----------------|-----------------|------------------|
|-----------------|-----------------|-----------------|------------------|
|-----------------|---------3-6-6-6-|-----------------|-------3-6-3------|
|-7-------8---5---|-7---------------|-7-------8---5---|---2-5-------5-2--|
|---0-0-0---0---0-|---0-0-0-1-4-4-4-|---0-0-0---0---0-|-4----------------|
|
| E E E E E E E E   E E E E E E E E   E E E E E E E E   E E E E E E E E
|-----------------|-----------------|-----------------|------------------|
|-----------------|-----------------|-----------------|------------------|
|-----------------|-----------------|-----------------|-------1-4-1------|
|-----------------|---------3-6-6-6-|-----------------|---2-3-------3-2--|
|-7-------8---5---|-7---------------|-7-------8---5---|-2----------------|
|---0-0-0---0---0-|---0-0-0-1-4-4-4-|---0-0-0---0---0-|------------------|


  E E E E E E E E   E E E E E E E E   E E E E E E E E   E E E E E E E E
|-----------------|-----------------|-----------------|-------------------|
|-----------------|-----------------|-----------------|-------------------|
|-----------------|-----------------|-----------------|-------------------|
|-----------------|---------3-6-6-6-|-----------------|-------3-6-3-------|
|-7-------8---5---|-7---------------|-7-------8---5---|---2-5-------5-2---|
|---0-0-0---0---0-|---0-0-0-1-4-4-4-|---0-0-0---0---0-|-4-----------------|
|
| E E E E E E E E   E E E E E E E E   E E E E E E E E   E E E E E E E E
|-----------------|-----------------|-----------------|-------------------|
|-----------------|-----------------|-----------------|-------------------|
|-----------------|-----------------|-----------------|-------1-4-1-------|
|-----------------|---------3-6-6-6-|-----------------|---2-3-------3-2---|
|-7-------8---5---|-7---------------|-7-------8---5---|-2-----------------|
|---0-0-0---0---0-|---0-0-0-1-4-4-4-|---0-0-0---0---0-|-------------------|


  S S E S S E Q  S S E   S S E Q  S S E Q
|----------------------|-------------------|
|----------------------|-------------------|
|----------------------|-------------------|
|-------------6--------|-------6--------8--|
|-5-5-5-5-5-5-6--5-5-5-|-5-5-5-6--5-5-5-8--|
|-3-3-3-3-3-3-4--3-3-3-|-3-3-3-4--3-3-3-6--|
|
| S S E S S E Q  S S E   S S E Q  S S E
|----------------------|-------------------|
|----------------------|-------------------|
|----------------------|-------------------|
|----------------------|-------------------|
|-5-5-5-5-5-5----5-5-5-|-5-5-5----5-5-5----|
|-3-3-3-3-3-3----3-3-3-|-3-3-3----3-3-3----|


                                           2/4
  S S E S S E Q  S S E    E  E  Q  Q   Q    Q  Q
|----------------------|------------------|--------|
|----------------------|------------------|--------|
|----------------------|------------------|--------|
|-------------6--------|--8--9--8--6---8--|-6--5---|
|-5-5-5-5-5-5-6--5-5-5-|--8--9--8--6---8--|-6--5---|
|-3-3-3-3-3-3-4--3-3-3-|--6--7--6--4---6--|-4--3---|
|
| S S E S S E Q  S S E    E  E  Q  Q   Q    Q  Q
|----------------------|------------------|--------|
|----------------------|------------------|--------|
|----------------------|-10-11-10--8--10--|-8--7---|
|----------------------|------------------|--------|
|-5-5-5-5-5-5----5-5-5-|--8--9--8--6---8--|-6--5---|
|-3-3-3-3-3-3----3-3-3-|------------------|--------|


 4/4
  S S E S S E Q  S S E   S S E Q  S S E Q
|----------------------|-------------------|
|----------------------|-------------------|
|----------------------|-------------------|
|-------------6--------|-------6--------8--|
|-5-5-5-5-5-5-6--5-5-5-|-5-5-5-6--5-5-5-8--|
|-3-3-3-3-3-3-4--3-3-3-|-3-3-3-4--3-3-3-6--|
|
| S S E S S E Q  S S E   S S E Q  S S E
|----------------------|-------------------|
|----------------------|-------------------|
|----------------------|-------------------|
|----------------------|-------------------|
|-5-5-5-5-5-5----5-5-5-|-5-5-5----5-5-5----|
|-3-3-3-3-3-3----3-3-3-|-3-3-3----3-3-3----|


                                           2/4
  S S E S S E Q  S S E    E  E  Q  Q   Q    Q  Q
|----------------------|------------------|-------|
|----------------------|------------------|-------|
|----------------------|------------------|-------|
|-------------6--------|--8--9--8--6---8--|-6--5--|
|-5-5-5-5-5-5-6--5-5-5-|--8--9--8--6---8--|-6--5--|
|-3-3-3-3-3-3-4--3-3-3-|--6--7--6--4---6--|-4--3--|
|
| S S E S S E Q  S S E    E  E  Q  Q   Q    Q  Q
|----------------------|------------------|-------|
|----------------------|------------------|-------|
|----------------------|-10-11-10--8--10--|-8--7--|
|----------------------|------------------|-------|
|-5-5-5-5-5-5----5-5-5-|--8--9--8--6---8--|-6--5--|
|-3-3-3-3-3-3----3-3-3-|------------------|-------|


 4/4
  E E E E E E E E   E E E E E E E E   E E E E E E E E   E E E E E E E E
|-----------------|-----------------|-----------------|------------------|
|-----------------|-----------------|-----------------|------------------|
|-----------------|-----------------|-----------------|------------------|
|-----------------|---------3-6-6-6-|-----------------|-------3-6-3------|
|-7-------8---5---|-7---------------|-7-------8---5---|---2-5-------5-2--|
|---0-0-0---0---0-|---0-0-0-1-4-4-4-|---0-0-0---0---0-|-4----------------|
|
| E E E E E E E E   E E E E E E E E   E E E E E E E E   E E E E E E E E
|-----------------|-----------------|-----------------|------------------|
|-----------------|-----------------|-----------------|------------------|
|-----------------|-----------------|-----------------|-------1-4-1------|
|-----------------|---------3-6-6-6-|-----------------|---2-3-------3-2--|
|-7-------8---5---|-7---------------|-7-------8---5---|-2----------------|
|---0-0-0---0---0-|---0-0-0-1-4-4-4-|---0-0-0---0---0-|------------------|


  E E E E E E E E   E E E E E E E E   E E E E E E E E   E E E E E E E E
|-----------------|-----------------|-----------------|-------------------|
|-----------------|-----------------|-----------------|-------------------|
|-----------------|-----------------|-----------------|-------------------|
|-----------------|---------3-6-6-6-|-----------------|-------3-6-3-------|
|-7-------8---5---|-7---------------|-7-------8---5---|---2-5-------5-2---|
|---0-0-0---0---0-|---0-0-0-1-4-4-4-|---0-0-0---0---0-|-4-----------------|
|
| E E E E E E E E   E E E E E E E E   E E E E E E E E   E E E E E E E E
|-----------------|-----------------|-----------------|-------------------|
|-----------------|-----------------|-----------------|-------------------|
|-----------------|-----------------|-----------------|-------1-4-1-------|
|-----------------|---------3-6-6-6-|-----------------|---2-3-------3-2---|
|-7-------8---5---|-7---------------|-7-------8---5---|-2-----------------|
|---0-0-0---0---0-|---0-0-0-1-4-4-4-|---0-0-0---0---0-|-------------------|


 Prechorus
  S S E S S E S S E S S E   S S E S S E  Q  Q
|-------------------------|--------------------|
|-------------------------|--------------------|
|-------------------------|-------------10--9--|
|-------------------------|--------------------|
|-2-2-2-2-2-2-2-2-2-2-2-2-|-2-2-2-2-2-2--8--7--|
|-0-0-0-0-0-0-0-0-0-0-0-0-|-0-0-0-0-0-0--------|
|
| S S E S S E S S E S S E   S S E S S E  Q  Q
|-------------------------|--------------------|
|-------------------------|--------------------|
|-------------------------|-------------10--9--|
|-------------------------|--------------------|
|-2-2-2-2-2-2-2-2-2-2-2-2-|-2-2-2-2-2-2--8--7--|
|-0-0-0-0-0-0-0-0-0-0-0-0-|-0-0-0-0-0-0--------|


  S S E S S E S S E S S E   S S E S S E Q  Q
|-------------------------|-------------------|
|-------------------------|-------------------|
|-------------------------|-------------------|
|-------------------------|-------------7--6--|
|-2-2-2-2-2-2-2-2-2-2-2-2-|-2-2-2-2-2-2-------|
|-0-0-0-0-0-0-0-0-0-0-0-0-|-0-0-0-0-0-0-5--4--|
|
| S S E S S E S S E S S E   S S E S S E Q  Q
|-------------------------|-------------------|
|-------------------------|-------------------|
|-------------------------|-------------------|
|-------------------------|-------------7--6--|
|-2-2-2-2-2-2-2-2-2-2-2-2-|-2-2-2-2-2-2-------|
|-0-0-0-0-0-0-0-0-0-0-0-0-|-0-0-0-0-0-0-5--4--|


  S S E S S E S S E S S E   S S E S S E  Q  Q
|-------------------------|--------------------|
|-------------------------|--------------------|
|-------------------------|-------------10--9--|
|-------------------------|--------------------|
|-2-2-2-2-2-2-2-2-2-2-2-2-|-2-2-2-2-2-2--8--7--|
|-0-0-0-0-0-0-0-0-0-0-0-0-|-0-0-0-0-0-0--------|
|
| S S E S S E S S E S S E   S S E S S E  Q  Q
|-------------------------|--------------------|
|-------------------------|--------------------|
|-------------------------|-------------10--9--|
|-------------------------|--------------------|
|-2-2-2-2-2-2-2-2-2-2-2-2-|-2-2-2-2-2-2--8--7--|
|-0-0-0-0-0-0-0-0-0-0-0-0-|-0-0-0-0-0-0--------|


  S S E S S E Q  Q    S S E S S E  Q  Q
|-------------------|----------------------|
|-------------------|----------------------|
|-------------------|----------------------|
|-------------7--6--|-------------10--9----|
|-2-2-2-2-2-2-------|-2-2-2-2-2-2----------|
|-0-0-0-0-0-0-5--4--|-0-0-0-0-0-0--8--7----|
|
| S S E S S E Q  Q    S S E S S E  Q  Q
|-------------------|----------------------|
|-------------------|----------------------|
|-------------------|----------------------|
|-------------7--6--|-------------10--9----|
|-2-2-2-2-2-2-------|-2-2-2-2-2-2----------|
|-0-0-0-0-0-0-5--4--|-0-0-0-0-0-0--8--7----|


  S S E S S E S S E S S E   S S E S S E  Q  Q
|-------------------------|--------------------|
|-------------------------|--------------------|
|-------------------------|-------------10--9--|
|-------------------------|--------------------|
|-2-2-2-2-2-2-2-2-2-2-2-2-|-2-2-2-2-2-2--8--7--|
|-0-0-0-0-0-0-0-0-0-0-0-0-|-0-0-0-0-0-0--------|
|
| S S E S S E S S E S S E   S S E S S E  Q  Q
|-------------------------|--------------------|
|-------------------------|--------------------|
|-------------------------|-------------10--9--|
|-------------------------|--------------------|
|-2-2-2-2-2-2-2-2-2-2-2-2-|-2-2-2-2-2-2--8--7--|
|-0-0-0-0-0-0-0-0-0-0-0-0-|-0-0-0-0-0-0--------|


  S S E S S E S S E S S E   S S E S S E Q  Q
|-------------------------|-------------------|
|-------------------------|-------------------|
|-------------------------|-------------------|
|-------------------------|-------------7--6--|
|-2-2-2-2-2-2-2-2-2-2-2-2-|-2-2-2-2-2-2-------|
|-0-0-0-0-0-0-0-0-0-0-0-0-|-0-0-0-0-0-0-5--4--|
|
| S S E S S E S S E S S E   S S E S S E Q  Q
|-------------------------|-------------------|
|-------------------------|-------------------|
|-------------------------|-------------------|
|-------------------------|-------------7--6--|
|-2-2-2-2-2-2-2-2-2-2-2-2-|-2-2-2-2-2-2-------|
|-0-0-0-0-0-0-0-0-0-0-0-0-|-0-0-0-0-0-0-5--4--|


  S S E S S E S S E S S E   S S E S S E  Q  Q
|-------------------------|--------------------|
|-------------------------|--------------------|
|-------------------------|-------------10--9--|
|-------------------------|--------------------|
|-2-2-2-2-2-2-2-2-2-2-2-2-|-2-2-2-2-2-2--8--7--|
|-0-0-0-0-0-0-0-0-0-0-0-0-|-0-0-0-0-0-0--------|
|
| S S E S S E S S E S S E   S S E S S E  Q  Q
|-------------------------|--------------------|
|-------------------------|--------------------|
|-------------------------|-------------10--9--|
|-------------------------|--------------------|
|-2-2-2-2-2-2-2-2-2-2-2-2-|-2-2-2-2-2-2--8--7--|
|-0-0-0-0-0-0-0-0-0-0-0-0-|-0-0-0-0-0-0--------|


  S S E S S E Q  Q    S S E S S E  Q  Q
|-------------------|----------------------|
|-------------------|----------------------|
|-------------------|----------------------|
|-------------7--6--|-------------10--9----|
|-2-2-2-2-2-2-------|-2-2-2-2-2-2----------|
|-0-0-0-0-0-0-5--4--|-0-0-0-0-0-0--8--7----|
|
| S S E S S E Q  Q    S S E S S E  Q  Q
|-------------------|----------------------|
|-------------------|----------------------|
|-------------------|----------------------|
|-------------7--6--|-------------10--9----|
|-2-2-2-2-2-2-------|-2-2-2-2-2-2----------|
|-0-0-0-0-0-0-5--4--|-0-0-0-0-0-0--8--7----|


 Chorus
  Half Time Feel Q=120
  Q  S S Q  E E E   Q  S S Q.   E E   Q  S S Q.   E E
|-----------------|-----------------|--------------------|
|-----------------|-----------------|--------------------|
|-----------------|-----------------|-9--9-9-9----9------|
|-6--6-6-6--6-6---|-6--6-6-6----6---|-9--9-9-9----9------|
|-6--6-6-6--6-6---|-6--6-6-6----6---|-7--7-7-7----7------|
|-4--4-4-4--4-4---|-4--4-4-4----4---|--------------------|


  Q  S S Q.   E E   Q  S S Q.   E E   Q  S S Q.   E E
|-----------------|-----------------|--------------------|
|-----------------|-----------------|--------------------|
|-9--9-9-9----9---|-6--6-6-6----6---|--------------------|
|-9--9-9-9----9---|-6--6-6-6----6---|-5--5-5-5----5------|
|-7--7-7-7----7---|-4--4-4-4----4---|-6--6-6-6----6------|
|-----------------|-----------------|-3--3-3-3----3------|


                          ~~~~~~~
  Q  S S Q  E E E   E E E H    +E
|-----------------|----------------|
|-----------------|----------------|
|-----------------|-------8----(8)-|
|-6--6-6-6--6-6---|---5-8----------|
|-6--6-6-6--6-6---|-6--------------|
|-4--4-4-4--4-4---|----------------|

|Detonation|


Intro:
   Guitar 1
E||--------------------|------------------------------|--------------------|
B||--------------------|------------------------------|--------------------|
G||--4--------3--------|--4--------3----6--6--6--6----|--4--------3--------|
D||--4--------3--------|--4--------3----6--6--6--6----|--4--------3--------|
A||--2--------1--------|--2--------1----4--4--4--4----|--2--------1--------|
E||--2--0--0--1--------|--2--0--0--1----4--4--4--4----|--2--0--0--1--------|
 ||
 ||
 ||Guitar 2
E||--------------------|------------------------------|--------------------|
B||--------------------|------------------------------|--------------------|
G||--7--------6--------|--7--------6----9--9--9--9----|--7--------6--------|
D||--------------------|------------------------------|--------------------|
A||--5--------4--------|--5--------4----7--7--7--7----|--5--------4--------|
E||-----0--0-----------|-----0--0---------------------|-----0--0-----------|


 Guitar 1
|--------------------------------------|--------------------|
|--------------------------------------|--------------------|
|--------------------------------------|--4--------3--------|
|--------4--6--4-----------4--7--5-----|--4--------3--------|
|-----2-----------2-----3-----------3--|--2--------1--------|
|--2-----------------3-----------------|--2--0--0--1--------|
|
|
|Guitar 2
|--------------------------------------|--------------------|
|--------------------------------------|--------------------|
|-----------6-----------------7--------|--7--------6--------|
|-----4--6-----6--4-----4--7-----7--4--|--------------------|
|--4-----------------5-----------------|--5--------4--------|
|--------------------------------------|-----0--0-----------|


 Guitar 1
|------------------------------|--------------------|
|------------------------------|--------------------|
|--4--------3----6--6--6--6----|--4--------3--------|
|--4--------3----6--6--6--6----|--4--------3--------|
|--2--------1----4--4--4--4----|--2--------1--------|
|--2--0--0--1----4--4--4--4----|--2--0--0--1--------|
|
|
|Guitar 2
|------------------------------|--------------------|
|------------------------------|--------------------|
|--7--------6----9--9--9--9----|--7--------6--------|
|------------------------------|--------------------|
|--5--------4----7--7--7--7----|--5--------4--------|
|-----0--0---------------------|-----0--0-----------|


 Guitar 1                               Intro pt. 2:
|--------------------------------------|--------------------------------------|
|--------------------------------------|--------------------------------------|
|--------------------------------------|--------------------------------------|
|--------4--6--4-----------4--7--5-----|--1--------1--------1--------2--1--2--|
|-----2-----------2-----3-----------3--|--1--------1--------1--------2--1--2--|
|--2-----------------3-----------------|-----0--0-----0--0-----0--0-----------|
|
|
|Guitar 2
|--------------------------------------|--------------------------------------|
|--------------------------------------|--------------------------------------|
|-----------6-----------------7--------|--------------------------------------|
|-----4--6-----6--4-----4--7-----7--4--|--1--------1--------------------------|
|--4-----------------5-----------------|--1--------1--------------------------|
|--------------------------------------|-----0--0-----------------------------|


 Guitar 1
|---------------------------------------|--------------------|
|---------------------------------------|--------------------|
|---------------------------------------|--------------------|
|--1--------1--------1--------5\--------|--------------------|
|--1--------1--------1--------5\--------|--------------------|
|-----0--0-----0--0-----0--0---------0--|--3--5--6--2--3--5--|
|
|
|Guitar 2
|---------------------------------------|--------------------|
|---------------------------------------|--------------------|
|---------------------------------------|--------------------|
|---------------------------------------|--------------------|
|---------------------------------------|--------------------|
|---------------------------------------|--------------------|


 Guitar 1
|--------------------------------------|----------------------|
|--------------------------------------|----------------------|
|--------------------------------------|----------------------|
|--1--------1--------1--------2--1--2--|--3----6----4----7----|
|--1--------1--------1--------2--1--2--|--1----4----2----5----|
|-----0--0-----0--0-----0--0-----------|--1----4----2----5----|
|
|
|Guitar 2
|---------------------------------------|----------------------|
|---------------------------------------|----------------------|
|---------------------------------------|----------------------|
|---------------------------------------|--3----6----4----7----|
|---------------------------------------|--1----4----2----5----|
|---------------------------------------|--1----4----2----5----|


Verse: (Both Guitars)
|--------------------------------------|---------------------------------------|
|--------------------------------------|---------------------------------------|
|--------------------------------------|---------------------------------------|
|--1--------1--------1--------2--1--2--|--1--------1--------1--------5\--------|
|--1--------1--------1--------2--1--2--|--1--------1--------1--------5\--------|
|-----0--0-----0--0-----0--0-----------|-----0--0-----0--0-----0--0---------0--|


|--------------------|--------------------------------------|
|--------------------|--------------------------------------|
|--------------------|--------------------------------------|
|--------------------|--1--------1--------1--------2--1--2--|
|--------------------|--1--------1--------1--------2--1--2--|
|--3--5--6--2--3--5--|-----0--0-----0--0-----0--0-----------|


|----------------------|--------------------------------------|
|----------------------|--------------------------------------|
|----------------------|--------------------------------------|
|--3----6----4----7----|--1--------1--------1--------2--1--2--|
|--1----4----2----5----|--1--------1--------1--------2--1--2--|
|--1----4----2----5----|-----0--0-----0--0-----0--0-----------|


|---------------------------------------|--------------------|
|---------------------------------------|--------------------|
|---------------------------------------|--------------------|
|--1--------1--------1--------5\--------|--------------------|
|--1--------1--------1--------5\--------|--------------------|
|-----0--0-----0--0-----0--0---------0--|--3--5--6--2--3--5--|


|--------------------------------------|----------------------|
|--------------------------------------|----------------------|
|--------------------------------------|----------------------|
|--1--------1--------1--------2--1--2--|--3----6----4----7----|
|--1--------1--------1--------2--1--2--|--1----4----2----5----|
|-----0--0-----0--0-----0--0-----------|--1----4----2----5----|


|--------------------------------------|---------------------------------------|
|--------------------------------------|---------------------------------------|
|--------------------------------------|---------------------------------------|
|--1--------1--------1--------2--1--2--|--1--------1--------1--------5\--------|
|--1--------1--------1--------2--1--2--|--1--------1--------1--------5\--------|
|-----0--0-----0--0-----0--0-----------|-----0--0-----0--0-----0--0---------0--|


|--------------------|--------------------------------------|
|--------------------|--------------------------------------|
|--------------------|--------------------------------------|
|--------------------|--1--------1--------1--------2--1--2--|
|--------------------|--1--------1--------1--------2--1--2--|
|--3--5--6--2--3--5--|-----0--0-----0--0-----0--0-----------|


 Guitar 1
|----------------------|--------------------------------------|
|----------------------|--------------------------------------|
|----------------------|--4--------3--------------------------|
|--3----6----4----7----|--4--------3--------------------------|
|--1----4----2----5----|--2--------1--------------------------|
|--1----4----2----5----|--2--0--0--1-------0--0-0-0--0--0--0--|
|
|
|Guitar 2
|----------------------|--------------------------------------|
|----------------------|--------------------------------------|
|----------------------|--7--------6--------------------------|
|--3----6----4----7----|--------------------------------------|
|--1----4----2----5----|--5--------4--------------------------|
|--1----4----2----5----|-----0--0----------0--0-0-0--0--0--0--|


|------------------------------|--------------------------------------|
|------------------------------|--------------------------------------|
|--4--------3----6--6--6--6----|--4--------3--------------------------|
|--4--------3----6--6--6--6----|--4--------3--------------------------|
|--2--------1----4--4--4--4----|--2--------1--------------------------|
|--2--0--0--1----4--4--4--4----|--2--0--0--1-------0--0-0-0--0--0--0--|
|
|
|
|------------------------------|--------------------------------------|
|------------------------------|--------------------------------------|
|--7--------6----9--9--9--9----|--7--------6--------------------------|
|------------------------------|--------------------------------------|
|--5--------4----7--7--7--7----|--5--------4--------------------------|
|-----0--0---------------------|-----0--0----------0--0-0-0--0--0--0--|


|--------------------------------------|--------------------------------------|
|--------------------------------------|--------------------------------------|
|--------------------------------------|--4--------3--------------------------|
|--------4--6--4-----------4--7--5-----|--4--------3--------------------------|
|-----2-----------2-----3-----------3--|--2--------1--------------------------|
|--2-----------------3-----------------|--2--0--0--1-------0--0-0-0--0--0--0--|
|
|
|
|--------------------------------------|--------------------------------------|
|--------------------------------------|--------------------------------------|
|-----------6-----------------7--------|--4--------3--------------------------|
|-----4--6-----6--4-----4--7-----7--4--|--4--------3--------------------------|
|--4-----------------5-----------------|--2--------1--------------------------|
|--------------------------------------|--2--0--0--1-------0--0-0-0--0--0--0--|


|------------------------------|--------------------------------------|
|------------------------------|--------------------------------------|
|--4--------3----6--6--6--6----|--4--------3--------------------------|
|--4--------3----6--6--6--6----|--4--------3--------------------------|
|--2--------1----4--4--4--4----|--2--------1--------------------------|
|--2--0--0--1----4--4--4--4----|--2--0--0--1-------0--0-0-0--0--0--0--|
|
|
|
|------------------------------|--------------------------------------|
|------------------------------|--------------------------------------|
|--7--------6----9--9--9--9----|--7--------6--------------------------|
|------------------------------|--------------------------------------|
|--5--------4----7--7--7--7----|--5--------4--------------------------|
|-----0--0---------------------|-----0--0----------0--0-0-0--0--0--0--|

|--------------------------------------|--------------------------------------|
|--------------------------------------|--------------------------------------|
|--------------------------------------|--------------------------------------|
|--------4--6--4-----------4--7--5-----|--1--------1--------1--------2--1--2--|
|-----2-----------2-----3-----------3--|--1--------1--------1--------2--1--2--|
|--2-----------------3-----------------|-----0--0-----0--0-----0--0-----------|
|
|
|
|--------------------------------------|--------------------------------------|
|--------------------------------------|--------------------------------------|
|-----------6-----------------7--------|--------------------------------------|
|-----4--6-----6--4-----4--7-----7--4--|--1--------1--------1--------2--1--2--|
|--4-----------------5-----------------|--1--------1--------1--------2--1--2--|
|--------------------------------------|-----0--0-----0--0-----0--0-----------|


 Both Guitars
|--------------------------------------|---------------------------------------|
|--------------------------------------|---------------------------------------|
|--------------------------------------|---------------------------------------|
|--1--------1--------1--------2--1--2--|--1--------1--------1--------5\--------|
|--1--------1--------1--------2--1--2--|--1--------1--------1--------5\--------|
|-----0--0-----0--0-----0--0-----------|-----0--0-----0--0-----0--0---------0--|


|--------------------|--------------------------------------|
|--------------------|--------------------------------------|
|--------------------|--------------------------------------|
|--------------------|--1--------1--------1--------2--1--2--|
|--------------------|--1--------1--------1--------2--1--2--|
|--3--5--6--2--3--5--|-----0--0-----0--0-----0--0-----------|


|----------------------|--------------------------------------|
|----------------------|--------------------------------------|
|----------------------|--------------------------------------|
|--3----6----4----7----|--1--------1--------1--------2--1--2--|
|--1----4----2----5----|--1--------1--------1--------2--1--2--|
|--1----4----2----5----|-----0--0-----0--0-----0--0-----------|


|---------------------------------------|--------------------|
|---------------------------------------|--------------------|
|---------------------------------------|--------------------|
|--1--------1--------1--------5\--------|--------------------|
|--1--------1--------1--------5\--------|--------------------|
|-----0--0-----0--0-----0--0---------0--|--3--5--6--2--3--5--|


|--------------------------------------|----------------------|
|--------------------------------------|----------------------|
|--------------------------------------|----------------------|
|--1--------1--------1--------2--1--2--|--3----6----4----7----|
|--1--------1--------1--------2--1--2--|--1----4----2----5----|
|-----0--0-----0--0-----0--0-----------|--1----4----2----5----|


|--------------------------------------|---------------------------------------|
|--------------------------------------|---------------------------------------|
|--------------------------------------|---------------------------------------|
|--1--------1--------1--------2--1--2--|--1--------1--------1--------5\--------|
|--1--------1--------1--------2--1--2--|--1--------1--------1--------5\--------|
|-----0--0-----0--0-----0--0-----------|-----0--0-----0--0-----0--0---------0--|


|--------------------|--------------------------------------|
|--------------------|--------------------------------------|
|--------------------|--------------------------------------|
|--------------------|--1--------1--------1--------2--1--2--|
|--------------------|--1--------1--------1--------2--1--2--|
|--3--5--6--2--3--5--|-----0--0-----0--0-----0--0-----------|


 Guitar 1
|----------------------|--------------------------------------|
|----------------------|--------------------------------------|
|----------------------|--4--------3--------------------------|
|--3----6----4----7----|--4--------3--------------------------|
|--1----4----2----5----|--2--------1--------------------------|
|--1----4----2----5----|--2--0--0--1-------0--0-0-0--0--0--0--|
|
|
|Guitar 2
|----------------------|--------------------------------------|
|----------------------|--------------------------------------|
|----------------------|--7--------6--------------------------|
|--3----6----4----7----|--------------------------------------|
|--1----4----2----5----|--5--------4--------------------------|
|--1----4----2----5----|-----0--0----------0--0-0-0--0--0--0--|


 Guitar 1
|------------------------------|--------------------------------------|
|------------------------------|--------------------------------------|
|--4--------3----6--6--6--6----|--4--------3--------------------------|
|--4--------3----6--6--6--6----|--4--------3--------------------------|
|--2--------1----4--4--4--4----|--2--------1--------------------------|
|--2--0--0--1----4--4--4--4----|--2--0--0--1-------0--0-0-0--0--0--0--|
|
|
|Guitar 2
|------------------------------|--------------------------------------|
|------------------------------|--------------------------------------|
|--7--------6----9--9--9--9----|--7--------6--------------------------|
|------------------------------|--------------------------------------|
|--5--------4----7--7--7--7----|--5--------4--------------------------|
|-----0--0---------------------|-----0--0----------0--0-0-0--0--0--0--|


 Guitar 1
|--------------------------------------|--------------------------------------|
|--------------------------------------|--------------------------------------|
|--------------------------------------|--4--------3--------------------------|
|--------4--6--4-----------4--7--5-----|--4--------3--------------------------|
|-----2-----------2-----3-----------3--|--2--------1--------------------------|
|--2-----------------3-----------------|--2--0--0--1-------0--0-0-0--0--0--0--|
|
|
|Guitar 2
|--------------------------------------|--------------------------------------|
|--------------------------------------|--------------------------------------|
|-----------6-----------------7--------|--4--------3--------------------------|
|-----4--6-----6--4-----4--7-----7--4--|--4--------3--------------------------|
|--4-----------------5-----------------|--2--------1--------------------------|
|--------------------------------------|--2--0--0--1-------0--0-0-0--0--0--0--|

 Guitar 1
|------------------------------|--------------------------------------|
|------------------------------|--------------------------------------|
|--4--------3----6--6--6--6----|--4--------3--------------------------|
|--4--------3----6--6--6--6----|--4--------3--------------------------|
|--2--------1----4--4--4--4----|--2--------1--------------------------|
|--2--0--0--1----4--4--4--4----|--2--0--0--1-------0--0-0-0--0--0--0--|
|
|
|Guitar 2
|------------------------------|--------------------------------------|
|------------------------------|--------------------------------------|
|--7--------6----9--9--9--9----|--7--------6--------------------------|
|------------------------------|--------------------------------------|
|--5--------4----7--7--7--7----|--5--------4--------------------------|
|-----0--0---------------------|-----0--0----------0--0-0-0--0--0--0--|


 Guitar 1
|--------------------------------------|--------------------------------------|
|--------------------------------------|--------------------------------------|
|--------------------------------------|--------------------------------------|
|--------4--6--4-----------4--7--5-----|--1--------1--------1--------2--1--2--|
|-----2-----------2-----3-----------3--|--1--------1--------1--------2--1--2--|
|--2-----------------3-----------------|-----0--0-----0--0-----0--0-----------|
|
|
|Guitar 2
|--------------------------------------|--------------------------------------|
|--------------------------------------|--------------------------------------|
|-----------6-----------------7--------|--------------------------------------|
|-----4--6-----6--4-----4--7-----7--4--|--1--------1--------1--------2--1--2--|
|--4-----------------5-----------------|--1--------1--------1--------2--1--2--|
|--------------------------------------|-----0--0-----0--0-----0--0-----------|

 Guitar 1                               Chorus:
|--------------------------------------|--------------------------------------|
|--------------------------------------|--------------------------------------|
|--------------------------------------|--------------------------------------|
|--------4--6--4-----------4--7--5-----|--------------------------------------|
|-----2-----------2-----3-----------3--|--1--1--1--1--------1--1--1--1--------|
|--2-----------------3-----------------|--0--0--0--0--------0--0--0--0--------|
|
|
|Guitar 2
|--------------------------------------|--------------------------------------|
|--------------------------------------|--------------------------------------|
|-----------6-----------------7--------|--------------------------------------|
|-----4--6-----6--4-----4--7-----7--4--|--------------------------------------|
|--4-----------------5-----------------|--1--1--1--1--------1--1--1--1--------|
|--------------------------------------|--0--0--0--0--------0--0--0--0--------|

Both guitars
|--------------------------------------|--------------------------------------|
|--------------------------------------|--------------------------------------|
|--------------------------------------|--------------------------------------|
|--------------------------------------|--------------------------------------|
|--1--1--1--1--------1--1--1--1--------|--1--1--1--1--------1--1--1--1--------|
|--0--0--0--0--------0--0--0--0--------|--0--0--0--0--------0--0--0--0--------|

|--------------------------------------|
|--------------------------------------|
|--------------------------------------|
|--------------------------------------|
|--1--1--1--1--------1--1--1--1--------|
|--0--0--0--0--------0--0--0--0--------|


 Guitar 1
|-------------------------------------------|
|-------------------------------------------|
|-------------------------------------------|
|--3------------3s--6----------4------------|
|--1----1-1-1-1-1s--4--4-4-4-4-2----2-2-2-2-|
|-------------------------------------------|
|
|
|Guitar 2
|-------------------------------------------|
|-------------------------------------------|
|--6------------6s--9----------7------------|
|-------------------------------------------|
|--4----4-4-4-4-4s--7--7-7-7-7-5----5-5-5-5-|
|-------------------------------------------|


 Guitar 1
|---------------------------------------------|
|---------------------------------------------|
|---------------------------------------------|
|--4s--7----------3------------3s--6----------|
|--2s--5--5-5-5-5-1----1-1-1-1-1s--4--4-4-4-4-|
|---------------------------------------------|
|
|
|Guitar 2
|----------------------------------------------|
|----------------------------------------------|
|--7s--10----------6------------6s--9----------|
|----------------------------------------------|
|--5s---8--8-8-8-8-4----4-4-4-4-4s--7--7-7-7-7-|
|----------------------------------------------|


 Guitar 1
|--------------------------------------------|
|--------------------------------------------|
|--------------------------------------------|
|--4------------4s---7----------3------------|
|--2----2-2-2-2-2s---5--5-5-5-5-1----1-1-1-1-|
|--------------------------------------------|
|
|
|Guitar 2
|--------------------------------------------|
|--------------------------------------------|
|--7------------7s--10----------6------------|
|--------------------------------------------|
|--5----5-5-5-5-5s---8--8-8-8-8-4----4-4-4-4-|
|--------------------------------------------|


Guitar 1
|----------------------------------------------|
|----------------------------------------------|
|----------------------------------------------|
|--3s--6----------4------------4s---7----------|
|--1s--4--4-4-4-4-2----2-2-2-2-2s---5--5-5-5-5-|
|----------------------------------------------|
|
|
|Guitar 2
|----------------------------------------------|
|----------------------------------------------|
|--6s--9----------7------------7s--10----------|
|----------------------------------------------|
|--4s--7--7-7-7-7-5----5-5-5-5-5s---8--5-5-5-5-|
|----------------------------------------------|


Both Guitars:
|---------------------------------------------------------------------|
|---------------------------------------------------------------------|
|---8---8---8---8---8---8---8---8---8---11--11--11--11--11--11--11----|
|--10--10--10--10--10--10--10--10--10---13--13--13--13--13--13--13----|
|---------------------------------------------------------------------|
|---------------------------------------------------------------------|


 Guitar 1
|-------------------------------------------|
|-------------------------------------------|
|-------------------------------------------|
|--3------------3s--6----------4------------|
|--1----1-1-1-1-1s--4--4-4-4-4-2----2-2-2-2-|
|-------------------------------------------|
|
|
|Guitar 2
|-------------------------------------------|
|-------------------------------------------|
|--6------------6s--9----------7------------|
|-------------------------------------------|
|--4----4-4-4-4-4s--7--7-7-7-7-5----5-5-5-5-|
|-------------------------------------------|


 Guitar 1
|---------------------------------------------|
|---------------------------------------------|
|---------------------------------------------|
|--4s--7----------3------------3s--6----------|
|--2s--5--5-5-5-5-1----1-1-1-1-1s--4--4-4-4-4-|
|---------------------------------------------|
|
|
|Guitar 2
|----------------------------------------------|
|----------------------------------------------|
|--7s--10----------6------------6s--9----------|
|----------------------------------------------|
|--5s---8--8-8-8-8-4----4-4-4-4-4s--7--7-7-7-7-|
|----------------------------------------------|


 Guitar 1
|--------------------------------------------|
|--------------------------------------------|
|--------------------------------------------|
|--4------------4s---7----------3------------|
|--2----2-2-2-2-2s---5--5-5-5-5-1----1-1-1-1-|
|--------------------------------------------|
|
|
|Guitar 2
|--------------------------------------------|
|--------------------------------------------|
|--7------------7s--10----------6------------|
|--------------------------------------------|
|--5----5-5-5-5-5s---8--8-8-8-8-4----4-4-4-4-|
|--------------------------------------------|


 Guitar 1
|----------------------------------------------|
|----------------------------------------------|
|----------------------------------------------|
|--3s--6----------4------------4s---7----------|
|--1s--4--4-4-4-4-2----2-2-2-2-2s---5--5-5-5-5-|
|----------------------------------------------|
|
|
|Guitar 2
|----------------------------------------------|
|----------------------------------------------|
|--6s--9----------7------------7s--10----------|
|----------------------------------------------|
|--4s--7--7-7-7-7-5----5-5-5-5-5s---8--5-5-5-5-|
|----------------------------------------------|


 Both Guitars
|---------------------------------------------------------------------|
|---------------------------------------------------------------------|
|---8---8---8---8---8---8---8---8---8---11--11--11--11--11--11--11----|
|--10--10--10--10--10--10--10--10--10---13--13--13--13--13--13--13----|
|---------------------------------------------------------------------|
|---------------------------------------------------------------------|

  Both Guitars (play 5 times)
||----------------------------------|----------------------|
||----------------------------------|----------------------|
||----------------------------------|----------------------|
||----------------------------------|----------------------|
||----------------------------------|--8----8----8----8----|
||--0-0-0-0-0-0-0-0-0-0-0-0-0-0-0-0-|--6----6----6----6----|


|----------------------------------|----------------------||
|----------------------------------|----------------------||
|----------------------------------|----------------------||
|----------------------------------|----------------------||
|----------------------------------|--3----3----3----3----||
|--0-0-0-0-0-0-0-0-0-0-0-0-0-0-0-0-|--1----1----1----1----||


 Guitar 1
|-------------------------------------------|
|-------------------------------------------|
|-------------------------------------------|
|--3------------3s--6----------4------------|
|--1----1-1-1-1-1s--4--4-4-4-4-2----2-2-2-2-|
|-------------------------------------------|
|
|
|Guitar 2
|-------------------------------------------|
|-------------------------------------------|
|--6------------6s--9----------7------------|
|-------------------------------------------|
|--4----4-4-4-4-4s--7--7-7-7-7-5----5-5-5-5-|
|-------------------------------------------|


 Guitar 1
|---------------------------------------------|
|---------------------------------------------|
|---------------------------------------------|
|--4s--7----------3------------3s--6----------|
|--2s--5--5-5-5-5-1----1-1-1-1-1s--4--4-4-4-4-|
|---------------------------------------------|
|
|
|Guitar 2
|----------------------------------------------|
|----------------------------------------------|
|--7s--10----------6------------6s--9----------|
|----------------------------------------------|
|--5s---8--8-8-8-8-4----4-4-4-4-4s--7--7-7-7-7-|
|----------------------------------------------|


 Guitar 1
|--------------------------------------------|
|--------------------------------------------|
|--------------------------------------------|
|--4------------4s---7----------3------------|
|--2----2-2-2-2-2s---5--5-5-5-5-1----1-1-1-1-|
|--------------------------------------------|
|
|
|Guitar 2
|--------------------------------------------|
|--------------------------------------------|
|--7------------7s--10----------6------------|
|--------------------------------------------|
|--5----5-5-5-5-5s---8--8-8-8-8-4----4-4-4-4-|
|--------------------------------------------|


 Guitar 1
|----------------------------------------------|
|----------------------------------------------|
|----------------------------------------------|
|--3s--6----------4------------4s---7----------|
|--1s--4--4-4-4-4-2----2-2-2-2-2s---5--5-5-5-5-|
|----------------------------------------------|
|
|
|Guitar 2
|----------------------------------------------|
|----------------------------------------------|
|--6s--9----------7------------7s--10----------|
|----------------------------------------------|
|--4s--7--7-7-7-7-5----5-5-5-5-5s---8--5-5-5-5-|
|----------------------------------------------|


Both Guitars
|---------------------------------------------------------------------|
|---------------------------------------------------------------------|
|---8---8---8---8---8---8---8---8---8---11--11--11--11--11--11--11----|
|--10--10--10--10--10--10--10--10--10---13--13--13--13--13--13--13----|
|---------------------------------------------------------------------|
|---------------------------------------------------------------------|

 Guitar 1
|----------------------------------------------------------|
|----------------------------------------------------------|
|----------------------------------------------------------|
|--11--11--11--12--12--12--9--9--11--11--------------------|
|---9---9---9---9---9---9--9--9---9---9--9--9--9--9--9--9--|
|----------------------------------------------------------|
|
|
|Guitar 2
|----------------------------------------------------------|
|----------------------------------------------------------|
|----------------------------------------------------------|
|----------------------------------------------------------|
|----------------------------------------------------------|
|----------------------------------------------------------|

 Guitar 1
|--------------------------------------------------|
|--------------------------------------------------|
|--------------------------------------------------|
|--6--6--6--7--7--7--4--4--6--6--------------------|
|--4--4--4--4--4--4--4--4--4--4--4--4--4--4--4--4--|
|--------------------------------------------------|
|
|
|Guitar 2
|--------------------------------------------------|
|--------------------------------------------------|
|--------------------------------------------------|
|--------------------------------------------------|
|--------------------------------------------------|
|--------------------------------------------------|

 Guitar 1
|--------------------------------------------------|
|--------------------------------------------------|
|--------------------------------------------------|
|--6--6--6--7--7--7--4--4--6--6--------------------|
|--5--5--5--5--5--5--5--5--5--5--5--5--5--5--5--5--|
|--------------------------------------------------|
|
|
|Guitar 2
|--------------------------------------------------|
|--------------------------------------------------|
|--------------------------------------------------|
|--------------------------------------------------|
|--------------------------------------------------|
|--------------------------------------------------|


Both Guitars:
|------------------------------------|
|------------------------------------|
|------------------------------------|
|------------------------------------|
|--7----------------7----------------|
|--5----------------4----------------|

  Both Guitars (play 4 times)
||----------------------------------------------------------|
||----------------------------------------------------------|
||----------------------------------------------------------|
||--11--11--11--12--12--12--9--9--11--11--------------------|
||---9---9---9---9---9---9--9--9---9---9--9--9--9--9--9--9--|
||----------------------------------------------------------|


|--------------------------------------------------|
|--------------------------------------------------|
|--------------------------------------------------|
|--6--6--6--7--7--7--4--4--6--6--------------------|
|--4--4--4--4--4--4--4--4--4--4--4--4--4--4--4--4--|
|--------------------------------------------------|


|--------------------------------------------------|
|--------------------------------------------------|
|--------------------------------------------------|
|--6--6--6--7--7--7--4--4--6--6--------------------|
|--5--5--5--5--5--5--5--5--5--5--5--5--5--5--5--5--|
|--------------------------------------------------|


|--------------------------------------------------||
|--------------------------------------------------||
|--------------------------------------------------||
|--------------------------------------------------||
|--7--7--7--7--7--7--7--7--7--7--7--7--7--7--7--7--||
|--5--5--5--5--5--5--5--5--4--4--4--4--4--4--4--4--||


 Both Guitars: (play 7 times)
||------------------------------------------|
||------------------------------------------|
||------------------------------------------|
||------------------------------------------|
||--4----4----4----4----4----4----4----4----|
||--2----2----2----2----2----5----5----5----|


------------------------------------------||
------------------------------------------||
------------------------------------------||
------------------------------------------||
--2----2----2----2----2----2----2----2----||
--0----0----0----0----0----4----4----4----||

 Both Guitars:
|------------------------------------------|
|------------------------------------------|
|------------------------------------------|
|------------------------------------------|
|--4----4----4----4----4----4----4----4----|
|--2----2----2----2----2----5----5----5----|


  Q    Q    Q    Q    Q    Q    Q    Q
------------------------------------------|
------------------------------------------|
------------------------------------------|
------------------------------------------|
--2--------------2---------2----2----2----|
--0----0----0----0----0----4----4----4----|


  Both Guitars (play 4 times)
||----------------------------------------------------------|
||----------------------------------------------------------|
||----------------------------------------------------------|
||--11--11--11--12--12--12--9--9--11--11--------------------|
||---9---9---9---9---9---9--9--9---9---9--9--9--9--9--9--9--|
||----------------------------------------------------------|


|--------------------------------------------------|
|--------------------------------------------------|
|--------------------------------------------------|
|--6--6--6--7--7--7--4--4--6--6--------------------|
|--4--4--4--4--4--4--4--4--4--4--4--4--4--4--4--4--|
|--------------------------------------------------|


|--------------------------------------------------|
|--------------------------------------------------|
|--------------------------------------------------|
|--6--6--6--7--7--7--4--4--6--6--------------------|
|--5--5--5--5--5--5--5--5--5--5--5--5--5--5--5--5--|
|--------------------------------------------------|


|--------------------------------------------------||
|--------------------------------------------------||
|--------------------------------------------------||
|--------------------------------------------------||
|--7--7--7--7--7--7--7--7--7--7--7--7--7--7--7--7--||
|--5--5--5--5--5--5--5--5--4--4--4--4--4--4--4--4--||

 Both guitars:
|-----------------------------------|-------------------|
|-----------------------------------|-------------------|
|-----------------------------------|-------------------|
|--4--------------------------------|-------------------|
|--4--------------------------------|-------------------|
|--2--------------------------------|-------------------|


|Entrance of the Conflagration|


Main Riff

Guitar 1

E|--------------------------------------------------------------------------------------------|
B|--------------------------------------------------------------------------------------------|
G|------------------------------8-------------------------------------------------------------|
D|----2-------2-------2---------8--2----------------------------------------------------------|
A|----2-------2-------2------2--6--2----------------------------------------------------------|
E|----0--0-0--0--0-0--0--2-3----6--0--0-0-0-0-0-0-0-0-0-0-0-0-8-7-6-6-8-7-6-6-7-6-5-5-7-6-5-5-|

E|--------------------------------------------------------------------------------------------|
B|--------------------------------------------------------------------------------------------|
G|------------------------------8-------------------------------------------------------------|
D|----2-------2-------2---------8--2---------------------------------------5-4----------------|
A|----2-------2-------2------2--6--2---------------------------------0-1-2--------------------|
E|----0--0-0--0--0-0--0--2-3----6--0--0-0-0-0-0-0-0-0-0-0-0-0--0-2-3--------------------------|

Guitar 2

E|------------------------------------------------------------------------------------------------|
B|------------------------------------------------------------------------------------------------|
G|------------------------------8-----------------------------------------------------------------|
D|----2-------2-------2---------8--2--------------------------12-10-10-10-12-10-10-10-9-9-10-9-9--|
A|----2-------2-------2------2--6--2--------------------------------------------------------------|
E|----0--0-0--0--0-0--0--2-3----6--0--0-0-0-0-0-0-0-0-0-0-0-0-------------------------------------|

E|--------------------------------------------------------------------------------------------|
B|--------------------------------------------------------------------------------------------|
G|------------------------------8-------------------------------------------------------------|
D|----2-------2-------2---------8--2---------------------------------------5-4----------------|
A|----2-------2-------2------2--6--2---------------------------------0-1-2--------------------|
E|----0--0-0--0--0-0--0--2-3----6--0--0-0-0-0-0-0-0-0-0-0-0-0--0-2-3--------------------------|

End verse fill

Guitar 1

E|-----------------------------------------|
B|-----------------------------------------|
G|-------------------------------0-5-4~----|
D|----2----------------------1-2-----------|
A|----2----------------0-1-2---------------|
E|----0------bass--------------------------|

Guitar 2

E|----------------------------------------|
B|----------------------------------------|
G|---------------------------------chorus-|
D|----------------5-4~--------------------|
A|----------0-1-2-------------------------|
E|----0-2-3-------------------------------|


Chorus

E|----------------------------------------------------------------------------------------------|
B|---------------------------------------------------------8--8--8--8--8------------------------|
G|---------------------------------------------------------9--9--9--9--9------------------------|
D|--------5------------5---------8------------8--------9---9--9--9--9--9---7--------------------|
A|----0---3---3--3--3--3--3--3---6---6--6--6--10p6--6--7---7--7--7--7--7---7--------------------|
E|-------------------------------------------------------------------------5--------------------|

E|----------------------------------------------------------------------------------------------|
B|----------------------------------------------------------------------------------------------|
G|----------------------------------------------------------------------------------------------|
D|--------------------------------------------------------9-----9-----9-----9-----9-------------|
A|-----6-7-8-9-----9-----------9-----------9--------5--6--7-7-7-7-7-7-7-7-7-7-7-7-6----6--6--6--|
E|-----4-5-6-7--7--7--7--7--7--7--7--7--7--7--7--7----------------------------------------------|

Main Riff
End Verse
Chorus


E|----------------------------------------------------------------------------------------------|
B|---------------------------------------------------------8--8--8--8--8------------------------|
G|---------------------------------------------------------9--9--9--9--9------------------------|
D|--------5------------5---------8------------8--------9---9--9--9--9--9---7--------------------|
A|----0---3---3--3--3--3--3--3---6---6--6--6--10p6--6--7---7--7--7--7--7---7--------------------|
E|-------------------------------------------------------------------------5--------------------|

E|----------------------------------------------------------------------------------------------|
B|----------------------------------------------------------------------------------------------|
G|----------------------------------------------------------------------------------------------|
D|--------------------------------------------------------9-----9-----9-----9-----9-------------|
A|-----6-7-8-9-----9-----------9-----------9--------5--6--7-7-7-7-7-7-7-7-7-7-7-7-6----6--6--6--|
E|-----4-5-6-7--7--7--7--7--7--7--7--7--7--7--7--7----------------------------------------------|

E|----------------------------------------------------------------------------------------------|
B|---------------------------------------------------------8--8--8--8--8------------------------|
G|---------------------------------------------------------9--9--9--9--9------------------------|
D|--------5------------5---------8------------8--------9---9--9--9--9--9---7--------------------|
A|----0---3---3--3--3--3--3--3---6---6--6--6--10p6--6--7---7--7--7--7--7---7--------------------|
E|-------------------------------------------------------------------------5--------------------|

E|----------------------------------------------------------------------------------------------|
B|----------------------------------------------------------------------------------------------|
G|----------------------------------------------------------------------------------------------|
D|--------------------------------------------------------9-----9-----9-----9-----9-------------|
A|-----6-7-8-9-----9-----------9-----------9--------5--6--7-7-7-7-7-7-7-7-7-7-7-7-6----6--6--6--|
E|-----4-5-6-7--7--7--7--7--7--7--7--7--7--7--7--7----------------------------------------------|

Break

Guitar 1
E|----------------------------------------------------------------------------------------------|
B|----------------------------------------------------------------------------------------------|
G|----------------------------------------------------------------------------------------------|
D|----2-----------------------------------------------------------------------------------------|
A|----2-----------------------------------------------------------------------------------------|
E|----0-----------------------------------------------------------------------------------------|

Guitar 2

E|----------------------------------------------------------------------------------------------|
B|----------------------------------------------------------------------------------------------|
G|----------------------------------------------------------------------------------------------|
D|----9---------------9-11--------------11-12----------------------------12-8-------------------|
A|----7--777777777777-7-9--999999999999-9--10--101010101010101010101010--10-6--666666666666-----|
E|----------------------------------------------------------------------------------------------|

Both guitars

E|----------------------------------------------------------------------------------------------|
B|----------------------------------------------------------------------------------------------|
G|----------------------------------------------------------------------------------------------|
D|----9---------------9-5---------------5--8----------------8--4--------------------------------|
A|----7--777777777777-7-3--333333333333-3--6--666666666666--6--2--222222222222------------------|
E|----------------------------------------------------------------------------------------------|

Both guitars

E|----------------------------------------------------------------------------------------------|
B|----------------------------------------------------------------------------------------------|
G|----------------------------------------------------------------------------------------------|
D|----9---------------9-11--------------11-12----------------------------12-8-------------------|
A|----7--777777777777-7-9--999999999999-9--10--101010101010101010101010--10-6--666666666666-----|
E|----------------------------------------------------------------------------------------------|


Both guitars

E|----------------------------------------------------------------------------------------------|
B|----------------------------------------------------------------------------------------------|
G|----------------------------------------------------------------------------------------------|
D|----9---------------9-5---------------5--8----------------8--4--------------------------------|
A|----7--777777777777-7-3--333333333333-3--6--666666666666--6--2--222222222222------------------|
E|----------------------------------------------------------------------------------------------|

Guitar 1

E|----------------------------------------------------------------------------------------------------------------|
B|----------------------------------------------------------------------------------------------------------------|
G|----12--------------------------12-14--------------------------14-16--------------------------16-11-------------|
D|----------------------------------------------------------------------------------------------------------------|
A|----10-101010101010101010101010-10-12-121212121212121212121212-12-14-141414141414141414141414-14-9-999999999999-|
E|----------------------------------------------------------------------------------------------------------------|

Guitar 2

E|----------------------------------------------------------------------------------------------|
B|----------------------------------------------------------------------------------------------|
G|----------------------------------------------------------------------------------------------|
D|----9---------------9-11--------------11-12----------------------------12-8-------------------|
A|----7--777777777777-7-9--999999999999-9--10--101010101010101010101010--10-6--666666666666-----|
E|----------------------------------------------------------------------------------------------|

Guitar 1

E|----------------------------------------------------------------------------------------------|
B|----------------------------------------------------------------------------------------------|
G|----12---------------------------12-9--------------9-11-------------11-8----------------------|
D|----------------------------------------------------------------------------------------------|
A|----10--101010101010101010101010-10-7-777777777777-7-9-999999999999-9--6-666666666666---------|
E|----------------------------------------------------------------------------------------------|

Guitar 2

E|----------------------------------------------------------------------------------------------|
B|----------------------------------------------------------------------------------------------|
G|----------------------------------------------------------------------------------------------|
D|----9---------------9-5---------------5--8----------------8--4--------------------------------|
A|----7--777777777777-7-3--333333333333-3--6--666666666666--6--2--222222222222------------------|
E|----------------------------------------------------------------------------------------------|

GO!

Both Guitars

Im not 100% sure about the fill, but it sounds pretty correct

E|----------------------------------------------------------------------------------------------|
B|----------------------------------------------------------------------------------------------|
G|----------------------------------------------------------------------------------------------|
D|----9------9------9------9------9---8---9------9------9---------------------------------------|
A|----7------7------7------7------7---6---7------7------7--------10---------------13------------|
E|------0--0---0--0---0--0---0--0---0-------0--0---0--0---0-8-11----11-8--0-11-14----14-11------|

E|----------------------------------------------------------------------------------------------|
B|----------------------------------------------------------------------------------------------|
G|----------------------------------------------------------------------------------------------|
D|----9------9------9------9------9---8---9------9------9---------14----------------13----------|
A|----7------7------7------7------7---6---7------7------7-0-12-15----15-12--0-11-14----14-11----|
E|------0--0---0--0---0--0---0--0---0-------0--0---0--0-----------------------------------------|X2

E|-----------------------------------------------------------------------------------------------------------|
B|-----------------------------------------------------------------------------------------------------------|
G|-----------------------------------------------------------------------------------------------------------|
D|-----------------------------------------------------------------------------------------------------------|
A|------------14----------------13---------------10--------------9---------------14----------------13--------|
E|----0-12-15----15-12--0-11-14----14-11--0-8-11----11-8--0-7-10---10-7--0-12-15----15-12--0-11-14----14-11--|

Next riff (Rythym under Solos)

E|----------------------------------------------------------------------------------------------------------------|
B|----------------------------------------------------------------------------------------------------------------|
G|----5s7-7-----7---5-5-----5-----4h5p4------5---4-4-----5-----4h5p4-----5---4-4-----4-----2-2-----2-----5-5---4--|
D|----5s7-7-----7---5-5-----5-----5---5------5---5-5-----5-----5---5-----5---5-5-----5-----3-3-----3-----5-5---5--|
A|----------0-0---0-----0-0---0-0--------------------------------------------------------------0-0---0-0----------|
E|---------------------------------------3-3---3-----3-3---3-3-------0-0---0-----0-0---0-0-------------------3----|

Solos (Not Done)

Back to this riff


E|----------------------------------------------------------------------------------------------|
B|----------------------------------------------------------------------------------------------|
G|----------------------------------------------------------------------------------------------|
D|----9------9------9------9------9---8---9------9------9---------------------------------------|
A|----7------7------7------7------7---6---7------7------7--------10---------------13------------|
E|------0--0---0--0---0--0---0--0---0-------0--0---0--0---0-8-11----11-8--0-11-14----14-11------|

E|----------------------------------------------------------------------------------------------|
B|----------------------------------------------------------------------------------------------|
G|----------------------------------------------------------------------------------------------|
D|----9------9------9------9------9---8---9------9------9---------14----------------13----------|
A|----7------7------7------7------7---6---7------7------7-0-12-15----15-12--0-11-14----14-11----|
E|------0--0---0--0---0--0---0--0---0-------0--0---0--0-----------------------------------------|X2

E|-----------------------------------------------------------------------------------------------------------|
B|-----------------------------------------------------------------------------------------------------------|
G|-----------------------------------------------------------------------------------------------------------|
D|-----------------------------------------------------------------------------------------------------------|
A|------------14----------------13---------------10--------------9---------------14----------------13--------|
E|----0-12-15----15-12--0-11-14----14-11--0-8-11----11-8--0-7-10---10-7--0-12-15----15-12--0-11-14----14-11--|

Main Riff
Chorus
End

|Anthem (We are the Fire)|


Intro
e|-----------------------------------------------------------------------|
B|-----------------------------------------------------------------------|
G|-----9----10-----7---9-----4h5p4\2-----9----10-----4-4-----2-----------|
D|-----10---10-----9---9-----5----\2-----10---10-----5-5-----3-----------|
A|-0-0----0----0-0---0---0-0---------0-0----0----0-0------------0-0---0--|
E|------------------------------------------------------------------3----|
 |
 |
e|-----------------------------------------------------------------------|
B|-----------------------------------------------------------------------|
G|-2---------------------------------2-----------------------------------|
D|-2---------------------------------2---------------5----------------2--|
A|-0---------------------------------0---------------5----------------0--|
E|---------------------------------------------------3-------------------|


e|-----------------------------------------------------------------------|
B|-----------------------------------------------------------------------|
G|-----9----10-----7---9-----4-5-4---------------------------------------|
D|-----10---10-----9---9-----5-5-5--3--------------5---------------------|
A|-0-0----0----0-0---0---0-0--------3--------------5---------------------|
E|----------------------------------1--------------3---------------------|
 |
 |
e|-----------------------------------------------------------------------|
B|-----------------------------------------------------------------------|
G|-----------------------------------------------------------------------|
D|-2---------------------------------------------------------------------|
A|-0--------------------------------3--------------5---------------------|
E|----------------------------------1--------------3---------------------|

e|----------|-3b-----3---5-7b-5h7p5----------------------------------|
B|----------|----------5------------6----------------------8b10------|
G|--2*~~~~~-|-----------------------------5---5-7~-5-5-7-5-----------|
D|----------|-------------------------7-7---7------------------------|
A|----------|--------------------------------------------------------|
E|----------|--------------------------------------------------------|


e|--8p5---5------------------------------------|
B|------8---8p5---5----------------------------|
G|--------------7---7p5--7b9-7b9r7-5-----------|
D|-----------------------------------7-5*~~~~~-|
A|---------------------------------------------|
E|---------------------------------------------|

e|---------------|--------------------------X2|--------------|
B|---------------|----------------------------|--------------|
G|---------------|----------------------------|--------------|
D|--7--5--3~-----|--3--5---7-7\5/7---------5--|--3--7--2--9--|
A|--7--5--3~-----|--3--5---7-7\5/7---------5--|--3--7--2--9--|
E|--5--3--1~-----|--1--3---5-5\3/5-5555555-3--|--1--5--0--7--|

Pre-Chorus
|----------------------------------------------X2|
|------------------------------------------------|
|------5-5p4---------5-5p4--------5-5p4----------|
|-2------------5------------2-----------2-5-7-9--|
|-0-0-0------0-3-3-3------0-0-0-0-------0-3-5-7--|
|------------------------------------------------|


e|-----------------------------------------------------------------------|
B|-----------------------------------------------------------------------|
G|-----9----10-----7---9-----4h5p4\2-----9----10-----4-4-----2-----------|
D|-----10---10-----9---9-----5----\2-----10---10-----5-5-----3-----------|
A|-0-0----0----0-0---0---0-0---------0-0----0----0-0------------0-0---0--|
E|------------------------------------------------------------------3----|
 |
 |
e|-----------------------------------------------------------------------|
B|-----------------------------------------------------------------------|
G|-2---------------------------------2-----------------------------------|
D|-2---------------------------------2---------------5----------------2--|
A|-0---------------------------------0---------------5----------------0--|
E|---------------------------------------------------3-------------------|


e|-----------------------------------------------------------------------|
B|-----------------------------------------------------------------------|
G|-----9----10-----7---9-----4-5-4---------------------------------------|
D|-----10---10-----9---9-----5-5-5--3--------------5---------------------|
A|-0-0----0----0-0---0---0-0--------3--------------5---------------------|
E|----------------------------------1--------------3---------------------|
 |
 |
e|-----------------------------------------------------------------------|
B|-----------------------------------------------------------------------|
G|-----------------------------------------------------------------------|
D|-2---------------------------------------------------------------------|
A|-0--------------------------------3--------------5---------------------|
E|----------------------------------1--------------3---------------------|

e|---------------|--------------------------X2|--------------|
B|---------------|----------------------------|--------------|
G|---------------|----------------------------|--------------|
D|--7--5--3~-----|--3--5---7-7\5/7---------5--|--3--7--2--9--|
A|--7--5--3~-----|--3--5---7-7\5/7---------5--|--3--7--2--9--|
E|--5--3--1~-----|--1--3---5-5\3/5-5555555-3--|--1--5--0--7--|

Pre-Chorus
|----------------------------------------------X4|
|------------------------------------------------|
|------5-5p4---------5-5p4--------5-5p4----------|
|-2------------5------------2-----------2-5-7-9--|
|-0-0-0------0-3-3-3------0-0-0-0-------0-3-5-7--|
|------------------------------------------------|


e|-----------------------------------------------------------------------|
B|-----------------------------------------------------------------------|
G|-----9----10-----7---9-----4h5p4\2-----9----10-----4-4-----2-----------|
D|-----10---10-----9---9-----5----\2-----10---10-----5-5-----3-----------|
A|-0-0----0----0-0---0---0-0---------0-0----0----0-0------------0-0---0--|
E|------------------------------------------------------------------3----|
 |
 |
e|-----------------------------------------------------------------------|
B|-----------------------------------------------------------------------|
G|-2---------------------------------2-----------------------------------|
D|-2---------------------------------2---------------5----------------2--|
A|-0---------------------------------0---------------5----------------0--|
E|---------------------------------------------------3-------------------|


e|-----------------------------------------------------------------------|
B|-----------------------------------------------------------------------|
G|-----9----10-----7---9-----4-5-4---------------------------------------|
D|-----10---10-----9---9-----5-5-5--3--------------5---------------------|
A|-0-0----0----0-0---0---0-0--------3--------------5---------------------|
E|----------------------------------1--------------3---------------------|
 |
 |
e|-----------------------------------------------------------------------|
B|-----------------------------------------------------------------------|
G|-----------------------------------------------------------------------|
D|-2---------------------------------------------------------------------|
A|-0--------------------------------3--------------5---------------------|
E|----------------------------------1--------------3---------------------|

e|-----------------------------------------------------------------------|
B|-----------------------------------------------------------------------|
G|-----9----10-----7---9-----4h5p4\2-----9----10-----4-4-----2-----------|
D|-----10---10-----9---9-----5----\2-----10---10-----5-5-----3-----------|
A|-0-0----0----0-0---0---0-0---------0-0----0----0-0------------0-0---0--|
E|------------------------------------------------------------------3----|
 |
 |
e|-----------------------------------------------------------------------|
B|-----------------------------------------------------------------------|
G|-2---------------------------------2-----------------------------------|
D|-2---------------------------------2---------------5----------------2--|
A|-0---------------------------------0---------------5----------------0--|
E|---------------------------------------------------3-------------------|


e|-----------------------------------------------------------------------|
B|-----------------------------------------------------------------------|
G|-----9----10-----7---9-----4-5-4---------------------------------------|
D|-----10---10-----9---9-----5-5-5--3--------------5---------------------|
A|-0-0----0----0-0---0---0-0--------3--------------5---------------------|
E|----------------------------------1--------------3---------------------|
 |
 |
e|-----------------------------------------------------------------------|
B|-----------------------------------------------------------------------|
G|-----------------------------------------------------------------------|
D|-2---------------------------------------------------------------------|
A|-0--------------------------------3--------------5---------------------|
E|----------------------------------1--------------3---------------------|


e|--------------|
B|--------------|
G|--------------|
D|--3--7--2--9--|
A|--3--7--2--9--|
E|--1--5--0--7--|

Corey's solo#1 (i'll do my best :P)

e|----------------------------------------------------------------|
B|----------------------------------------------------------------|
G|-------------------------------------------------12-----12-14---|
D|------------------12-----12h14--12h14h15p12h14h15--14h15--------|
A|----------12h14h15--14h15-----15--------------------------------|
E|-12h14p15-------------------------------------------------------|

e|--------------------------------------------20------------|
B|----------------------------------15--20bu22--22r20-------|
G|--12h14h15/17-14h15h17/19-15h17h19------------------------|
D|----------------------------------------------------------|
A|----------------------------------------------------------|
E|----------------------------------------------------------|

e|--15--13-13-13--15--12-12-12--13--10-10-10-10/12\10------------|
B|--17--15-15-15--17--13-13-13--15--12-12-12-12/13\12------------|
G|----------------------------------------------------14-12-14---|
D|----------------------------------------------------14-12-14---|
A|---------------------------------------------------------------|
E|---------------------------------------------------------------|

e|-------------------------------------------|
B|---------------------------13-15b17r15-----|
G|--0-12-0-12/14-0-12-0-12-14----------------|
D|--0-12-0-12/14-0-12------------------------|
A|-------------------------------------------|
E|-------------------------------------------|

e|--T--------T-------------------------------------------|
B|-17p10h13h17p10h13-T-------T---------------------------|
G|------------------16p9h12h17p9h12-T-------T-------T----|
D|---------------------------------16p9h12h17p9h12h16----|
A|-------------------------------------------------------|
E|-------------------------------------------------------|

e|---------------------------------------|
B|---------------------------------------|
G|---------------------------9/10\9*-----|
D|-----------------7-10-7-10-------------|
A|--------7-10-7-10----------------------|
E|--5-8-10-------------------------------|

e|---------------12-15/19\15-12-----------------|
B|-------------12--------------12---------------|
G|-----------12------------------12-------------|
D|---------14----------------------14-----------|
A|-------14--------------------------14---------|
E|--12h15------------------------------15-------|

e|-------15h19p15----------15h19p15------151515131313151515171715151313-12-|
B|-----16--------16------16--------16----171717151515171717181817171515-13-|
G|---17------------17--17------------17------------------------------------|
D|-17----------------17----------------------------------------------------|
A|-------------------------------------------------------------------------|
E|-------------------------------------------------------------------------|

i know its kinda crap but its better than nothing

Matt's solo  (this one's gonna be a bit easier)

e|----------------------12----12-17~-|
B|-------------10-15-10----14--------|
G|--------7-11-----------------------|
D|------9----------------------------|
A|----7------------------------------|
E|--5--------------------------------|

e|--19p15p12--15p12-----15p12-------------------------------------------|
B|----------19-----19p15-----19p15p12h15p12--19b20r19p17p15-------------|
G|---------------------------------------------------------14-16~~~-----|
D|----------------------------------------------------------------------|
A|----------------------------------------------------------------------|
E|----------------------------------------------------------------------|

e|--14p10--------------10h14p10------10h14/17p14----------14--|
B|-------12----------12--------12--12-----------15------15----|
G|---------11------11------------11---------------16--16------|
D|-----------12--12---------------------------------16--------|
A|-------------14---------------------------------------------|
E|------------------------------------------------------------|

those sweeps are a frickin bitch to tab:P

e|-19-19-19--17-17-17-17--14-14--17~~~~-----|
B|------------------------------------------|
G|-16-16-16--14-14-14-14--11-11--14---------|
D|------------------------------------------|
A|------------------------------------------|
E|------------------------------------------|

Now for the duel guitar.................attack!

here ive arranged it for one guitar but if theres two of u then i think they just play
of the octaves each.

e|-5-7-8-8/12\10-8-10-12-12/17-15---|
B|----------------------------------|
G|-2-4-5-5/9-\7--5-7--9--9-/14-12---|
D|----------------------------------|
A|----------------------------------|
E|----------------------------------|

e|-5-7-8-8/12\10-8-10-12-12--20-19-17-15-13-12--15~~-------------------------|
B|---------------------------------------------------------------------------|
G|-2-4-5-5/9-\7--5-7--9--9---17-16-14-12-10-9---12~~--9*w\-------//----------|
D|----------------------------------------------------9*w\\-----//-----------|
A|--------------------------------------------------------\\---//------------|
E|---------------------------------------------------------\\-//-------------|
                                                             V

e|--------------------------X2-|---------------|
B|-----------------------------|---------------|
G|------4---5-----4---5--0~----|---------------|
D|------5---5-----5---5--0~----|----3~--5~-----|
A|--0-0---0---0-0---0----------|----3~--5~-----|
E|-----------------------------|----1~--3~-----|


e|--------------------------X2-|---------------|
B|-----------------------------|---------------|
G|------4---5-----4---5--0~----|---------------|
D|------5---5-----5---5--0~----|----3~--5~-----|
A|--0-0---0---0-0---0----------|----3~--5~-----|
E|-----------------------------|----1~--3~-----|

e|--------------------------X2-|---------------|
B|-----------------------------|---------------|
G|------4---5-----4---5--0~----|---------------|
D|------5---5-----5---5--0~----|----3~--5~-----|
A|--0-0---0---0-0---0----------|----3~--5~-----|
E|-----------------------------|----1~--3~-----|

e|--------------------------X2-|---------------|
B|-----------------------------|---------------|
G|------4---5-----4---5--0~----|---------------|
D|------5---5-----5---5--0~----|----3~--5~-----|
A|--0-0---0---0-0---0----------|----3~--5~-----|
E|-----------------------------|----1~--3~-----|

e|-----------------------------------------------------------------------|
B|-----------------------------------------------------------------------|
G|-----9----10-----7---9-----4h5p4\2-----9----10-----4-4-----2-----------|
D|-----10---10-----9---9-----5----\2-----10---10-----5-5-----3-----------|
A|-0-0----0----0-0---0---0-0---------0-0----0----0-0------------0-0---0--|
E|------------------------------------------------------------------3----|
 |
 |
e|-----------------------------------------------------------------------|
B|-----------------------------------------------------------------------|
G|-2---------------------------------2-----------------------------------|
D|-2---------------------------------2---------------5----------------2--|
A|-0---------------------------------0---------------5----------------0--|
E|---------------------------------------------------3-------------------|


e|-----------------------------------------------------------------------|
B|-----------------------------------------------------------------------|
G|-----9----10-----7---9-----4-5-4---------------------------------------|
D|-----10---10-----9---9-----5-5-5--3--------------5---------------------|
A|-0-0----0----0-0---0---0-0--------3--------------5---------------------|
E|----------------------------------1--------------3---------------------|
 |
 |
e|-----------------------------------------------------------------------|
B|-----------------------------------------------------------------------|
G|-----------------------------------------------------------------------|
D|-2---------------------------------------------------------------------|
A|-0--------------------------------3--------------5---------------------|
E|----------------------------------1--------------3---------------------|

e|-----------------------------------------------------------------------|
B|-----------------------------------------------------------------------|
G|-----9----10-----7---9-----4h5p4\2-----9----10-----4-4-----2-----------|
D|-----10---10-----9---9-----5----\2-----10---10-----5-5-----3-----------|
A|-0-0----0----0-0---0---0-0---------0-0----0----0-0------------0-0---0--|
E|------------------------------------------------------------------3----|
 |
 |
e|-----------------------------------------------------------------------|
B|-----------------------------------------------------------------------|
G|-2---------------------------------2-----------------------------------|
D|-2---------------------------------2---------------5----------------2--|
A|-0---------------------------------0---------------5----------------0--|
E|---------------------------------------------------3-------------------|


e|-----------------------------------------------------------------------|
B|-----------------------------------------------------------------------|
G|-----9----10-----7---9-----4-5-4---------------------------------------|
D|-----10---10-----9---9-----5-5-5--3--------------5---------------------|
A|-0-0----0----0-0---0---0-0--------3--------------5---------------------|
E|----------------------------------1--------------3---------------------|
 |
 |
e|-----------------------------------------------------------------------|
B|-----------------------------------------------------------------------|
G|-----------------------------------------------------------------------|
D|-2---------------------------------------------------------------------|
A|-0--------------------------------3--------------5---------------------|
E|----------------------------------1--------------3---------------------|

e|-----------------------------------------------------------------------|
B|-----------------------------------------------------------------------|
G|-----9----10-----7---9-----4h5p4\2-----9----10-----4-4-----2-----------|
D|-----10---10-----9---9-----5----\2-----10---10-----5-5-----3-----------|
A|-0-0----0----0-0---0---0-0---------0-0----0----0-0------------0-0---0--|
E|------------------------------------------------------------------3----|
 |
 |
e|-----------------------------------------------------------------------|
B|-----------------------------------------------------------------------|
G|-2---------------------------------2-----------------------------------|
D|-2---------------------------------2---------------5----------------2--|
A|-0---------------------------------0---------------5----------------0--|
E|---------------------------------------------------3-------------------|


e|-----------------------------------------------------------------------|
B|-----------------------------------------------------------------------|
G|-----9----10-----7---9-----4-5-4---------------------------------------|
D|-----10---10-----9---9-----5-5-5--3--------------5---------------------|
A|-0-0----0----0-0---0---0-0--------3--------------5---------------------|
E|----------------------------------1--------------3---------------------|
 |
 |
e|-----------------------------------------------------------------------|
B|-----------------------------------------------------------------------|
G|-----------------------------------------------------------------------|
D|-2---------------------------------------------------------------------|
A|-0--------------------------------3--------------5---------------------|
E|----------------------------------1--------------3---------------------|

e|-----------------------------------------------------------------------|
B|-----------------------------------------------------------------------|
G|-----9----10-----7---9-----4h5p4\2-----9----10-----4-4-----2-----------|
D|-----10---10-----9---9-----5----\2-----10---10-----5-5-----3-----------|
A|-0-0----0----0-0---0---0-0---------0-0----0----0-0------------0-0---0--|
E|------------------------------------------------------------------3----|
 |
 |
e|-----------------------------------------------------------------------|
B|-----------------------------------------------------------------------|
G|-2---------------------------------2-----------------------------------|
D|-2---------------------------------2---------------5----------------2--|
A|-0---------------------------------0---------------5----------------0--|
E|---------------------------------------------------3-------------------|


e|-----------------------------------------------------------------------|
B|-----------------------------------------------------------------------|
G|-----9----10-----7---9-----4-5-4---------------------------------------|
D|-----10---10-----9---9-----5-5-5--3--------------5---------------------|
A|-0-0----0----0-0---0---0-0--------3--------------5---------------------|
E|----------------------------------1--------------3---------------------|
 |
 |
e|-----------------------------------------------------------------------|
B|-----------------------------------------------------------------------|
G|-----------------------------------------------------------------------|
D|-2---------------------------------------------------------------------|
A|-0--------------------------------3--------------5---------------------|
E|----------------------------------1--------------3---------------------|

Now for the outro-solo

e|-----------------------------------|
B|-8b10r8p6-5~--5h6h8-12b13r12p10----|
G|--------------------------------9--|
D|-----------------------------------|
A|-----------------------------------|
E|-----------------------------------|

e|-----------------------------------------------------------------|
B|-----------------------------------9b10--------------------------|
G|-------7b7.5----7-7------7b7.5-----------9------7-7-7b8r7--------|
D|---7-10------10-----7h10------10p7---------10p7-----------10p7---|
A|-----------------------------------------------------------------|
E|-----------------------------------------------------------------|

                                          T           T           T
e|-17p15p12h17p15p12h17p15p12h17p15p12h17h22p15p12h17h22p15p12h17h22p17p15-|
B|-------------------------------------------------------------------------|
G|-------------------------------------------------------------------------|
D|-------------------------------------------------------------------------|
A|-------------------------------------------------------------------------|
E|-------------------------------------------------------------------------|

e|-----------------------12h17p15p12h17p15p12h17p15p12h17-22b24-22b24-22b24|
B|-15b17-15b17--15p13------------------------------------------------------|
G|--------------------14---------------------------------------------------|
D|-------------------------------------------------------------------------|
A|-------------------------------------------------------------------------|
E|-------------------------------------------------------------------------|

e|12h17p15p12h17p15p12h17p15p12h1712h17p15p12h17p15p12h17p15p12h17p12~~~~--|
B|-------------------------------------------------------------------------|
G|-------------------------------------------------------------------------|
D|-------------------------------------------------------------------------|
A|-------------------------------------------------------------------------|
E|-------------------------------------------------------------------------|

e|--------5h9/12\9p5-------------5h9/12\9p5---5h9/12\9p5-----5h9/12\9p5----|
B|-------5----------5-----------5----------5-5----------5---5----------5---|
G|------5------------5---------5------------5------------5-5------------5--|
D|-----7--------------7-------7---------------------------7--------------7-|
A|----7----------------7-----7---------------------------------------------|
E|-5h9------------------9p5h9----------------------------------------------|

e|--15b17-15b17r15---17~~~~~~~---|
B|-------------------------------|
G|-------------------------------|
D|-------------------------------|
A|-------------------------------|
E|-------------------------------|

"we are the fire!"


|Unrepentant|


Trivium
Unrepentant
The Crusade

intro riff
E|---------------------------------------------------------------------|
B|---------------------------------------------------------------------|
G|---------------------------------------------------------------------|
D|-4-------4-------4-------5-----5-4-------4--------------4------------|
A|--------------------------------------------------------2-------5----|
E|---2-0-2---2-0-2---2-0-2---2-0-----2-0-2---2-0-2--2-2-2---2-2-2-3----|

E|---------------------------------------------------------------------|
B|---------------------------------------------------------------------|
G|---------------------------------------------------------------------|
D|-4-------4-------4-------5-----5-4-------4----------------0-2-0------|
A|------------------------------------------------------2-3-------2----|
E|---2-0-2---2-0-2---2-0-2---2-0-----2-0-2---2-0-2--2-3----------------|

E|------------------------------------------------------------------------|
B|------------------------------------------------------------------------|
G|------------------------------------------------------------------------|
D|-4-------4-------4-------5-----5-4-------4----------------0-2-0---------|
A|------------------------------------------------------2-3-------2-5-7-5-|
E|---2-0-2---2-0-2---2-0-2---2-0-----2-0-2---2-0-2--2-3-------------------|

E|----------|
B|----------|
G|----------|
D|----------|
A|-3-2------|
E|-----3-2--|

E|---------------------------------------------------------------|
B|---------------------------------------------------------------|
G|---------------------------------------------------------------|
D|-----------------------------------------------------5---------|
A|-----------------------3-----5-----------------------3---------|
E|-2-2-2-2-2-3-2--2-2-3----3-2----2-2-2-2-2-3-2--2-2-2-----------|

E|----------------------------------------------------------------|
B|----------------------------------------------------------------|
G|----------------------------------------------------------------|
D|-----------------------------------------------------4----------|
A|-----------------------3-----5-----------------------2-------5--|
E|-2-2-2-2-2-3-2--2-2-3----3-2----2-2-2-2-2-3-2--2-2-2---2-2-2-3--|

 I havent figured out the part after this so we'll just skip that to the part after.

E|------------------------------------------------------------|
B|------------------------------------------------------------|
G|-11-----7------11-----14-----12--12--12-----9-----6-----11--|
D|------------------------------------------------------------|X2
A|-9------5------9------12-----10--10--10-----7-----4-----9---|
E|------------------------------------------------------------|

E|-----------------------------------------------------------------------|
B|-----------------------------------------------------------------------|
G|-4--4--4--6--6--6--7--7-----11-11-11--9--9--9--11-11-14-14-14-12-12-12-|
D|------------------------X2---------------------------------------------|
A|-2--2--2--4--4--4--5--5-----9--9--9---7--7--7--9--9--12-12-12-10-10-10-|
E|-----------------------------------------------------------------------|

E|--------|
B|--------|
G|-11-11--|
D|--------|X2
A|-9--9---|
E|--------|

E|------------------------------------------------------------------|
B|------------------------------------------------------------------|
G|------------------------------------------------------------------|
D|------------------------------------------------------------------|
A|-----9-7-9-----9-7-9----9-7-9---9-7-9-12-11-----------------------|
E|--2---------2--------5-------7------------------------------------|

E|----------------------------------------------------------------|
B|----------------------------------------------------------------|
G|----------------------------------------------------------------|
D|----------------------------------------------------------------|
A|--4--9-7-9--4--9-7-9--7--9-7-9--9--9-7-9-12-11------------------|
E|--2---------2---------5---------7-------------------------------|

|And Sadness Will Sear|


Intro (played whole thing twice):
|-----------------------------------------------------------------------------|
|-----------------------------------------------------------------------------|
|-----------------------------------------------------------------------------|
|-----------------------------------------------------------------------------|
|-----------------------------------------------------------------------------|
|---10---10---10---10---10---10--m--10----9----9------------7-----------2-----|
|----8----8----8----8----8----8--m---8----7----7----0--0----0----12/----0-----|

(PM throughout)
|--------------------------|
|--------------------------|
|--------------------------|
|--------------------------|
|--------------------------|
|---2--2--2--2--2--2--2----|
|---0--0--0--0--0--0--0----|

|---------------------------------------------------------------------------|
|---------------------------------------------------------------------------|
|---------------------------------------------------------------------------|
|---------------------------------------------------------------------------|
|---------------------------------------------------------------------------|
|---10---10---10---10---10---10--m--10----9----9------------7----7----2-----|
|----8----8----8----8----8----8--m---8----7----7----0--0----0----0----0-----|

(PM throughout)
|--------------------------|
|--------------------------|
|--------------------------|
|--------------------------|
|--------------------------|
|---2--2--2--2--2--2--2----|
|---0--0--0--0--0--0--0----|


Verse (twice):
|--------------------------------------------------------|
|--------------------------------------------------------|
|---------------------------------------------------9----|
|--------7----11----10-------------7----11----10---------|
|---9-------------------------9--------------------------|
|--------------------------------------------------------|
|--------------------------------------------------------|

Chorus (play whole thing twice):
|-----------------------------------------------------------------------------|
|-----------------------------------------------------------------------------|
|-----------------------------------------------------------------------------|
|-----------------------------------------------------------------------------|
|-----------------------------------------------------------------------------|
|---10---10---10---10---10---10--m--10----9----9------------7-----------2-----|
|----8----8----8----8----8----8--m---8----7----7----0--0----0----12/----0-----|

(PM throughout)
|--------------------------|
|--------------------------|
|--------------------------|
|--------------------------|
|--------------------------|
|---2--2--2--2--2--2--2----|
|---0--0--0--0--0--0--0----|

|---------------------------------------------------------------------------|
|---------------------------------------------------------------------------|
|---------------------------------------------------------------------------|
|---------------------------------------------------------------------------|
|---------------------------------------------------------------------------|
|---10---10---10---10---10---10--m--10----9----9------------7----7----2-----|
|----8----8----8----8----8----8--m---8----7----7----0--0----0----0----0-----|

(PM throughout)
|--------------------------|
|--------------------------|
|--------------------------|
|--------------------------|
|--------------------------|
|---2--2--2--2--2--2--2----|
|---0--0--0--0--0--0--0----|

Verse (twice):
|--------------------------------------------------------|
|--------------------------------------------------------|
|---------------------------------------------------9----|
|--------7----11----10-------------7----11----10---------|
|---9-------------------------9--------------------------|
|--------------------------------------------------------|
|--------------------------------------------------------|

(under verse riff second time)
|-----------------------------------------------------|
|-----------------------------------------------------|
|-----------------------------------------------------|
|-----------------------------------------------------|
|-----------------------------------------------------|
|---2--2--2--2--2--2--2--2--2--2--2--2--2--2--2--2----|
|-----------------------------------------------------|

|-----------------------------------------------------|
|-----------------------------------------------------|
|-----------------------------------------------------|
|-----------------------------------------------------|
|-----------------------------------------------------|
|-----------------------------------------------------|
|---3--3--3--3--3--3--3--3--0--0--0--0--0--0--0--0----|

Chorus (play whole thing twice):
|-----------------------------------------------------------------------------|
|-----------------------------------------------------------------------------|
|-----------------------------------------------------------------------------|
|-----------------------------------------------------------------------------|
|-----------------------------------------------------------------------------|
|---10---10---10---10---10---10--m--10----9----9------------7-----------2-----|
|----8----8----8----8----8----8--m---8----7----7----0--0----0----12/----0-----|

(PM throughout)
|--------------------------|
|--------------------------|
|--------------------------|
|--------------------------|
|--------------------------|
|---2--2--2--2--2--2--2----|
|---0--0--0--0--0--0--0----|

|---------------------------------------------------------------------------|
|---------------------------------------------------------------------------|
|---------------------------------------------------------------------------|
|---------------------------------------------------------------------------|
|---------------------------------------------------------------------------|
|---10---10---10---10---10---10--m--10----9----9------------7----7----2-----|
|----8----8----8----8----8----8--m---8----7----7----0--0----0----0----0-----|

(PM throughout)
|--------------------------|
|--------------------------|
|--------------------------|
|--------------------------|
|--------------------------|
|---2--2--2--2--2--2--2----|
|---0--0--0--0--0--0--0----|

Bridge:
(missing)

Solos:
(missing)

Chorus (play whole thing twice):
|-----------------------------------------------------------------------------|
|-----------------------------------------------------------------------------|
|-----------------------------------------------------------------------------|
|-----------------------------------------------------------------------------|
|-----------------------------------------------------------------------------|
|---10---10---10---10---10---10--m--10----9----9------------7-----------2-----|
|----8----8----8----8----8----8--m---8----7----7----0--0----0----12/----0-----|

(PM throughout)
|--------------------------|
|--------------------------|
|--------------------------|
|--------------------------|
|--------------------------|
|---2--2--2--2--2--2--2----|
|---0--0--0--0--0--0--0----|

|---------------------------------------------------------------------------|
|---------------------------------------------------------------------------|
|---------------------------------------------------------------------------|
|---------------------------------------------------------------------------|
|---------------------------------------------------------------------------|
|---10---10---10---10---10---10--m--10----9----9------------7----7----2-----|
|----8----8----8----8----8----8--m---8----7----7----0--0----0----0----0-----|

(PM throughout)
|--------------------------|
|--------------------------|
|--------------------------|
|--------------------------|
|--------------------------|
|---2--2--2--2--2--2--2----|
|---0--0--0--0--0--0--0----|

Outro lick:
|------------------------------------------------|
|------------------------------------------------|
|---11---------11----12----11---------9----11----|
|---------9----------------------9---------------|
|------------------------------------------------|
|------------------------------------------------|
|------------------------------------------------|

|--------------------------------------------------|
|--------------------------------------------------|
|---11---------11----12----14----12----11----12----|
|---------9----------------------------------------|
|--------------------------------------------------|
|--------------------------------------------------|
|--------------------------------------------------|

|------------------------------------------------|
|------------------------------------------------|
|---11---------11----12----11---------------9----|
|---------9----------------------9----12---------|
|------------------------------------------------|
|------------------------------------------------|
|------------------------------------------------|

|-----------------------------------------------|
|-----------------------------------------------|
|---11---------11----12----11----9----7----9----|
|---------9-------------------------------------|
|-----------------------------------------------|
|-----------------------------------------------|
|-----------------------------------------------|

Outro lick 2: (octaved and slower)
|---14----------14----15----14----------12----14----|
|---------12----------------------15----------------|
|---11----------11----12----11-----------9----11----|
|----------9----------------------12----------------|
|---------------------------------------------------|
|---------------------------------------------------|
|---------------------------------------------------|

|---14----------14----15----17----15----14----15----|
|---------12----------------------------------------|
|---11----------11----12----14----12----11----12----|
|----------9----------------------------------------|
|---------------------------------------------------|
|---------------------------------------------------|
|---------------------------------------------------|


|---14----------14----15----14----------12----14----|
|---------12----------------------15----------------|
|---11----------11----12----11-----------9----11----|
|----------9----------------------12----------------|
|---------------------------------------------------|
|---------------------------------------------------|
|---------------------------------------------------|

|---14----------14----15----14----12----10-----9----|
|---------12----------------------------------------|
|---11----------11----12----11-----9-----7-----6----|
|----------9----------------------------------------|
|---------------------------------------------------|
|---------------------------------------------------|
|---------------------------------------------------|

End on:
|---7----|
|--------|
|--------|
|---9----|
|--------|
|--------|
|--------|


|Becoming the Dragon|


intro corey
|---------------------------|
|---------------------------|
|-4------3------4------3----|
|-2------1------2------1----|
|-2------1------2------1----|
|---------------------------|

intro matt(also the intro solo background and the verses)
|-------------------------------|
|-------------------------------|
|-------------------------------|
|-9-------10--------9---8-------|
|-7-------8---------7---6-------|
|---0-0-0---0-0-0-0---0----0-0--|

|-----------------------|
|-----------------------|
|-----------------------|
|----------------5--4---|
|----------------3--2---|
|-0-0-0-0-0-0-0---------|

|-------------------------------|
|-------------------------------|
|-------------------------------|
|-9-------10--------9---8-------|
|-7-------8---------7---6-------|
|---0-0-0---0-0-0-0---0----0-0--|

|-----------------------|
|-----------------------|
|-----------------------|
|---------------11--12--|
|----------------9--10--|
|-0-0-0-0-0-0-0---------|

haven't quite figured out the intro solo

prechorus:
|-------------------------------------|
|-------------------------------------|
|-------------------------------------|
|-------------------------------------|
|-9-999999--777777--5-555555--333333--|
|-7-777777--555555--3-333333--111111--|
    ------            ----------------|

Chorus:

|-----------------|
|-----------------|
|-----------------|
|-222-2~----------|
|-222-2~---5-4~---|
|-000-0~---3-2~---| x4
  ---

Verse x2

Prechorus x2

chorus x2

Presolo:
|-----------------------------------------|
|-----------------------------------------|
|-----------------------------------------|
|-2222-2222-2222-2222-2222-2222-2222-2222-|
|-2222-2222-2222-2222-2222-2222-2222-2222-|
|-0000-0000-0000-0000-0000-0000-0000-0000-|
  ---- ---- ---- ---- ---- ---- ---- ----

|-------------------------------------------|
|-------------------------------------------|
|---------------------------------222-55-44-|
|----------------------222-444-555----------|
|-----------------22-33---------------------|
|-000-222-333-555---------------------------|x2

(To have a shot, at becoming a...)
|----------------------------------|
|----------------------------------|
|----------------------------------|
|-22222222222222222222222222222222-|
|-22222222222222222222222222222222-|
|-00000000000000000000000000000000-|

|-------------------------------------------|
|-------------------------------------------|
|---------------------------------222-55-44-|
|----------------------222-444-555----------|
|-----------------22-33---------------------|
|-000-222-333-555---------------------------|x1

|-----------------------------------------|
|-----------------------------------------|
|-----------------------------------------|
|-2222-2222-2222-2222-2222-2222-2222-2222-|
|-2222-2222-2222-2222-2222-2222-2222-2222-|
|-0000-0000-0000-0000-0000-0000-0000-0000-|
  ---- ---- ---- ---- ---- ---- ---- ----

|-------------------------------------------|
|-------------------------------------------|
|---------------------------------222-55-44-|
|----------------------222-444-555----------|
|-----------------22-33---------------------|
|-000-222-333-555---------------------------|


|To the Rats (intro)|


intro: riff 1
E|-------------------------------------------------------------------------|
B|-------------------------------------------------------------------------|
G|-------------------------------------------------------------------------|
D|--------------3---------------------------------5------------------------|
A|-3-2-2-2-2-2-2--2-2-2-2-2-2-3-2-2-2-2-2-2-3-2-2-3------------------------|
E|-------------------------------------------------------------------------|

riff 2
E|-------------------------------------------------------------------------|
B|-------------------------------------------------------------------------|
G|-------------------------------------------------------------------------|
D|-------5-4-------------5-------7-4-------------7-------------------------|
A|-2-0-2-3-2-2-2-2-2-2-2-3-2-0-2-5-2-2-2-2-2-2-2-5-------------------------|
E|-------------------------------------------------------------------------|


|This World Cant Tear Us Apart|


intro corey 2x
|------------------------------------------------|
|------------------------------------------------|
|-------4~-----------------4~--------------------|
|-2-2-1-----2-2-1----2-2-1-----2-2-1-1-6-6-4-4---|
|-----------------2------------------------------|
|------------------------------------------------|
|------------------------------------------------|
Matt 2x
|------------------|------------------|-----------------|-----------------|
|------------------|------------------|-----------------|-----------------|
|------------------|------------------|-----------------|-----------------|
|------------------|------------------|-7-7-7-7-7-7-7-7-|-----------------|
|-4-4-4-4-4-4-4-4--|-2-2-2-2-2-2-2-2--|-7-7-7-7-7-7-7-7-|-----------------|
|-4-4-4-4-4-4-4-4--|-2-2-2-2-2-2-2-2--|-5-5-5-5-5-5-5-5-|-2-2-2-2---4-----|
|-2-2-2-2-2-2-2-2--|-0-0-0-0-0-0-0-0--|-----------------|-0-0-0-0-5---7-4-|


Verse
Matt and Corey
|-------------------|-------------------|-------------------|
|-------------------|-------------------|-------------------|
|-------------------|-------------------|-------------------|
|-------------------|-------------------|-------------------|
|-------------------|-----------------7-|---7-------7-7-7---|
|-4-4-------4-4-4-2-|---2-------2-2-2-5-|---5-------5-5-5-2-|
|-2-2-------2-2-2-0-|---0-------0-0-0---|-----------------0-|

|-----------------------|-------------------------------|
|-----------------------|-------------------------------|
|-----------------------|-------------------------------|
|-----------------------|-------------------------------|
|-----------------------|-------4-4-4-4-4-4-4-4---------|
|---2----------4----2---|-4--4------------------4-4-4-4-|
|---0--0-0-0-0-5----4---|-2--2------------------2-2-2-4-|

|--------------------------------|--------------------------------|
|--------------------------------|--------------------------------|
|--------------------------------|--------------------------------|
|--------------------------------|--------------------------------|
|------------------------------7-|-----7------------------7-7-7---|
|-----4--4-4-4-4-4-4-4-4-4-4-4-5-|-----5--5-5-5-5-5-5-5-5-5-5-5-4-|
|-----4------------------4-4-4---|------------------------------4-|

|------------------------|
|------------------------|
|------------------------|
|------------------------|
|------------------------|
|-----4----------4---2---|
|-----4--0-0-0-0-5---4---|

Pre Chorus 2x
Corey
|------------------------|------------------------|------------------------|
|------------------------|------------------------|------------------------|
|--6--6----------8---9---|--6--6----------8---9---|--6--6----------8---9---|
|--x--x----------x---x---|--x--x----------x---x---|--x--x----------x---x---|
|--4--4--4-4-4-4-6---7---|--4--4--6-6-6-6-6---7---|--4--4--4-4-4-4-6---7---|
|------------------------|------------------------|------------------------|
|------------------------|------------------------|------------------------|

|----------------|
|----------------|
|--11-11-13--13--|
|--x--x---x---x--|
|--9--9--11--11--|
|----------------|
|----------------|

Pre chorus 2 x
Matt
|-----------------------------|-------------------------------|
|-----------------------------|-------------------------------|
|-----------------------------|-------------------------------|
|-----------------------------|-------------------------------|
|-------4-4-4-4-4-4-4---------|-------6-6-6-6-6-6-6-6---------|
|-4--4----------------4-4-4-6-|----6------------------6-6-6-7-|
|-2--2----------------2-2-2-4-|----4------------------4-4-4-5-|

|-------------------------------|-------------------|
|-------------------------------|-------------------|
|-------------------------------|-11-11---13---13---|
|-------------------------------|--x--x----x----x---|
|-------7-7-7-7-7-7-7-7---------|--9--9---11---11---|
|----7------------------7-7-7-4-|-------------------|
|----5------------------5-5-5-4-|-------------------|

Chorus same as intro

Bridge 2x
Matt and Corey
|---------------------------------|---------------------------------|
|---------------------------------|---------------------------------|
|---------------------------------|---------------------------------|
|---------------------------------|---------------------------------|
|---------------------------------|---------------------------------|
|---------------------------------|---------------------------------|
|-2-2-2-2-2-2-0-2-4-4-4-4-4-4-2-4-|-5-5-5-5-5-5-4-5-7-7-7-7-9-9-9-9-|

|---------------------------------|---------------------------------|
|---------------------------------|---------------------------------|
|---------------------------------|---------------------------------|
|---------------------------------|-----------------6-6-6-6-4-4-4-4-|
|---------------------------------|-4-4-4-4-4-4-7-7-----------------|
|-5-5-5-5-5-5-4-5-7-7-7-7-7-7-5-7-|---------------------------------|
|---------------------------------|---------------------------------|

Corey solo
|-----------------------------------------------------------------------|
|-----------------------------------------------------------------------|
|-----------------------------------------------------11-13-14-11-13-14-|
|-----------------------------------11-13-14-11-13-14-------------------|
|-----------------11-13-14-11-13-14-------------------------------------|
|-9-11-12-9-11-12-------------------------------------------------------|
|-----------------------------------------------------------------------|

|-------------------------------------------------------12-14-16-14-16-17-|
|-------------------------------------12-14-16-12-14-16-------------------|
|-------------------11-13-14-11-13-14-------------------------------------|
|-11-13-14-11-13-14-------------------------------------------------------|
|-------------------------------------------------------------------------|
|-------------------------------------------------------------------------|
|-------------------------------------------------------------------------|

|-17-16-14-17-16-14-------------------------------------------------------|
|-------------------17-16-14-17-16-14-------------------------------------|
|-------------------------------------16-14-13-16-14-13-------------------|
|-------------------------------------------------------16-14-13-16-14-13-|
|-------------------------------------------------------------------------|
|-------------------------------------------------------------------------|
|-------------------------------------------------------------------------|

|-------------------------------------------------------------------------|
|-------------------------------------------------------------------------|
|-16-14-13-16-14-13-------------------------------------------------------|
|-------------------16-14-13-16-14-13-------------------------------------|
|-------------------------------------14-12-11-14-12-11-------------------|
|-------------------------------------------------------14-12-11-14-12-11-|
|-------------------------------------------------------------------------|

Matt Solo
|-----------------------------------|-----------16--------------12-19-14---|
|--------14----------------17-------|---------16--16----------12--------16-|
|---------x--------------16--16-----|-------13------13------13-----------16|
|-------11-11----------14------14---|-----13----------13--13---------------|
|-----11-----11--------x--------x---|---14--------------14-----------------|
|---12---------12-12-16----------16-|-16-----------------------------------|
|-14--------------------------------|--------------------------------------|

|---------16-21-16------------16-21-16-14---|-14fb---16-19-19fb--19fb------|
|-----------------17---------------------14-|------------------------------|
|-------18----------18------18--------------|------------------------------|
|-----18------------------18----------------|------------------------------|
|---19------------------19------------------|------------------------------|
|-21------------------21--------------------|------------------------------|
|-------------------------------------------|------------------------------|

Bridge
Corey
|------------------|-------------------|-----------------|---------------|
|------------------|-------------------|-----------------|---------------|
|------------------|-------------------|-----------------|---------------|
|------------------|-------------------|-----------------|---------------|
|-------6---4------|-------4---4h6p4---|-7-----7---7---7-|-9-------------|
|-------4---2---0--|-------2---2h4p2-0-|-5-5-5-5-5-5-5-5-|-7--------4----|
|-2-2-2---2---2----|-0-0-0---0---------|-----------------|-0-0-0-0-5-7-4-|

Key change chorus (slow one)2x

|-----------------|-----------------|-----------------|-----------------|
|-----------------|-----------------|-----------------|-----------------|
|-----------------|-----------------|-7-7-7-7-6-6-6-6-|-4-4-4-4-4-4-4-4-|
|-4-4-4-4-4-4-4-4-|-2-2-2-2-2-2-2-2-|-x-x-x-x-x-x-x-x-|-x-x-x-x-x-x-x-x-|
|-4-4-4-4-4-4-4-4-|-2-2-2-2-2-2-2-2-|-5-5-5-5-4-4-4-4-|-2-2-2-2-2-2-2-2-|
|-2-2-2-2-2-2-2-2-|-0-0-0-0-0-0-0-0-|-----------------|-----------------|
|-----------------|-----------------|-----------------|-----------------|

then chorus
then key change chorus (jsut paly the lead part on the string above
Bridge
outro solo Corey (bridge is backing)
|-------------------------------------------------|
|------9-12-9------9-12-9------9-12-9------9-12-9-|
|-11fb--------11fb--------11fb--------11fb--------|
|-------------------------------------------------|
|-------------------------------------------------|
|-------------------------------------------------|
|-------------------------------------------------|

|-------------------9-11---11qb--11-9-11-9------------------|
|-x---------10-12-14----------------------12-14-12----------|
|---9-11-13---------------------------------------13-14-13--|
|-----------------------------------------------------------|
|-----------------------------------------------------------|
|-----------------------------------------------------------|
|-----------------------------------------------------------|

|--------12-------|------------------------|
|-12fb------12fb--|----------12-10-9~~~~---|
|-----------------|------------------------|
|-----------------|------------------------|
|-----------------|------------------------|
|-----------------|------------------------|
|-----------------|------------------------|

|-12-9-------12--14--12--14----14-----14---|
|-------10-14--14--14--14--16----16-----16-|
|-----13---------------------16-----16-----|
|------------------------------------------|
|------------------------------------------|
|------------------------------------------|
|------------------------------------------|

|-16----16----16---16---------------------16-|
|---17----17----17---17-----------------17---|
|-----18----18---------18-------------18-----|
|------------------------18---------18-------|
|--------------------------16-x-x-16---------|
|--------------------------------------------|
|--------------------------------------------|

|-21--------21-----21--19----19---|-21--------21-----21---21-----------|
|---22p19-19--22p19--22--21----21-|---22-19-22--22-19--22---22-19---19-|
|--------------------------21-----|-----------------------------18-18--|
|---------------------------------|------------------------------19----|
|---------------------------------|------------------------------------|
|---------------------------------|------------------------------------|
|---------------------------------|------------------------------------|

-----------------|-19hb-fb(21)-------|------------------------|
----------19--22-|-------------------|------------------------|
----18-----------|-------------------|------------------------|
-19----19--------|-------------------|------------------------|
-----------------|-------------------|------------------------|
-----------------|-----------------9-|-7-9-9-9-9-9-9-9--------|
-----------------|-------------------|-----------------2\-----|


|Tread the Floods|


Matt and Corey both in drop d

Intro
|---------------------------------------|--------------------------------|
|o--------------------------------------|----------------11-8----10-8----|
|--12-0-0-7-0-0-8-0-0-10-0-0-7h8p7------|-12-0-0-7-0-0-8-----0-0-----0-0-|
|----------------------------------10-8-|--------------------------------|
|o--------------------------------------|--------------------------------|
|---------------------------------------|--------------------------------|
|
|--------------------------------------|--------------------------------|
|--------------------------------------|--------------------------------|
|--------------------------------------|--------------------------------|
|-5~~~~--------------------------------|-7~~~~--------------------------|
|-5~~~~--------------------------------|-7~~~~--------------------------|
|-5~~~~--------------------------------|-7~~~~--------------------------|

                                                             _____________
                                                          |2._____________
                                                          |1.
|--------------------------------------|------------------|11p10p8--------|
|--------------------------------------|------------------|-------11p10p8-|
|-12-0-0-7-0-0-8-0-0-10-0-0-7h8p7------|-12-0-0-7-0-0-8-0-|---------------|
|---------------------------------10-8-|------------------|---------------|
|--------------------------------------|------------------|---------------|
|--------------------------------------|------------------|---------------|
|
|--------------------------------------|----------------------------------|
|--------------------------------------|----------------------------------|
|--------------------------------------|----------------------------------|
|-8~~~~--------------------------------|-10~~~~---------------------------|
|-8~~~~--------------------------------|-10~~~~---------------------------|
|-8~~~~--------------------------------|-10~~~~---------------------------|

_______________________________________.2
_______________.1
|---------------|-----------------------|
|--------------o|-----------------------|
|-10p8p7--------|-8p7p5-----------------|
|-------10p8p7--|------8p7p5------------|
|--------------o|-----------8p6p5-------|
|---------------|----------------10p8p7-|
|
|---------------|-----------------------|
|--------------o|-----------------------|
|---------------|-----------------------|
|-8----7--------|-7---------------------|
|-8----7-------o|-7---------------------|
|-8----7--------|-7---------------------|
on 2nd time only play the 8 power chord in the 1st bar and play the 7 in the second if that makes sense!

Verse

|-----------------------|---------------|-------------|
|-----------------------|---------------|-------------|
|-----------------------|---------------|-------------| second time on third
|--5-------------10-6-8-|-5-------------|-------------| bar i cant figure
|--5-------------10-6-8-|-5-------------|---6---------| it out sorry
|--5-5-5-5-5-5-5-10-6-8-|-5-5-5-5-5-5-5-|-6---6-5-6-3-|
|PM  . . . . . . .          . . . . . .

Chorus (this might be really wrong sorry)
|-------------------------------------------|---------|
|-------------------------------------------|---------|
|------------7--------------7------------10-|---------|
|-------------------------------------------|---------|
|-5-5-5-5-5-5----5-5-5-5-5-5---8-8-8-8-8-8--|-3-8-7-5-|
|-5-5-5-5-5-5----7-7-7-7-7-7---8-8-8-8-8-8--|-3-8-7-5-|

Solo
Copied of the other guy

-13-13-0-0-13-0-12-0-0-12-0-10-10-0-0-10-0-8-7h8p7-8-8-0-0-8-0-7-5h7p5---|
-------------------------------------------------------------------------|
-------------------------------------------------------------------------|
-------------------------------------------------------------------------|
-------------------------------------------------------------------------|
-------------------------------------------------------------------------|

--------------------------------------------------------------------------|
-8-8b~-8~------------------------------------------10~-8~-6~-5~-----------|
-----------------------------------------/10-9-7-9------------------------|
-----------------------------------5h7------------------------------------|
------------------5h7h8-7Tr8-5h7h8----------------------------------------|
------------5h7h8---------------------------------------------------------|

riff a          x3                         riff a again x2~
---------------------|--5----------------|--------------------------|
---------------------|----8-6-5-8-6-5----|--------------------------|
---10-9-10-7-10-9-10-|----------------7--|--------------------------|
-7-------------------|-------------------|--------------------------|
---------------------|-------------------|--------------------------|
---------------------|-------------------|--------------------------|

-------------------------------------------------------------------------|
-------------------------------------------------------------------------|
---------------------------------------------12h14h16----------14h16h17--|
---------12h14h15----------14h15h17-12h14h15----------14h15h17-----------|
12h14h15----------14h15h17-----------------------------------------------|
-------------------------------------------------------------------------|

riff b   x 3
-------------------------|--18-17-15----17-15----------------------|
----18-17-18-15-18-17-18-|-----------18-------18-17----------------|
-14----------------------|-----------------------------------------|
-------------------------|-----------------------------------------|
-------------------------|-----------------------------------------|
-------------------------|-----------------------------------------|

riff b x 2   trem pick twice each
-----------|-------------------------------------------------------|
-----------|--18-20-17-18-15-17-13-15------------------------------|
-----------|-------------------------------------------------------|
-----------|-------------------------------------------------------|
-----------|-------------------------------------------------------|
-----------|-------------------------------------------------------|

double solo
|------------------------------------------------------------------|
|----------17-15---------------------17-15-17-20-18-17~------------|
|-14-16-17-------17-16-17~--14-16-17-------------------------------|
|------------------------------------------------------------------|
|------------------------------------------------------------------|
|------------------------------------------------------------------|
|
|------------------------------------------------------------------|
|------------------------------------------------------------------|
|------------------------------------------------------------------|
|----------14-12---------------------14-12-14-17-15-14-------------|
|-12-14-15-------15-14-15~--12-14-15-------------------------------|
|------------------------------------------------------------------|


|Contempt Breeds Contamination|

sorry. Aint got a tab for it. I don’t have the guitar pro stuff.
Please tab the song so I can put it on here.


|The Rising| (just the solo. Couldn’t find full song)

this is one of the intro riffs
|----------------------------------|
|---6----6----5--6-----------------|
|-x-5--x-5--x-5--5------10-----12--|
|-------------------/10----/12-----|
|----------------------------------|
|----------------------------------|

intro solo
|-15(17)--15(17)---15(17)r--13/15\13---15-13-----13-15(17)r--|
|-----------------------------------13------13-15------------|
|------------------------------------------------------------|
|------------------------------------------------------------|
|------------------------------------------------------------|
|------------------------------------------------------------|

|-------------------------------------|
|-------------------------------------|
|-------10-12-12(14)-12-10------------|
|-10-12-------------------12-10-12\\--|
|-------------------------------------|
|-------------------------------------|


second solo
|----------------------------|--------------13-15(17)15-|
|-------13(15)~~~~~--12--10--|-------13(15)-------------|
|-10-12--------------12--10--|-10-12--------------------|
|----------------------------|--------------------------|
|----------------------------|--------------------------|
|----------------------------|--------------------------|

|-13--12h13p12--12-13-15-17-18-20-22-24-24(26)--|
|-------------15--------------------------------|
|-----------------------------------------------|
|-----------------------------------------------|
|-----------------------------------------------|
|-----------------------------------------------|


|The Crusade|

intro

Guitar one
E||-----------------------------------------|
B||-----------------------------------------|
G||*----------------------------------------|
D||*----------------------------------------|
A||-----------------------------------------|
E||---12-0-0-12-0-0-12-0-0-0-10-0-13-0-12-0-|

Guitar two
E||-----------------------------------------|  Let Ring
B||-----------------------------------------|
G||-----------------------------------------|
D||---2-------------------------------------|
A||---2-------------------------------------|
E||---0-------------------------------------|

Guitar one
---------------------------------------|------------------------------|
---------------------------------------|------------------------------|
---------------------------------------|------------------------------|
---------------------------------------|------------------------------|
---------------------------------------|------------------------------|
--8-0-10-0-12-0-7-0-8-0-10-0-12-0-0-12-|--0-0-12-0-0-0-10-0-13-0-12-0-|

---------------------------------------|
---------------------------------------|
--------------------------------------*|
--------------------------------------*|
---------------------------------------| Whole intro 2x
--17-0-16-0-13-0-16-0-12-0-13-0-16-----|

Both Guitars
|----------------------------|
|----------------------------|
|----------------------------|
|--3----6----7----9----10----|
|----------------------------|
|--1----4----5----7-----8----|

Guitar one
|----------------------------------------------------------------|
|----------------------------------------------------------------| \
|*---------------------------------------------------------------|  \
|*---------------------------------------------------------------|   \
|----------------------------------------------------------------|    \
|---20-0-0-20-0-0-20-0-19-0-0-19-0-0-19-0-16-0-17-0-19-0-|    ---|
                                                               |  2x
--------------------------------------------------------||    ---|
-----------------------------------------------------------------|    /
-------------------------------------------------------*---------|   /
-------------------------------------------------------*---------|  /
-----------------------------------------------------------------| /
--17-0-0-17-0-0-17-0-16-0-0-16-0-0-16-0-13-0-16-0-17-0-----------|

Both Guitars (palm muted)
|---------------------------------------------------|
|---------------------------------------------------|
|*--------------------------------------------------|
|*--------------------------------------------------|
|---3--3--3--3--3--3--3--3--6--6--6--6--6--6--6--6--|
|---1--1--1--1--1--1--1--1--4--4--4--4--4--4--4--4--|

--------------------------------------|
--------------------------------------|
--------------------------------------|
--------------------------------------|
--------------------------------------|
--8--7--5--8--7--5--7--5--4--7--5--4--|

Both Guitars (palm muted)
|---------------------------------------------------|
|---------------------------------------------------|
|---------------------------------------------------|
|---------------------------------------------------|
|---3--3--3--3--3--3--3--3--6--6--6--6--6--6--6--6--|
|---1--1--1--1--1--1--1--1--4--4--4--4--4--4--4--4--|

Guitar one
|---------------------------------------------------|
|---------------------------------------------------|
|---16-16-16-16-16-16-------------------------------|
|---------------------------------------------------|
|---------------------------------------------------|

Guitar two
|------------19-19-19-------------------------------|
|---17-17-17----------------------------------------|
|---------------------------------------------------|
|---------------------------------------------------|
|---------------------------------------------------|
|---------------------------------------------------|

Guitar three
|---------------------------------------------------|
|---------------------------------------------------|That whole riff
|---------------------------------------------------|is played 2 times
|---2-2-2-2-2-2-------------------------------------|
|---2-2-2-2-2-2-------------------------------------|
|---0-0-0-0-0-0-------------------------------------|

Everything tabbed so far repeats itself one more time before going into
this riff

Guitar 1
---------------------------------------|--------------------------------------|
---------------------------------------|--------------------------------------|
*--------------------------------------|--------------------------------------|
*--7-----7--7-----7-----7-----7--7-----|--9-----9--9-----9-----9-----9--9-----|
---7-----7--7-----7-----7-----7--7-----|--7-----7--7-----7-----7-----7--7-----|
---------------------------------------|--------------------------------------|

---------------------------------------------|
---------------------------------------------|
---------------------------------------------|
--10-----10--10-----10-----10-----10--10-----|
---8------8---8------8------8------8---8-----|
---------------------------------------------|

this riff is played 6 times. On the second time the bass comes in playing
this next riff and it plays it three times before going into a more simple
bass riff

Bass
G|---------------------------------------------------------------------------|
D|---------------------------------------------------------------------------|
A|---------------------------------------------------------------------------|
E|-8-5-7-8-7-5-8-5-7-8-7-5--7-4-5-7-5-4-7-4-5-7-5-4--5-2-4-5-4-2-5-2-4-5-4-2-|

G|-------------------------|
D|-------------------------|
A|-------------------------|
E|-4-1-2-4-2-1-4-1-2-4-2-1-|

After the sixth time of the guitar riff it goes into this

|-------------------------------------------|
|-------------------------------------------|
|-------------------------------------------|
|-------------------------------------------|
|-8-7-5-------7-7-7-7-7-7-7-7-7-8-7-5-------|
|-------8-7-5-5-5-5-5-5-5-5-5-5-------8-7-5-|

I don't have this riff completely right but I have part of it figured out

|-------------------------------5-5-5-7-7-7---8-8-8-7-7-7-----|
|-----------------8-8-8---------------------------------------|
|-----------------------5-5-5---------------------------------|
|---7-7-7-9-9-9-----------------------------------------------|
|-7-------------5-------------9------------10-----------------|
|-5-------------3-------------7-------------8-----------------|

          Guitar 1
--------------8-----7---------------------8-----7----------|
-----------------------------------------------------------|
-----------------------------------------------------------|
--6/7-7-7-7-7---7-7---7-7-7-7-6/7-7-7-7-7---7-7---7-7-7-7--|
-----------------------------------------------------------|
-----------------------------------------------------------|

-------------------15------13-------------------------------15-------13--|
-------------------------------------------------------------------------|
-------------------------------------------------------------------------|
-10/12-12-12-12-12---12-12----12-12-12-12-10/12-12-12-12-12----12-12-----|
-------------------------------------------------------------------------|
-------------------------------------------------------------------------|

--fdsa-----------------------------12-------10----------------|
--------------------------------------------------------------|
--------------------------------------------------------------|
--12-12-12-12-9/10-10-10-10-10----10-10----10-10-10-10--------|
--------------------------------------------------------------|
--------------------------------------------------------------|

------------10-----8----------8-----7-----------5-----4---|
----------------------------------------------------------|
----------------------------------------------------------|
7/9-9-9-9-9----9-9----6/7-7-7---7-7---4/6-6-6-----6-6-----|
----------------------------------------------------------|
----------------------------------------------------------|

and just to warn you, you may not want to print out because it would use up a lot of paper.
comments
print report bad tab
25 comments total. Showing first comments.
0 reply
jakemac wrote on November 17 2006, 07:48 am

omfg u rule its so good, i just fainted, omg. i love you

0 reply
sam b wrote on November 17 2006, 11:00 am

^^^ ur an absolute IDIOT!! omg, i HATE you! how is this good. theres like, a 1/4 of each song. OMG!! i just fainted too, at how crap this is!

2*'s

0 reply
metalicatrivium wrote on November 17 2006, 12:48 pm

dont ****in blame me. blame the people who tabbed the songs. i just took their tabs.

I want to post or [tab]
guest
You may want to rate the tab now too:
select rating
Please do not post tabs as comments. Select "correction" instead!