Oops, an error
Loading. Please wait.

Crusade Tab

ver2
ver2
More versions @911Tabs.com
9,336 views 6 this week
20 commentsread comments
1 2 3 4 5
accurate
x 11
Autoscroll
+/-
esc
set tempo
stop
Contributor
Hey! There's an official Ultimate Guitar app which is ideal
for learning songs when you're away from computer. Get the app
WARNING: You are trying to view
                                    content from Ultimate-Guitar.com
                                    in an unauthorized application,
                                    which is prohibited.

                                    Please use an official Ultimate
                                    Guitar Tabs application for iPhone,
                                    iPad or Android to access legitimate
                                    chords, guitar, bass, and drum tabs
                                    from Ultimate-Guitar.com database.

                                    Type "ultimate guitar tabs" in Apple
                                    App Store's or Android Market's
                                    search to find the application.
THE CRUSADE - TRIVIUM
Album

some seven string is required throughout the latter half of the album.
tracks with seven string include becomnig the dragon, this world can't tear us apart,
 contempt breeds contamination and the crusade.
The first Crusade album tab was a bit inaccurate and was missing many songs or containing
partial songs.
Names in brackets after the song is credit to the person whos tab i
used. If i used your tab i only did so because that is the way i played it.

1. Ignition
2. Detonation
3. Entrance Of The Conflagration - (AndrewZara)
4. Anthem (we are the fire) - (Ghost:o)
5. Unrepentant
6. And sadness will sear
7. Becoming the Dragon - (rcw110131)
8. To The Rats - (Andrew Zara)
9. This world can't tear us apart
10. Tread The Floods
11. Contempt Breeds Contamination
12. The Rising
13. The Crusade

____________________________________________________________

1. IGNITION 3:54 - Composed by Matt Heafy

____________________________________________________________
INTRO 2x

Matt
|------------------|-------|----------------------|-------------------|
|------------------|-------|----------------------|-------------------|
|------------------|-------|----------------------|-------------------|
|--8--9--8--6---8--|-6--5--|-------------6--------|-------6--------8--|
|--8--9--8--6---8--|-6--5--|-5-5-5-5-5-5-6--5-5-5-|-5-5-5-6--5-5-5-8--|
|--6--7--6--4---6--|-4--3--|-3-3-3-3-3-3-4--3-3-3-|-3-3-3-4--3-3-3-6--|
|
|
|  Corey
|------------------|-------|----------------------|-------------------|
|------------------|-------|----------------------|-------------------|
|-10-11-10--8--10--|-8--7--|----------------------|-------------------|
|------------------|-------|----------------------|-------------------|
|--8--9--8--6---8--|-6--5--|-5-5-5-5-5-5----5-5-5-|-5-5-5----5-5-5----|
|------------------|-------|-3-3-3-3-3-3----3-3-3-|-3-3-3----3-3-3----|

 Matt
|----------------------|------------------|-------|
|----------------------|------------------|-------|
|----------------------|------------------|-------|
|-------------6--------|--8--9--8--6---8--|-6--5--|
|-5-5-5-5-5-5-6--5-5-5-|--8--9--8--6---8--|-6--5--|
|-3-3-3-3-3-3-4--3-3-3-|--6--7--6--4---6--|-4--3--|
|
|Corey
|----------------------|------------------|-------|
|----------------------|------------------|-------|
|----------------------|-10-11-10--8--10--|-8--7--|
|----------------------|------------------|-------|
|-5-5-5-5-5-5----5-5-5-|--8--9--8--6---8--|-6--5--|
|-3-3-3-3-3-3----3-3-3-|------------------|-------|

VERSE 2x

 Matt
|-----------------|-----------------|-----------------|------------------|
|-----------------|-----------------|-----------------|------------------|
|-----------------|-----------------|-----------------|------------------|
|-----------------|---------3-6-6-6-|-----------------|-------3-6-3------|
|-7-------8---5---|-7---------------|-7-------8---5---|---2-5-------5-2--|
|---0-0-0---0---0-|---0-0-0-1-4-4-4-|---0-0-0---0---0-|-4----------------|
|
|Corey
|-----------------|-----------------|-----------------|------------------|
|-----------------|-----------------|-----------------|------------------|
|-----------------|-----------------|-----------------|-------1-4-1------|
|-----------------|---------3-6-6-6-|-----------------|---2-3-------3-2--|
|-7-------8---5---|-7---------------|-7-------8---5---|-2----------------|
|---0-0-0---0---0-|---0-0-0-1-4-4-4-|---0-0-0---0---0-|------------------|

VERSE PART TWO 2x

Both guitars
|----------------------|-------------------|---------------------|
|----------------------|-------------------|---------------------|
|----------------------|-------------------|---------------------|
|-5-5-5-5-5-5-6--5-5-5-|-5-5-5-6--5-5-5-8--|-5-5-5-5-5-5-6-5-5-5-|
|-5-5-5-5-5-5-6--5-5-5-|-5-5-5-6--5-5-5-8--|-5-5-5-5-5-5-6-5-5-5-|
|-3-3-3-3-3-3-4--3-3-3-|-3-3-3-4--3-3-3-6--|-3-3-3-3-3-3-4-3-3-3-|

 Matt
|-----------------------|
|-----------------------|
|-----------------------|
|--8--9--8--6--8--6--5--|
|--8--9--8--6--8--6--5--|
|--6--7--6--4--6--4--3--|
|
|Corey
|-----------------------|
|-----------------------|
|-10-11-10--8--10-8--7--|
|-----------------------|
|--8--9--8--6--8--6--5--|
|-----------------------|

VERSE 2x
INTRO 2x
VERSE 2x

PRE CHORUS 2x

 Matt
|------------------------------|------------------------------|
|------------------------------|------------------------------|
|------------------------10-9--|------------------------------|
|------------------------------|-------------------------7-6--|
|-------------------------8-7--|------------------------------|
|-000-000-000-000-000-000------|-000-000-000-000-000-000-5-4--|
|
|Corey
|------------------------------|------------------------------|
|------------------------------|------------------------------|
|------------------------------|------------------------------|
|------------------------------|------------------------------|
|-------------------------8\\--|------------------------------|
|-000-000-000-000-000-000------|-000-000-000-000-000-000-5\\--|

 Matt
|------------------------------|------------------------------|
|------------------------------|------------------------------|
|------------------------10-9--|------------------------------|
|------------------------------|-----------7-6----------10-9--|
|-------------------------8-7--|------------------------------|
|-000-000-000-000-000-000------|-000--000--5-4-000--000--8-7--|
|
|Corey
|------------------------------|------------------------------|
|------------------------------|------------------------------|
|------------------------------|------------------------------|
|------------------------------|------------------------------|
|-------------------------8\\--|------------------------------|
|-000-000-000-000-000-000------|-000--000--5\\-000--000--8\\--|

CHORUS 2x

Matt
|-----------------|-----------------|--------------------|
|-----------------|-----------------|--------------------|
|-----------------|-----------------|-9--9-9-9----9------|
|-6--6-6-6--6-6---|-6--6-6-6----6---|-9--9-9-9----9------|
|-6--6-6-6--6-6---|-6--6-6-6----6---|-7--7-7-7----7------|
|-4--4-4-4--4-4---|-4--4-4-4----4---|--------------------|
|
|
|-------11--------|-------11--------|--------------------|
|-----12--12-9----|-----12--12-9----|------12--11--------|
|--------------8--|--------------8--|---13---13----13----|
|---6-------------|---6-------------|-14---------14--14--|
|--6--------------|--6--------------|--------------------|
|-4---------------|-4---------------|--------------------|

 Matt
|--------------------|-----------------|--------------------|
|--------------------|-----------------|--------------------|
|-9--9-9-9----9------|-6--6-6-6----6---|--------------------|
|-9--9-9-9----9------|-6--6-6-6----6---|-5--5-5-5----5------|
|-7--7-7-7----7------|-4--4-4-4----4---|-6--6-6-6----6------|
|--------------------|-----------------|-3--3-3-3----3------|
|
|Corey
|--------------------|-----------------|--------------------|
|------12--11--------|-----------------|----------8---------|
|---13---13----13----|-------9---------|------------8-------|
|-14---------14--14--|----11---11------|-------8------8-----|
|--------------------|--11-------11----|----10----------10--|
|--------------------|-9-----------12--|-11-----------------|

 Matt
|-----------------|----------------|
|-----------------|----------------|
|-----------------|-------8----(8)-|
|-6--6-6-6--6-6---|---5-8----------|
|-6--6-6-6--6-6---|-6--------------|
|-4--4-4-4--4-4---|----------------|
|
|Corey
|-------11--------|----------------|
|-----12--12-9----|----------------|
|--------------8--|----------------|
|---6-------------|-5--------------|
|--6--------------|----------------|
|-4---------------|----------------|

Breakdown 2x

 Matt
|-----------------------------------------------|
|-----------------------------------------------|
|-----------------------------------------------|
|-----------------------------------------------|
|-4--------------6--------------7---------------|
|--4-444-444-444--4-444-444-444---4-444-444-444-|
|
|Corey
|-----------------------------------------------|
|-----------------------------------------------|
|-----------------------------------------------|
|-----------------------------------------------|
|-7--------------9--------------10--------------|
|--7-777-777-777--7-777-777-777---7-777-777-777-|

 Matt
|--------------------------------------------|
|--------------------------------------------|
|--------------------------------------------|
|--------------------------------------------|
|--3------4------6------7-------3--4--6--7---|
|---3-333--3-333--3-333---3-333--0--0--0--0--|
|
|Corey
|--------------------------------------------|
|--------------------------------------------|
|--------------------------------------------|
|--------------------------------------------|
|-6------7------9------10------6--7--9--10---|
|--6-666--6-666--6-666---6-666--0--0--0---0--|

 Matt
|------------------|
|------------------|
|------------------|
|------------------|
|-7h8p7---7--------|
|-------9---9-8-7--|
|
|Corey
|------------------|
|------------------|
|------------------|
|-5h6p5---5--------|
|-------7---7-6-5--|
|------------------|

 Matt
|---------------------------------------|
|---------------------------------------|
|---------------------------------------|
|---------------------------------------|
|-1----------------1/5------------------|
|--2-2-2-2-2-2-2-2-----4-4-4-4-4-4-4-4--|
|
|Corey
|---------------------------------------|
|---------------------------------------|
|---------------------------------------|
|---------------------------------------|
|-5----------------5/8------------------|
|--4-4-4-4-4-4-4-4-----7-7-7-7-7-7-7-7--|

Matt's Solo

 Matt
|---------------------------------------------------------------------|
|-----------------------------------------------------9h11h12-9h11h12-|
|----------------------------------------8h9h11-8h9h11----------------|
|---------------------------8h9h11-8h9h11-----------------------------|
|--------------7h9h11-7h9h11------------------------------------------|
|-7h9h11-7h9h11-------------------------------------------------------|

|-9h11h12-9h11h12//14p12p11-14p12p11----------------------------------|
|-----------------------------------14p12p11-14p12p11-----------------|
|----------------------------------------------------13p11p9-13p11p9--|
|---------------------------------------------------------------------|
|---------------------------------------------------------------------|
|---------------------------------------------------------------------|

|--------------------------------------------------------------------------------------|
|--------------------------------------------------------------------------------------|
|--------------------------------------------------------------------------------------|
|-13p11p9-13p11p9----------------------------------------------------------------------|
|----------------13p11p9-13p11p9-------------------------------------------------------|
|-------------------------------12p11p9-12p11p9-12p9-11-11-11-12-9-9-9-----------------|

|-----------------------------------|
|-----------------------------------|
|-----------------------------------|
|-----------------------------------|
|---------11---------------11-13-14-|
|-11-12-14--14-12-11-12-14----------|

|-----------------------------------------------------------------------------------|
|---------------------------------------------------------------------------12------|
|------------------------------------------11--------------11-13-15-11-13-15--15-13-|
|---------11--------------11-13-14-11-13-14--14-13-11-13-14-------------------------|
|-11-13-14--14-13-11-13-14----------------------------------------------------------|
|-----------------------------------------------------------------------------------|

|--------------------------12--------------12-14-16-16p14p12-16p14p12-16p14p12-16p14p12-|
|---------12-14-16-12-14-16--16-14-12-14-16---------------------------------------------|
|-11-13-15------------------------------------------------------------------------------|
|---------------------------------------------------------------------------------------|
|---------------------------------------------------------------------------------------|
|---------------------------------------------------------------------------------------|

|-t19p16p14-t19p16p14-t19p16p14-t19p16p14-t18p16p14-t18p16p14-t18p16p14-t18p16p14-------|
|---------------------------------------------------------------------------------------|
|---------------------------------------------------------------------------------------|
|---------------------------------------------------------------------------------------|
|---------------------------------------------------------------------------------------|
|---------------------------------------------------------------------------------------|

SOLO BACKING

 COREY
|---------------------------------------------------------------------------------------------------|
|---------------------------------------------------------------------------------------------------|
|---------------------------------------------------------------------------------------------------|
|---------------------------------------------------------------------------------------------------|
|-7-7-7-7---6-6-6-------4------4-------6-6-4-4---7-7-7-6---6-6-6-4---4------4--2---2-2-2-2-1-1------|
|--5-5-5-5---4-4-4-4-4---0-0-0--0-0-0---4-4-2-2---5-5-5-4---4-4-4-2---0-0-0--0--0--------------6\\--|


INTRO 2x
VERSE 2x
PRE CHORUS 2x
CHORUS 2x

OUTRO
|-------11--------|
|-----12--12-9----|
|--------------8--|
|---6-------------|
|--6--------------|
|-4---------------|
_________________________________________________________

2. DETONATION 4:28 - Composed by Matt Heafy
_________________________________________________________

INTRO 2x

 Matt
|--------------------------------------------------------|
|--------------------------------------------------------|
|-4-----3---4-----3-6-6-6-6--4-----3---------------------|
|----------------------------------------4-6-4----4-7-5--|
|-2-----1---2-----1-4-4-4-4--2-----1----2-----2--3-----3-|
|---0-0-------0-0--------------0-0-----2--------3--------|
|
|Corey
|--------------------------------------------------------|
|-7-----6---7-----6-9-9-9-9--7-----6-------6--------7----|
|---------------------------------------4-6-6-4--4-7-7-4-|
|-5-----4---5-----4-7-7-7-7--5-----4---4--------5--------|
|---0-0-------0-0--------------0-0-----------------------|

VERSE/INTRO

Just Matt
|--------------------------------------------------------------------|
|--------------------------------------------------------------------|
|--------------------------------------------------------------------|
|--1--------1--------1--------2--1--2--1--------1--------1--------5\-|
|--1--------1--------1--------2--1--2--1--------1--------1--------5\-|
|-----0--0-----0--0-----0--0--------------0--0-----0--0-----0--0-----|
                                                     Band enters here
|---------------------------------------------------|-------------|
|---------------------------------------------------|-------------|
|---------------------------------------------------|-------------|
|----------------1--------1--------1--------2--1--2-|-3--6--4--7--|
|----------------1--------1--------1--------2--1--2-|-1--4--2--5--|
|-0-3-5-6-2-3-5-----0--0-----0--0-----0--0----------|-1--4--2--5--|

Verse/intro 3 more times

Chorus 2x

 Matt
|-----------------------------------------------------------------------|
|-----------------------------------------------------------------------|
|-4-----3----------4-----3-6-6-6-6--4-----3-----------------------------|
|-------------------------------------------------------4-6-4----4-7-5--|
|-2-----1----------2-----1-4-4-4-4--2-----1------------2-----2--3-----3-|
|---0-0---0-000-00---0-0--------------0-0---0-000-00--2--------3--------|
|
|Corey
|-----------------------------------------------------------------------|
|-7-----6----------7-----6-9-9-9-9--7-----6---------------6--------7----|
|------------------------------------------------------4-6-6-4--4-7-7-4-|
|-5-----4----------5-----4-7-7-7-7--5-----4-----------4--------5--------|
|---0-0---0-000-00----0-0-------------0-0---0-000-00--------------------|

VERSE 2x
Chorus 2x

Thingy (lol)
|--------------------------------------------------------------------------------|
|--------------------------------------------------------------------------------|
|--------------------------------------------------------------------------------|
|--------------------------------------------------------------------------------|
|-1-1-1-1---1-1-1-1---1-1-1-1---1-1-1-1---1-1-1-1---1-1-1-1---1-1-1-1--1-1-1-1---|
|-0-0-0-0---0-0-0-0---0-0-0-0---0-0-0-0---0-0-0-0---0-0-0-0---0-0-0-0--0-0-0-0---|

BRIDGE 2x

 Matt
|-------------------------------------------|       |
|-------------------------------------------|       |
|-------------------------------------------|       |
|--3------------3s--6----------4------------|       |
|--1----1-1-1-1-1s--4--4-4-4-4-2----2-2-2-2-|       |
|-------------------------------------------|       |
|                                                   |
|                                                   |
|Corey                                              |
|-------------------------------------------|       |
|-------------------------------------------|       |
|--6------------6s--9----------7------------|       |
|-------------------------------------------|       |
|--4----4-4-4-4-4s--7--7-7-7-7-5----5-5-5-5-|       |THIS SECTION THREE TIMES
|-------------------------------------------|       |BEFORE HITTING FILL
                                                    |
Matt                                                |
|---------------------------------------------|     |
|---------------------------------------------|     |
|---------------------------------------------|     |
|--4s--7----------3------------3s--6----------|     |
|--2s--5--5-5-5-5-1----1-1-1-1-1s--4--4-4-4-4-|     |
|---------------------------------------------|     |
|                                                   |
|Corey                                              |
|----------------------------------------------|    |
|----------------------------------------------|    |
|--7s--10----------6------------6s--9----------|    |
|----------------------------------------------|    |
|--5s---8--8-8-8-8-4----4-4-4-4-4s--7--7-7-7-7-|    |
|----------------------------------------------|    |


|---------------------------------------------------------------------|
|---------------------------------------------------------------------|
|---8---8---8---8---8---8---8---8---8---11--11--11--11--11--11--11----|
|--10--10--10--10--10--10--10--10--10---13--13--13--13--13--13--13----|
|---------------------------------------------------------------------|
|---------------------------------------------------------------------|

SOLO 1
 MATT
|---------------------------|
|-<12>==--<12>==--<24>====--|
|---------------------------|
|---------------------------|
|---------------------------|
|---------------------------|

|-------------------------|-------------|
|-------------------------|--/<17>=~=~--|
|-------------------------|-------------|
|-------------------------|-------------|
|-------------------------|-------------|
|-0===--0===--0===--0===--|-------------|

SOLO 2
 COREY
|-------------------------------------------16-17--|
|----------------------------------15-17-18--------|
|-------------------------14-16-17-----------------|
|-------------14-15-17-18--------------------------|
|-14-15-17-17--------------------------------------|
|--------------------------------------------------|

|-16-19-17-16-13h16-13p12-10h13-10h12-10-----------|
|----------------------------------------13--------|
|-------------------------------------------12-----|
|--------------------------------------------------|
|--------------------------------------------------|
|--------------------------------------------------|

|--------------------------------------------|
|-12-13-12-10-12-10-12-10-12-10--------------|
|-------------------------------13-14-13-11--|
|--------------------------------------------|
|--------------------------------------------|
|--------------------------------------------|

|--------------------|
|--------------------|
|-13-11-9-11-9----9=-|
|--------------13----|
|--------------------|
|--------------------|

|--------------------------------------------------|
|--------------------------------------------------|
|-13----------------13----------------13-----------|
|----15-14-12-14-15----15-14-12-14-15----15-14-12--|
|--------------------------------------------------|
|--------------------------------------------------|

|-------------------------------|
|-------------------------------|
|-13----------13-14-13-11-15==--|
|----15-14-12-------------------|
|-------------------------------|
|-------------------------------|

|-------------12h16p12----------------------12h17p12--------|
|----------14----------14----------------14----------14-----|
|-------13----------------13----------13----------------14--|
|----14----------------------14----14-----------------------|
|-16----------------------------16--------------------------|
|-----------------------------------------------------------|

|-18--16--16--16--15--------------|
|--------------------18--17~=~=~--|
|---------------------------------|
|---------------------------------|
|---------------------------------|
|---------------------------------|

SOLO BACKING
Corey two times then Matt two times
||----------------------------------|----------------------|
||----------------------------------|----------------------|
||----------------------------------|----------------------|
||----------------------------------|----------------------|
||----------------------------------|--8----8----8----8----|
||--0-0-0-0-0-0-0-0-0-0-0-0-0-0-0-0-|--6----6----6----6----|


|----------------------------------|----------------------||
|----------------------------------|----------------------||
|----------------------------------|----------------------||
|----------------------------------|----------------------||
|----------------------------------|--3----3----3----3----||
|--0-0-0-0-0-0-0-0-0-0-0-0-0-0-0-0-|--1----1----1----1----||

BRIDGE 2x

NEXT RIFF

just Matt
|----------------------------------------------------------|
|----------------------------------------------------------|
|----------------------------------------------------------|
|--11--11--11--12--12--12--9--9--11--11--------------------|
|---9---9---9---9---9---9--9--9---9---9--9--9--9--9--9--9--|
|----------------------------------------------------------|

|--------------------------------------------------|
|--------------------------------------------------|
|--------------------------------------------------|
|--6--6--6--7--7--7--4--4--6--6--------------------|
|--4--4--4--4--4--4--4--4--4--4--4--4--4--4--4--4--|
|--------------------------------------------------|

|--------------------------------------------------|
|--------------------------------------------------|
|--------------------------------------------------|
|--6--6--6--7--7--7--4--4--6--6--------------------|
|--5--5--5--5--5--5--5--5--5--5--5--5--5--5--5--5--|
|--------------------------------------------------|

Band Enters
|------------------------------------|
|------------------------------------|
|------------------------------------|
|------------------------------------|
|--7----------------7----------------|
|--5----------------4----------------|

"Next Riff" another two times

SOLO 3 (with "next riff" as backing")

 Corey
|-----------------------------------------------------------------|
|----------------------------------10-15-14-12--------------------|
|-------------------14-13----------------------14-13h14p13----13=-|
|----------11----11-------14-11-14-------------------------17-----|
|----11-12----12--------------------------------------------------|
|-14--------------------------------------------------------------|

|-/14----14/16----16-16-----------16-17bbr-17bbr-17--|
|-----------------------17-----17--------------------|
|-----14-------16----------18------------------------|
|----------------------------------------------------|
|----------------------------------------------------|
|----------------------------------------------------|

|-21p17------------------12-16----------------------------|
|-------19------------14----------------------------------|
|----------18\13---14-----------12\9---9h11h13-9----------|
|------------------------------------------------12-11-9--|
|---------------------------------------------------------|
|---------------------------------------------------------|

|----------------------------------------------------|
|----------------------------------------------------|
|------------14--14\13-13-13-13\11-11-11-11\9-9\6-6--|
|-6=h9-p6--------------------------------------------|
|----------------------------------------------------|
|----------------------------------------------------|

|---------------------------------------------------|
|-------------------------------------------7-9-10--|
|-------------------------4-6-7-6-4---6-7-9---------|
|-------------------4-6-7-----------7---------------|
|-------2-4-5-4-5-7---------------------------------|
|-2-4-5---------------------------------------------|

|-12-10-9---------14-12-10-----------------------------------|
|---------12-10-9----------14-12-10--12bbr-12b-12b--17bb===--|
|------------------------------------------------------------|
|------------------------------------------------------------|
|------------------------------------------------------------|
|------------------------------------------------------------|

Second Bridge 4x

Both guitars
|-----------------|-----------------|
|-----------------|-----------------|
|-----------------|-----------------|
|-----------------|-----------------|
|-4-4-4-4-4-4-4-4-|-2-2-2-2-2-2-2-2-|
|-2-2-2-2-2-5-5-5-|-0-0-0-0-0-4-4-4-|

SOLO 4 (with second bridge as backing)

Matt
|-9p5-------5-12p9---------9-17p12----------12-16b==r---------------|
|-----7---7--------10---10---------14----14-----------17-14-17bb~==-|
|-------6-------------11--------------14----------------------------|
|-------------------------------------------------------------------|
|-------------------------------------------------------------------|
|-------------------------------------------------------------------|

|---------------9h14p9---------------------------9h14p9-------------|
|------------10--------10---------------------10--------10----------|
|---------11--------------11---------------11--------------11-------|
|------11--------------------11---------11--------------------11----|
|-9h12--------------------------12p9h12--------------------------12-|
|-------------------------------------------------------------------|

|----------------12h17p12----------------------------12h16p12-------------|
|-------------14----------14----------------------14----------14----------|
|----------14----------------14----------------13----------------13-------|
|-------14----------------------14----------14----------------------14----|
|-12h16----------------------------16p11h16----------------------------16-|
|-------------------------------------------------------------------------|

|-9p5-------5-12p9---------9-12h17p12----------12-16b-16=-pb17r16-14-17bb-|
|-----7---7--------10---10------------14----14----------------------------|
|-------6-------------11-----------------14-------------------------------|
|-------------------------------------------------------------------------|
|-------------------------------------------------------------------------|
|-------------------------------------------------------------------------|

|---------------9h14p9---------------------------9h14p9-------------|
|------------10--------10---------------------10--------10----------|
|---------11--------------11---------------11--------------11-------|
|------11--------------------11---------11--------------------11----|
|-9h12--------------------------12p9h12--------------------------12-|
|-------------------------------------------------------------------|

|----------------12h17p12----------------------------12h16p12-------------|
|-------------14----------14----------------------14----------14----------|
|----------14----------------14----------------13----------------13-------|
|-------14----------------------14----------14----------------------14----|
|-12h16----------------------------16p11h16----------------------------16-|
|-------------------------------------------------------------------------|

"Next Riff" 2x with solo 2x

||-----------------------------------------------|--------------------------------------|
||-----------------------------------------------|--------------------------------------|
||---14----14----14--13---13--------------6\-----|-9---9---9-11---11---------------(11)-|
||-----------------------------------------------|--------------------------------------|
||---12----12----12--11---11------------(11)-----|-7---7---7--9----9----------------(9)-|
||-----------------------------------------------|--------------------------------------|

|--------------------------------------------|-----------------------------------||
|--------------------------------------------|-14---14--14--12---12--------(12)--||
|-14---14---14--13---13--------------6\------|-----------------------------------||
|--------------------------------------------|-11---11--11---9----9---------(9)--||
|-12---12---12--11---11------------(11)------|-----------------------------------||
|--------------------------------------------|-----------------------------------||

Next Riff two times with duet over it

||-------------------------|------------------------|
||o------------------------|------------------------|
||--14----14----14-13---13-|-(13)-------13-14-13----|
||-------------------------|---------------------16-|
||o------------------------|------------------------|
||-------------------------|------------------------|
|
|
||-------------------------|------------------------|
||o-14----14----14-12---12-|-(12)-------12-14-12----|
||-------------------------|---------------------14-|
||-------------------------|------------------------|
||o------------------------|------------------------|
||-------------------------|------------------------|

|----------------------|---------------------|
|----------------------|---------------------|
|----------------------|---------------------|
|-14---14-14---16---16-|-(16)----------------|
|----------------------|---------------------|
|----------------------|---------------------|
|
|
|----------------------|---------------------|
|----------------------|---------------------|
|-13---13-13---14---14-|-(14)----------------|
|----------------------|---------------------|
|----------------------|---------------------|
|----------------------|---------------------|

|----------------------|------------------------|
|----------------------|------------------------|
|-14---14---14-13---13-|-(13)-------13-14-13----|
|----------------------|---------------------16-|
|----------------------|------------------------|
|----------------------|------------------------|
|
|
|----------------------|------------------------|
|-14---14---14-12---12-|-(12)-------12-14-12----|
|----------------------|---------------------14-|
|----------------------|------------------------|
|----------------------|------------------------|
|----------------------|------------------------|

|---------------------|----------------||
|-14---14--14-12---12-|-(12)----------o||
|---------------------|----------------||
|---------------------|----------------||
|---------------------|---------------o||
|---------------------|----------------||
|

|-12---12--12-14---14-|-(14)-----------||
|---------------------|---------------o||
|---------------------|----------------||
|---------------------|----------------||
|---------------------|---------------o||
|---------------------|----------------||

End on
|----------------------|-------------|-------------|---------|
|----------------------|-------------|-------------|---------|
|----------------------|-------------|-------------|---------|
|---2--2-2-2--2-2--2-2-|---4---------|--(4)--------|--(4)----|
|---2--2-2-2--2-2--2-2-|---4---------|--(4)--------|--(4)----|
|---4--4-4-4--4-4--4-4-|---2---------|--(2)--------|--(2)----|
|
|
|----------------------|-------------|-------------|---------|
|-(12)---9---10----9---|---7---------|--(7)--------|--(7)----|
|----------------------|-------------|-------------|---------|
|----------------------|-------------|-------------|---------|
|----------------------|-------------|-------------|---------|
|----------------------|-------------|-------------|---------|
|
|
|-(14)------------16---|-(16)--------|-(16)--------|-(16)----|
|----------------------|-------------|-------------|---------|
|----------------------|-------------|-------------|---------|
|----------------------|-------------|-------------|---------|
|----------------------|-------------|-------------|---------|
|----------------------|-------------|-------------|---------|
______________________________________________________________________
3. ENTRANCE OF THE CONFLAGRATION 4:35 - Composed by Matt Heafy
______________________________________________________________________

||----------------------|---------------|----------------------------|
||o---------------------|---------------|----------------------------|
||----------------------|-------8----8--|----------------------------|
||--2------2------2-(2)-|-------8----8--|-2--------------------------|
||o-2------2------2-(2)-|-------6----6--|-2--------------------------|
||--0--0-0-0--0-0-0-(0)-|-0-2-3-6----6--|-0--0-0-0-0-0-0-0-0-0-0-0-0-|
|
|   Gtr II
|      PM|    PM|         PM--|              PM--------------------|
|   Q  S S Q  S S E +E    E E E Q.   Q    Q  S S S S S S S S S S S S
||----------------------|---------------|----------------------------|
||o---------------------|---------------|----------------------------|
||----------------------|-------8----8--|----------------------------|
||--2------2------2-(2)-|-------8----8--|-2--------------------------|
||o-2------2------2-(2)-|-------6----6--|-2--------------------------|
||--0--0-0-0--0-0-0-(0)-|-0-2-3-6----6--|-0--0-0-0-0-0-0-0-0-0-0-0-0-|


  N.C.
   PM-------------------------------------|
   S  S  S  S  S  S  S  S  S S S S  S S S S
|-------------------------------------------|
|-------------------------------------------|
|-------------------------------------------|
|-------------------------------------------|
|-12p10-10-10-12p10-10-10-10p9-9-9-10p9-9-9-|
|-------------------------------------------|
|
|  PM-------------------------------------|
|  S  S  S  S  S  S  S  S  S S S S  S S S S
|-------------------------------------------|
|-------------------------------------------|
|-------------------------------------------|
|-------------------------------------------|
|-------------------------------------------|
|--6p=3--3--3--6p=3--3--3--3p2-2-2--3p2-2-2-|


  E5                          Bb5
     PM|    PM|         PM--|
  Q  S S Q  S S E +E    E E E Q.   Q
|---------------------|---------------|
|---------------------|---------------|
|---------------------|-------8----8--|
|-2------2------2-(2)-|-------8----8--|
|-2------2------2-(2)-|-------6----6--|
|-0--0-0-0--0-0-0-(0)-|-0-2-3-6----6--|
|
|    PM|    PM|         PM--|
| Q  S S Q  S S E +E    E E E Q.   Q
|---------------------|---------------|
|---------------------|---------------|
|---------------------|-------8----8--|
|-2------2------2-(2)-|-------8----8--|
|-2------2------2-(2)-|-------6----6--|
|-0--0-0-0--0-0-0-(0)-|-0-2-3-6----6--|


                              1.,2.
  E5                           N.C.
     PM--------------------|
  Q  S S S S S S S S S S S S   E E E E E E E E  3x
|----------------------------|------------------||
|----------------------------|-----------------o||
|----------------------------|------------------||
|-2--------------------------|-------------5-4--||
|-2--------------------------|-------0h1h2-----o||
|-0--0-0-0-0-0-0-0-0-0-0-0-0-|-0h2h3------------||
|
|    PM--------------------|
| Q  S S S S S S S S S S S S   E E E E E E E E  3x
|----------------------------|------------------||
|----------------------------|-----------------o||
|----------------------------|------------------||
|-2--------------------------|-------------5-4--||
|-2--------------------------|-------0h1h2-----o||
|-0--0-0-0-0-0-0-0-0-0-0-0-0-|-0h2h3------------||


 Bridge / Chorus 1
  3.
  F#5                 Bb5                 C5                    D#5
  Gtrs III, IV
                                                      PM  PM
  E H..                E H       E.   E   S   +E.     E E E E E  E S
|-------------------|-----------------------|------------------------|
|-------------------|-----------------------|------------------------|
|-------------------|---------------------4-|-(4)--------------------|
|-------------------|--2------------------5-|-(5)-------7---5-7----4-|
|-2-----------------|--0--------------3---3-|-(3)-----3-3-3-3-3S=6-6-|
|-0-----------------|-----------------------|------------------------|
|
| Gtr I
|                 ~~~~~~~~
| E E   E E E E E E   +W                       W
|-------------------|-----------------------|------------------------|
|-------------------|-----------------------|------------------------|
|-------------------|-----------------------|------------------------|
|---------------5-4-|-(4)-------------------|------------------------|
|---------0h1h2-----|-----------------------|------------------------|
|-0h2h==3-----------|-----------------------|------------------------|
|
| Gtr II
|                                       ~~~~~~~~~~
| E E   E E E E E E    E E E E E E  E   E     +E  H..
|-------------------|-----------------------|------------------------|
|-------------------|-----------------------|------------------------|
|-------------------|---------------5---4---|-(4)--------------------|
|---------------5-4-|--------1-2s5----------|------------------------|
|---------0h1h2-----|--0h1h2----------------|------------------------|
|-0h2h==3-----------|-----------------------|------------------------|


                  E5VII    Em      A5                B5
      PM  PM    PM                             PM--|             PM--|   PM
  +E. E E E E E E S   +Q   Q  E Q  E   +Q   Q  E E E E   +E  E E E E E E E
|-------------------|----------------|------5----------|-------------------|
|-------------------|------8--8-8----|------5----------|-------------------|
|-------------------|------9--9-9----|------5----------|-------9-------9---|
|-(4)---7---4-7---9-|-(9)--9--9-9--7-|-(7)--7----------|-------9-------9---|
|-(6)-6-6-6-6-6-6-7-|-(7)--7--7-7--7-|-(7)--7--------9-|-(9)---9-------9---|
|-------------------|--------------5-|-(5)--5--5-6-7-7-|-(7)-7-7-7-7-7-7-7-|


                E5VII                           D#E5VII      E5
  PM|       PM          PM|   PM|   PM|   PM|            PM--|
  E E E E E E E E   +E  S S E S S E S S E S S   E E E Q  E E E
|-----------------|---------------------------|----------------|
|-----------------|---------------------------|----------------|
|-----8---------9-|-(9)-----9-----9-----9-----|----------------|
|-----9-----7-8-9-|-(9)-----9-----9-----9-----|-9-9-9-9--------|
|-----9---9-5-6-7-|-(7)-7-7-7-7-7-7-7-7-7-7-7-|-6-6-6s7--------|
|-7-7-7-7-7-------|---------------------------|----------0-0-0-|


 Verse 2 & 3
  $
  E5                          Bb5       E5
     PM|    PM|         PM--|              PM--------------------|
  Q  S S Q  S S E +E    E E E Q.   Q    Q  S S S S S S S S S S S S
|---------------------|---------------|-----------------------------|
|---------------------|---------------|-----------------------------|
|---------------------|-------8----8--|-----------------------------|
|-2------2------2-(2)-|-------8----8--|-2---------------------------|
|-2------2------2-(2)-|-------6----6--|-2---------------------------|
|-0--0-0-0--0-0-0-(0)-|-0-2-3-6----6--|-0--0-0-0-0-0-0-0-0-0-0-0-0--|


  N.C.
  Gtr I
   PM-------------------------------------|
   S  S  S  S  S  S  S  S  S S S S  S S S S
|-------------------------------------------|
|-------------------------------------------|
|-------------------------------------------|
|-------------------------------------------|
|-12p10-10-10-12p10-10-10-10p9-9-9-10p9-9-9-|
|-------------------------------------------|
|
| Gtr II
|  PM-------------------------------------|
|  S  S  S  S  S  S  S  S  S S S S  S S S S
|-------------------------------------------|
|-------------------------------------------|
|-------------------------------------------|
|-------------------------------------------|
|-------------------------------------------|
|--6p=3--3--3--6p=3--3--3--3p2-2-2--3p2-2-2-|


  E5                          Bb5
     PM|    PM|         PM--|
  Q  S S Q  S S E +E    E E E Q.   Q
|---------------------|---------------|
|---------------------|---------------|
|---------------------|-------8----8--|
|-2------2------2-(2)-|-------8----8--|
|-2------2------2-(2)-|-------6----6--|
|-0--0-0-0--0-0-0-(0)-|-0-2-3-6----6--|
|
|    PM|    PM|         PM--|
| Q  S S Q  S S E +E    E E E Q.   Q
|---------------------|---------------|
|---------------------|---------------|
|---------------------|-------8----8--|
|-2------2------2-(2)-|-------8----8--|
|-2------2------2-(2)-|-------6----6--|
|-0--0-0-0--0-0-0-(0)-|-0-2-3-6----6--|


  E5                           N.C.
     PM--------------------|
  Q  S S S S S S S S S S S S   E E E E E E E E
|----------------------------|-----------------|
|----------------------------|-----------------|
|----------------------------|-----------------|
|-2--------------------------|-------------5-4-|
|-2--------------------------|-------0h1h2-----|
|-0--0-0-0-0-0-0-0-0-0-0-0-0-|-0h2h3-----------|
|
|    PM--------------------|
| Q  S S S S S S S S S S S S   E E E E E E E E
|----------------------------|-----------------|
|----------------------------|-----------------|
|----------------------------|-----------------|
|-2--------------------------|-------------5-4-|
|-2--------------------------|-------0h1h2-----|
|-0--0-0-0-0-0-0-0-0-0-0-0-0-|-0h2h3-----------|


  E5                          Bb5       E5
     PM|    PM|         PM--|              PM--------------------|
  Q  S S Q  S S E +E    E E E Q.   Q    Q  S S S S S S S S S S S S
|---------------------|---------------|-----------------------------|
|---------------------|---------------|-----------------------------|
|---------------------|-------8----8--|-----------------------------|
|-2------2------2-(2)-|-------8----8--|-2---------------------------|
|-2------2------2-(2)-|-------6----6--|-2---------------------------|
|-0--0-0-0--0-0-0-(0)-|-0-2-3-6----6--|-0--0-0-0-0-0-0-0-0-0-0-0-0--|
|
|    PM|    PM|         PM--|              PM--------------------|
| Q  S S Q  S S E +E    E E E Q.   Q    Q  S S S S S S S S S S S S
|---------------------|---------------|-----------------------------|
|---------------------|---------------|-----------------------------|
|---------------------|-------8----8--|-----------------------------|
|-2------2------2-(2)-|-------8----8--|-2---------------------------|
|-2------2------2-(2)-|-------6----6--|-2---------------------------|
|-0--0-0-0--0-0-0-(0)-|-0-2-3-6----6--|-0--0-0-0-0-0-0-0-0-0-0-0-0--|


  N.C.
   PM-------------------------------------|
   S  S  S  S  S  S  S  S  S S S S  S S S S
|-------------------------------------------|
|-------------------------------------------|
|-------------------------------------------|
|-------------------------------------------|
|-12p10-10-10-12p10-10-10-10p9-9-9-10p9-9-9-|
|-------------------------------------------|
|
|  PM-------------------------------------|
|  S  S  S  S  S  S  S  S  S S S S  S S S S
|-------------------------------------------|
|-------------------------------------------|
|-------------------------------------------|
|-------------------------------------------|
|-------------------------------------------|
|--6p=3--3--3--6p=3--3--3--3p2-2-2--3p2-2-2-|


  E5                          Bb5
     PM|    PM|         PM--|
  Q  S S Q  S S E +E    E E E Q.   Q
|---------------------|---------------|
|---------------------|---------------|
|---------------------|-------8----8--|
|-2------2------2-(2)-|-------8----8--|
|-2------2------2-(2)-|-------6----6--|
|-0--0-0-0--0-0-0-(0)-|-0-2-3-6----6--|
|
|    PM|    PM|         PM--|
| Q  S S Q  S S E +E    E E E Q.   Q
|---------------------|---------------|
|---------------------|---------------|
|---------------------|-------8----8--|
|-2------2------2-(2)-|-------8----8--|
|-2------2------2-(2)-|-------6----6--|
|-0--0-0-0--0-0-0-(0)-|-0-2-3-6----6--|


                              Bridge / Chorus 2 &
  E5                           F#5
  Gtrs III, IV
  W                            E H..
|----------------------------|-------------------|
|----------------------------|-------------------|
|----------------------------|-------------------|
|----------------------------|-------------------|
|----------------------------|-2-----------------|
|----------------------------|-0-----------------|
|
| Gtr I
|    PM--------------------|                   ~~~
| Q  S S S S S S S S S S S S   E E   E E E E E E
|----------------------------|-------------------|
|----------------------------|-------------------|
|----------------------------|-------------------|
|-2--------------------------|---------------5-4-|
|-2--------------------------|---------0h1h2-----|
|-0--0-0-0-0-0-0-0-0-0-0-0-0-|-0h2h==3-----------|
|
| Gtr II
|    PM--------------------|
| Q  S S S S S S S S S S S S   W
|----------------------------|-------------------|
|----------------------------|-------------------|
|----------------------------|-------------------|
|-2--------------------------|-------------------|
|-2--------------------------|-------------------|
|-0--0-0-0-0-0-0-0-0-0-0-0-0-|-------------------|


 3
  Bb5                 C5                       D#5
                              PM     PM
   E H       E.   E   S   +E. E    E E E E E S
|-----------------------|-------------------------|
|-----------------------|-------------------------|
|-----------------------|-------------------------|
|--2------------------5-|-(5)------7---5-7---4----|
|--0--------------3---3-|-(3)-3----3-3-3-3S6-6----|
|-----------------------|-------------------------|
|
|~~~~~
| +W                       W
|-----------------------|-------------------------|
|-----------------------|-------------------------|
|-----------------------|-------------------------|
|-(4)-------------------|-------------------------|
|-----------------------|-------------------------|
|-----------------------|-------------------------|
|
|                   ~~~~~~~~~~
|  E E E E E E  E   E     +Q    H.
|-----------------------|-------------------------|
|-----------------------|-------------------------|
|---------------5---4---|-(4)---------------------|
|--------1-2s5----------|-------------------------|
|--0h1h2----------------|-------------------------|
|-----------------------|-------------------------|


                  E5VII       Em     A5                 B5
  Gtrs III, IV
      PM  PM    PM                              PM--|              PM--|   PM
  +E. E E E E E E S   +Q   Q  E Q  E    +Q   Q  E E E E    +E  E E E E E E E
|-------------------|-----------------|------5-----------|---------------------|
|-------------------|------8--8-8-----|------5-----------|---------------------|
|-------------------|------9--9-9-----|------5-----------|-------9-------9-----|
|-(4)---7---4-7---9-|-(9)--9--9-9--7--|-(7)--7-----------|-------9-------9-----|
|-(6)-6-6-6-6-6-6-7-|-(7)--7--7-7--7--|-(7)--7--------9--|-(9)---9-------9-----|
|-------------------|--------------5--|-(5)--5--5-6-7-7--|-(7)-7-7-7-7-7-7-7---|


                E5VII
  PM|       PM          PM|   PM|   PM|   PM|
  E E E E E E E E   +E  S S E S S E S S E S S
|-----------------|---------------------------|
|-----------------|---------------------------|
|-----8---------9-|-(9)-----9-----9-----9-----|
|-----9-----7-8-9-|-(9)-----9-----9-----9-----|
|-----9---9-5-6-7-|-(7)-7-7-7-7-7-7-7-7-7-7-7-|
|-7-7-7-7-7-------|---------------------------|


  D#E5VII      C5                     D#5
           PM|          PM  PM
  E E E Q  E E  E   +E. E E E E E E S
|-----------------|--------------------|
|-----------------|--------------------|
|-----------------|--------------------|
|-9-9-9-9-------5-|-(5)---7---5-7---4--|
|-6-6-6s7--3-3--3-|-(3)-3-3-3-3-3S6-6--|
|-----------------|--------------------|


                  E5VII       Em     A5                 B5
      PM  PM    PM                              PM--|              PM--|   PM
  +E. E E E E E E S   +Q   Q  E Q  E    +Q   Q  E E E E    +E  E E E E E E E
|-------------------|-----------------|------5-----------|---------------------|
|-------------------|------8--8-8-----|------5-----------|---------------------|
|-------------------|------9--9-9-----|------5-----------|-------9-------9-----|
|-(4)---7---4-7---9-|-(9)--9--9-9--7--|-(7)--7-----------|-------9-------9-----|
|-(6)-6-6-6-6-6-6-7-|-(7)--7--7-7--7--|-(7)--7--------9--|-(9)---9-------9-----|
|-------------------|--------------5--|-(5)--5--5-6-7-7--|-(7)-7-7-7-7-7-7-7---|


                                                    To Coda
                E5VII                           D#E5VII        E5
  PM|       PM          PM|   PM|   PM|   PM|            PM--|
  E E E E E E E E   +E  S S E S S E S S E S S   E E E Q  E E E
|-----------------|---------------------------|-----------------|
|-----------------|---------------------------|-----------------|
|-----8---------9-|-(9)-----9-----9-----9-----|-----------------|
|-----9-----7-8-9-|-(9)-----9-----9-----9-----|-9-9-9-9---------|
|-----9---9-5-6-7-|-(7)-7-7-7-7-7-7-7-7-7-7-7-|-6-6-6s7---------|
|-7-7-7-7-7-------|---------------------------|----------0-0-0--|


 Break
  Q=195
                                       E5VII
  Gtrs III, IV
  W          +W           +W           +W
|----------|------------|------------|------------------------------|
|----------|------------|------------|------------------------------|
|----------|------------|------------|------------------------------|
|-2--------|-(2)--------|-(2)--------|-(2)--------------------------|
|-2--------|-(2)--------|-(2)--------|-(2)--------------------------|
|-0--------|-(0)--------|-(0)--------|-(0)--------------------------|
|
| Gtr I
|                                           PM----------------|
| W           W            W            Q   S S S S S S S S S S E
|----------|------------|------------|------------------------------|
|----------|------------|------------|------------------------------|
|----------|------------|------------|--9-----------------------9S==|
|----------|------------|------------|--9-----------------------9S==|
|----------|------------|------------|--7-----------------------7S==|
|----------|------------|------------|------0-0-0-0-0-0-0-0-0-0-----|
|
| Gtr II
| W           W            W            W
|----------|------------|------------|------------------------------|
|----------|------------|------------|------------------------------|
|----------|------------|------------|------------------------------|
|----------|------------|------------|------------------------------|
|----------|------------|------------|------------------------------|
|----------|------------|------------|------------------------------|


  F#5                          G5
|----------------------------|----------------------------|
|----------------------------|----------------------------|
|----------------------------|----------------------------|
|----------------------------|----------------------------|
|----------------------------|----------------------------|
|----------------------------|----------------------------|
|
|     PM----------------|            PM------------|
|  Q  S S S S S S S S S S  E    Q  S S S S S S S S S S  E
|----------------------------|----------------------------|
|----------------------------|----------------------------|
|-11----------------------11S|=12----------------------12S|
|-11----------------------11S|=12----------------------12S|
|--9-----------------------9S|=10----------------------10S|
|-----0-0-0-0-0-0-0-0-0-0----|-----0-0-0-0-0-0-0-0-0-0----|
|
|  W                            W
|----------------------------|----------------------------|
|----------------------------|----------------------------|
|----------------------------|----------------------------|
|----------------------------|----------------------------|
|----------------------------|----------------------------|
|----------------------------|----------------------------|


  D#5
|------------------------------|
|------------------------------|
|------------------------------|
|------------------------------|
|------------------------------|
|------------------------------|
|
|      PM----|   PM--------|
| Q  S S S S S S S S S S S S
|------------------------------|
|------------------------------|
|-8----------------------------|
|-8----------------------------|
|-6--6-6-6-6-6-6-6-6-6-6-6-6---|
|------------------------------|
|
|    PM--------------------|
| Q  S S S S S S S S S S S S
|------------------------------|
|------------------------------|
|------------------------------|
|-8----------------------------|
|-6--6-6-6-6-6-6-6-6-6-6-6-6---|
|------------------------------|


  E5VII
  Gtr I
     PM----------------|
  Q  S S S S S S S S S S E
|--------------------------|
|--------------------------|
|-9----------------------9S|
|-9----------------------9S|
|-7--7-7-7-7-7-7-7-7-7-7-7S|
|--------------------------|
|
| Gtr II
|    PM----------------|
| Q  S S S S S S S S S S E
|--------------------------|
|--------------------------|
|--------------------------|
|-9----------------------9S|
|-7--7-7-7-7-7-7-7-7-7-7-7S|
|--------------------------|


  C5                         D#5
     PM----------------|        PM----------------|
  Q  S S S S S S S S S S E   Q  S S S S S S S S S S E
|--------------------------|---------------------------|
|--------------------------|---------------------------|
|-5----------------------5S|=8----------------------8S=|
|-5----------------------5S|=8----------------------8S=|
|-3--3-3-3-3-3-3-3-3-3-3-3S|=6--6-6-6-6-6-6-6-6-6-6-6S=|
|--------------------------|---------------------------|
|
|    PM----------------|        PM----------------|
| Q  S S S S S S S S S S E   Q  S S S S S S S S S S E
|--------------------------|---------------------------|
|--------------------------|---------------------------|
|--------------------------|---------------------------|
|-5----------------------5S|=8----------------------8S=|
|-3--3-3-3-3-3-3-3-3-3-3-3S|=6--6-6-6-6-6-6-6-6-6-6-6S=|
|--------------------------|---------------------------|


  B5II                         E5VII
     PM--------------------|      PM----------------|
  Q  S S S S S S S S S S S S   Q  S S S S S S S S S S E
|----------------------------|--------------------------|
|----------------------------|--------------------------|
|-4--------------------------|-9----------------------9S|
|-4--------------------------|-9----------------------9S|
|-2--2-2-2-2-2-2-2-2-2-2-2-2-|-7--7-7-7-7-7-7-7-7-7-7-7S|
|----------------------------|--------------------------|
|
|    PM--------------------|      PM----------------|
| Q  S S S S S S S S S S S S   Q  S S S S S S S S S S E
|----------------------------|--------------------------|
|----------------------------|--------------------------|
|----------------------------|--------------------------|
|-4--------------------------|-9----------------------9S|
|-2--2-2-2-2-2-2-2-2-2-2-2-2-|-7--7-7-7-7-7-7-7-7-7-7-7S|
|----------------------------|--------------------------|


  F#5
      PM----------------|
   Q  S S S S S S S S S S  E
|-------------------------------|
|-------------------------------|
|-11----------------------11S===|
|-11----------------------11S===|
|--9--9-9-9-9-9-9-9-9-9-9--9S===|
|-------------------------------|
|
|     PM----------------|
|  Q  S S S S S S S S S S  E
|-------------------------------|
|-------------------------------|
|-------------------------------|
|-11----------------------11S===|
|--9--9-9-9-9-9-9-9-9-9-9--9S===|
|-------------------------------|


  G5
          PM---------------------|
   Q   S  S  S  S  S  S  S  S  S  S  E
|--------------------------------------|
|--------------------------------------|
|-12--------------------------------12S|
|-12--------------------------------12S|
|-10--10-10-10-10-10-10-10-10-10-10-10S|
|--------------------------------------|
|
|         PM---------------------|
|  Q   S  S  S  S  S  S  S  S  S  S  E
|--------------------------------------|
|--------------------------------------|
|--------------------------------------|
|-12--------------------------------12S|
|-10--10-10-10-10-10-10-10-10-10-10-10S|
|--------------------------------------|


  D#5                          E5VII
     PM--------------------|      PM----------------|
  Q  S S S S S S S S S S S S   Q  S S S S S S S S S S E
|----------------------------|-----------------------------|
|----------------------------|-----------------------------|
|-8--------------------------|-9----------------------9S===|
|-8--------------------------|-9----------------------9S===|
|-6--6-6-6-6-6-6-6-6-6-6-6-6-|-7--7-7-7-7-7-7-7-7-7-7-7S===|
|----------------------------|-----------------------------|
|
|    PM--------------------|      PM----------------|
| Q  S S S S S S S S S S S S   Q  S S S S S S S S S S E
|----------------------------|-----------------------------|
|----------------------------|-----------------------------|
|----------------------------|-----------------------------|
|-8--------------------------|-9----------------------9S===|
|-6--6-6-6-6-6-6-6-6-6-6-6-6-|-7--7-7-7-7-7-7-7-7-7-7-7S===|
|----------------------------|-----------------------------|


  C5                         D#5
     PM----------------|        PM----------------|
  Q  S S S S S S S S S S E   Q  S S S S S S S S S S E
|--------------------------|--------------------------|
|--------------------------|--------------------------|
|-5----------------------5S|=8----------------------8S|
|-5----------------------5S|=8----------------------8S|
|-3--3-3-3-3-3-3-3-3-3-3-3S|=6--6-6-6-6-6-6-6-6-6-6-6S|
|--------------------------|--------------------------|
|
|    PM----------------|        PM----------------|
| Q  S S S S S S S S S S E   Q  S S S S S S S S S S E
|--------------------------|--------------------------|
|--------------------------|--------------------------|
|--------------------------|--------------------------|
|-5----------------------5S|=8----------------------8S|
|-3--3-3-3-3-3-3-3-3-3-3-3S|=6--6-6-6-6-6-6-6-6-6-6-6S|
|--------------------------|--------------------------|


  B5II
     PM--------------------|
  Q  S S S S S S S S S S S S
|------------------------------|
|------------------------------|
|-4----------------------------|
|-4----------------------------|
|-2--2-2-2-2-2-2-2-2-2-2-2-2---|
|------------------------------|
|
|    PM--------------------|
| Q  S S S S S S S S S S S S
|------------------------------|
|------------------------------|
|------------------------------|
|-4----------------------------|
|-2--2-2-2-2-2-2-2-2-2-2-2-2---|
|------------------------------|


  E5VII
      PM----------------|
   Q  S S S S S S S S S S  E
|----------------------------|
|----------------------------|
|-12----------------------12S|
|--x-----------------------x-|
|-10----------------------10S|
|-----0-0-0-0-0-0-0-0-0-0----|
|
|     PM----------------|
|  Q  S S S S S S S S S S  E
|----------------------------|
|----------------------------|
|----------------------------|
|--9-----------------------9S|
|--7-----------------------7S|
|-----0-0-0-0-0-0-0-0-0-0----|


  F#5                          G5
      PM----------------|          PM----------------|
   Q  S S S S S S S S S S  E    Q  S S S S S S S S S S  E
|----------------------------|-----------------------------|
|----------------------------|-----------------------------|
|-14----------------------14S|=16----------------------16S=|
|--x-----------------------x-|--x-----------------------x--|
|-12----------------------12S|=14----------------------14S=|
|-----0-0-0-0-0-0-0-0-0-0----|-----0-0-0-0-0-0-0-0-0-0-----|
|
|     PM----------------|            PM--------------|
|  Q  S S S S S S S S S S  E    Q  S S S S S S S S S S  E
|----------------------------|-----------------------------|
|----------------------------|-----------------------------|
|----------------------------|-----------------------------|
|-11----------------------11S|=12----------------------12S=|
|--9-----------------------9S|=10----------------------10S=|
|-----0-0-0-0-0-0-0-0-0-0----|-----0-0-0-0-0-0-0-0-0-0-----|


  D#5
      PM--------------------|
   Q  S S S S S S S S S S S S
|-----------------------------|
|-----------------------------|
|-11--------------------------|
|--x--------------------------|
|--9--9-9-9-9-9-9-9-9-9-9-9-9-|
|-----------------------------|
|
|     PM--------------------|
|  Q  S S S S S S S S S S S S
|-----------------------------|
|-----------------------------|
|-----------------------------|
|--8--------------------------|
|--6--6-6-6-6-6-6-6-6-6-6-6-6-|
|-----------------------------|


  E5VII                                  C5
       PM------------------------|          PM----------------|
   Q   S  S  S  S  S  S  S  S  S  S  E   Q  S S S S S S S S S S E
|--------------------------------------|-----------------------------|
|--------------------------------------|-----------------------------|
|-12--------------------------------12S|=9----------------------9S===|
|--x---------------------------------x-|-x----------------------x----|
|-10--10-10-10-10-10-10-10-10-10-10-10S|=7--7-7-7-7-7-7-7-7-7-7-7S===|
|--------------------------------------|-----------------------------|
|
|      PM------------------------|          PM----------------|
|  Q   S  S  S  S  S  S  S  S  S  S  E   Q  S S S S S S S S S S E
|--------------------------------------|-----------------------------|
|--------------------------------------|-----------------------------|
|--------------------------------------|-----------------------------|
|--9---------------------------------9S|=5----------------------5S===|
|--7---7--7--7--7--7--7--7--7--7--7--7S|=3--3-3-3-3-3-3-3-3-3-3-3S===|
|--------------------------------------|-----------------------------|


  D#5                          B5II
      PM----------------|         PM--------------------|
   Q  S S S S S S S S S S  E   Q  S S S S S S S S S S S S
|----------------------------|-----------------------------|
|----------------------------|-----------------------------|
|-11----------------------11S|=8---------------------------|
|--x-----------------------x-|-x---------------------------|
|--9--9-9-9-9-9-9-9-9-9-9--9S|=6--6-6-6-6-6-6-6-6-6-6-6-6--|
|----------------------------|-----------------------------|
|
|     PM----------------|         PM--------------------|
|  Q  S S S S S S S S S S  E   Q  S S S S S S S S S S S S
|----------------------------|-----------------------------|
|----------------------------|-----------------------------|
|----------------------------|-----------------------------|
|--8-----------------------8S|=4---------------------------|
|--6--6-6-6-6-6-6-6-6-6-6--6S|=2--2-2-2-2-2-2-2-2-2-2-2-2--|
|----------------------------|-----------------------------|


   Breakdown
    E5VII                         D#5
    Gtrs I, II
      PM|   PM|   PM--|   PM|   PM
    E E E E E E E E   E E E E E E E E
||------------------|-----------------|
||o-----------------|-----------------|
||------------------|-----------------|
||--9-----9-----9---|---9-----9---8-8-|
||o-7-----7-----7---|---7-----7---7-7-|
||----0-0---0-0---0-|-0---0-0---0-----|


  E5VII             N.C.
    PM|   PM|   PM
                    |-3--|  |-3--| |--3--|  |--3--|
  E E E E E E E E   E E  E  E  E E E  E  E  E  E  E
|-----------------|----------------------------------|
|-----------------|----------------------------------|
|-----------------|----------------------------------|
|-9-----9-----9---|----------------------------------|
|-7-----7-----7---|--------10--------------13--------|
|---0-0---0-0---0-|-0-8-11----11-8-0-11-14----14-11--|


  E5VII                         D#5   E5VII
    PM|   PM|   PM--|   PM|   PM        PM|   PM|   PM
  E E E E E E E E   E E E E E E E E   E E E E E E E E
|-----------------|-----------------|-----------------|
|-----------------|-----------------|-----------------|
|-----------------|-----------------|-----------------|
|-9-----9-----9---|---9-----9---8-8-|-9-----9-----9---|
|-7-----7-----7---|---7-----7---7-7-|-7-----7-----7---|
|---0-0---0-0---0-|-0---0-0---0-----|---0-0---0-0---0-|


  N.C.
  |--3--|  |--3--| |--3--|  |--3--|
  E  E  E  E  E  E E  E  E  E  E  E
|------------------------------------||
|-----------------------------------o||
|------------------------------------||
|---------14---------------13--------||
|-0-12-15----15-12-0-11-14----14-11-o||
|------------------------------------||


  |--3--|  |--3--| |--3--|  |--3--|
  E  E  E  E  E  E E  E  E  E  E  E
|-----------------------------------|
|-----------------------------------|
|-----------------------------------|
|-----------------------------------|
|---------14---------------13-------|
|-0-12-15----15-12-0-11-14----14-11-|


  |-3--|  |-3--| |-3--| |-3--|   |-3--| |-3--| |-3-| |-3-|
  E E  E  E  E E E E  E E  E E   E E  E E  E E E E E E E E
|------------------------------|----------------------------|
|------------------------------|----------------------------|
|------------------------------|----------------------------|
|------------------------------|--------9------------8------|
|--------10-------------9------|-0-7-10---10-7-0-6-9---9-6--|
|-0-8-11----11-8-0-7-10---10-7-|----------------------------|


 Bridge
  N.C.
  Gtr III
        PM|   PM          PM|   PM|               PM|   PM           PM|   PM
  E E E E E E E E   +E  E E E E E E E   +E   E  E E E E E E   +Q   E E E E E E
|-----------------|-------------------|---------------------|------------------|
|-----------------|-------------------|---------------------|------------------|
|-5S7-7-----7---5-|-(5)-5-----5-----4-|-(4)--5--5-----5---4-|-(4)--4-----4---4-|
|-5S7-7-----7---5-|-(5)-5-----5-----5-|-(5)-(5)-5-----5---5-|-(5)--5-----5---5-|
|-------0-0---0---|-------0-0---0-0---|---------------------|------------------|
|-----------------|-------------------|-----------3-3---3---|--------3-3---3---|


            PM|   PM           PM|   PM
  +E   E  E E E E E E   +Q   E E E E E E
|---------------------|------------------|
|---------------------|------------------|
|-(4)--5--5-----5---4-|-(4)--4-----4---2-|
|-(5)-(5)-5-----5---5-|-(5)--5-----5---3-|
|---------------------|------------------|
|-----------0-0---0---|--------0-0---0---|
|
| Gtr I
|  W                     W
|---------------------|------------------|
|---------------------|------------------|
|---------------------|------------------|
|---------------------|------------------|
|---------------------|------------------|
|---------------------|------------------|


         PM|   PM                     PM|
  +Q   E E E E E E   +E   E E E +E  E E E
|------------------|-----------------------|
|------------------|-----------------------|
|-(2)--2-----2---5-|-(5)--5---4-(4)-4------|
|-(3)--3-----3---5-|-(5)--5---5-(5)-5------|
|--------0-0---0---|-----------------------|
|------------------|------------------0-0--|
|
|  W                  H..               E
|------------------|-----------------------|
|------------------|-----------------------|
|------------------|--------------------9S=|
|------------------|-----------------------|
|------------------|-----------------------|
|------------------|-----------------------|


 Solo 1
        PM|   PM          PM|   PM|
  E E E E E E E E   +E  E E E E E E E
|-----------------|--------------------|
|-----------------|--------------------|
|-5S7-7-----7---5-|-(5)-5-----5-----4--|
|-5S7-7-----7---5-|-(5)-5-----5-----5--|
|-------0-0---0---|-------0-0---0-0----|
|-----------------|--------------------|
|
|     ~
| Q   H     E   E   +Q    Q   Q   E Q
|-----------------|--------------------|
|-----------5-----|--------------------|
|-4---5---------7-|-(7)---5---4---5-4--|
|-----------------|--------------------|
|-----------------|--------------------|
|-----------------|--------------------|


            PM|   PM              PM|     PM
  +E   E  E E E E E  E    +Q    E E  E  E E  E
|-----------------------|-----------------------|
|-----------------------|-----------------------|
|-(4)--5--5-----5----4--|-(4)---4-------5----4--|
|-(5)-(5)-5-----5----5--|-(5)---5-------5----5--|
|-----------------------|-----------------------|
|-----------3-3---3-----|---------3--3----3-----|
|
|  PM-----|                PM---|
|  E   E  E E E E E +E     E  E E E +E  E E +E
|-----------------------|-----------------------|
|---------------6-5-(5)-|---------------6-5-(5)-|
|-----------4-5---------|--7--5-7-5-(5)---------|
|--7---5--7-------------|-----------------------|
|-----------------------|-----------------------|
|-----------------------|-----------------------|


            PM|       PM             PM|   PM
  +E   E  E E  E  E   E E   +Q     E E E E E   E
|-------------------------|----------------------|
|-------------------------|----------------------|
|-(4)--5--5-------5-----4-|-(4)----4-----4-----2-|
|-(5)-(5)-5-------5-----5-|-(5)----5-----5-----3-|
|-------------------------|----------------------|
|-----------0--0------0---|----------0-0---0-----|
|
|  PM-------|                      PM--|
|  E   E  E E +Q    E   E   +E   E E E E E E   E
|-------------------------|----------------------|
|-----------------------6-|-(6)--5-------5-6-/10-|
|--7---5--7-5-(5)---5-----|--------7-5-7---------|
|-------------------------|----------------------|
|-------------------------|----------------------|
|-------------------------|----------------------|
|
| Gtr II
|  W                         H..               E
|-------------------------|-------------------/8-|
|-------------------------|----------------------|
|-------------------------|----------------------|
|-------------------------|----------------------|
|-------------------------|----------------------|
|-------------------------|----------------------|


            PM---|     PM                                PM|
   +Q     E E    E   E E   E   +E   E E  E +E  E         E E
|----------------------------|--------------------------------|
|----------------------------|--------------------------------|
|--(2)----2----------2-----5-|-(5)--5----4-(4)-4--------------|
|--(3)----3----------3-----5-|-(5)--5----5-(5)-5--------------|
|-----------0----0-----0-----|--------------------------------|
|----------------------------|---------------------------0-0--|
|
|  +Q   Q      E   Q     E     +E   Q    Q     E.  E.
|----------------------------|--------------------------------|
|-(10)-10-----10---8-----8---|-(8)-13---13--------15b17=======|
|----------------------------|--------------------------------|
|----------------------------|--------------------------------|
|----------------------------|--------------------------------|
|----------------------------|--------------------------------|
|
|  +Q   Q      E   Q     E     +E   Q    Q     Q         E
|--(8)--8------8---7-----7---|-(7)-12---12--------------------|
|----------------------------|--------------------------------|
|----------------------------|--------------------------------|
|----------------------------|--------------------------------|
|----------------------------|--------------------------------|
|----------------------------|--------------------------------|


             PM|    PM             PM|      PM|
    E   E E  E E  E E  E   +E   E  E  E  E  E  E  E
|------------------------|--------------------------|
|------------------------|--------------------------|
|---5S==7-7-------7----5-|-(5)--5--------5--------4-|
|---5S==7-7-------7----5-|-(5)--5--------5--------5-|
|------------0-0----0----|---------0--0-----0--0----|
|------------------------|--------------------------|
|
|  +E   Q    Q    Q    E    E   E  E  E  Q     E  E
|------------------------|--------------------------|
|-(15)-15---15---15---15-|-15--15-15-15-15r---13-15-|
|------------------------|--------------------------|
|------------------------|--------------------------|
|------------------------|--------------------------|
|------------------------|--------------------------|
|
|   W                       W
|------------------------|--------------------------|
|------------------------|--------------------------|
|------------------------|--------------------------|
|------------------------|--------------------------|
|------------------------|--------------------------|
|------------------------|--------------------------|


                 PM|        PM                PM-|    PM
   +E   E     E  E E  E     E  E   +Q      E  E  E E  E  E
|--------------------------------|---------------------------|
|--------------------------------|---------------------------|
|--(4)--5-----5-------5--------4-|-(4)-----4-------4-----4---|
|--(5)-(5)----5-------5--------5-|-(5)-----5-------5-----5---|
|--------------------------------|---------------------------|
|----------------3-3--------3----|------------3--3----3------|
|
|                                             ~~~
|  +E   S  S  E  Q    S  S  E  E    E   E  E  Q.      Q
|--------------------------------|---------------------------|
|-(15)-13h15p13-12---12h13p12-10-|-----10s13p10------17------|
|--------------------------------|-12------------------------|
|--------------------------------|---------------------------|
|--------------------------------|---------------------------|
|--------------------------------|---------------------------|
|
|   W                               H.                   Q
|--------------------------------|----------------------15---|
|--------------------------------|---------------------------|
|--------------------------------|---------------------------|
|--------------------------------|---------------------------|
|--------------------------------|---------------------------|
|--------------------------------|---------------------------|


               PM|      PM                PM|      PM
   +E   E   E  E  E  E  E  E   +Q      E  E  E  E  E  E
|----------------------------|--------------------------|
|----------------------------|--------------------------|
|--(4)--5---5--------5-----4-|-(4)-----4--------4-----2-|
|--(5)-(5)--5--------5-----5-|-(5)-----5--------5-----3-|
|----------------------------|--------------------------|
|--------------0--0-----0----|------------0--0-----0----|
|
|  +E   E   E  E  E  E  E  E    E   E  E  E  E  E  E  E
|----------------------------|--------------------------|
|-(17)-17--17-17-17-15-15-15-|-----10-10-10-10--8--8--8-|
|----------------------------|--------------------------|
|----------------------------|--------------------------|
|----------------------------|--------------------------|
|----------------------------|--------------------------|
|
|  +E   E   E  E  E  E  E  E    E   E  E  E  E  E  E  E
|-(15)-15--15-15-15-13-13-13-|--------------------------|
|----------------------------|-----13-13-13-13-12-12-12-|
|----------------------------|--------------------------|
|----------------------------|--------------------------|
|----------------------------|--------------------------|
|----------------------------|--------------------------|


                  PM---|           PM                                    PM|
  +Q         E    E    E     E     E   E        +E       E     E E +E  E E E
|-----------------------------------------|----------------------------------|
|-----------------------------------------|----------------------------------|
|-(2)--------2---------------2---------5--|-----(5)------5-------4-(4)-4-----|
|-(3)--------3---------------3---------5--|-----(5)------5-------5-(5)-5-----|
|-----------------0----0-----------0------|----------------------------------|
|-----------------------------------------|------------------------------0-0-|
|
|                                                              ~~
|  S  S S  S S  S S  S S  S  S  S  E   E     E   E   Q.  E  E  E
|-------5-12-8---------8-17-12------------|----------------------------------|
|-----6--------10---10---------13---------|-----13--12-----------------------|
|--7--------------9---------------14------|-------------14-12-14-------------|
|-----------------------------------------|----------------------------------|
|-------------------------------------12--|-14-------------------------------|
|-----------------------------------------|----------------------------------|
|
|                                                              ~~
|  W                                         E   E   Q.  E  E  E
|-----------------------------------------|-----12--10-----------------------|
|-----------------------------------------|-------------13-12-13-------------|
|-----------------------------------------|----------------------------------|
|-----------------------------------------|----------------------------------|
|-----------------------------------------|----------------------------------|
|-----------------------------------------|----------------------------------|


 Solo 2
  Gtr III
                              PM---|            PM                         PM---|            PM---|
   E        E        E        E     E     E     E     E      +E      E     E     E     E 
   E     E     E
|----------------------------------------------------------|--------------------------------------------------|
|----------------------------------------------------------|--------------------------------------------------|
|--5S=======7--------7--------------------7-----------5----|-(5)-----5-----------------5-----------------4----|
|--5S=======7--------7--------------------7-----------5----|-(5)-----5-----------------5-----------------5----|
|-----------------------------0-----0-----------0----------|---------------0-----0-----------0-----0----------|
|----------------------------------------------------------|--------------------------------------------------|
|
| Gtr I
|  S  S     S  S     S  S     S  S  S  S  S  S  S  S  S  S    S   S  S  S  S  S  S  S  S 
S  S  S  S  S  S  S
|-17-------17-------17-------17-17-17-17-17-17-20-17-20-17-|-22--20-17-20-17----20-17----17-20-17-17----------|
|----20b22----20b22----20b22-------------------------------|-----------------20-------20-------------20-17-20-|
|----------------------------------------------------------|--------------------------------------------------|
|----------------------------------------------------------|--------------------------------------------------|
|----------------------------------------------------------|--------------------------------------------------|
|----------------------------------------------------------|--------------------------------------------------|


                       PM---|            PM                     PM|     PM
  +E      E      E     E     E     E     E     E      +Q      E E  E E  E E
|---------------------------------------------------|-----------------------|
|---------------------------------------------------|-----------------------|
|-(4)-----5------5-----------------4-----------4----|-(4)-----4------4----4-|
|-(5)----(5)-----5-----------------5-----------5----|-(5)-----5------5----5-|
|---------------------------------------------------|-----------------------|
|----------------------3-----3-----------3----------|-----------3--3----3---|
|
|  S   S  S   S  S  S  S  S  S  S  S  S  S  S  S  S    Q      Q    Q    Q
|-20--17-----17-------------------------------------|-----------------------|
|--------20-----20-17----20-20-17----20-------------|-----------------------|
|---------------------19----------19----19-17----17-|-19b21--19---17--------|
|---------------------------------------------19----|------------------19---|
|---------------------------------------------------|-----------------------|
|---------------------------------------------------|-----------------------|


              PM|      PM                 PM|      PM
  +E   E   E  E  E  E  E  E    +Q      E  E  E  E  E  E
|---------------------------|---------------------------|
|---------------------------|---------------------------|
|-(4)--5---5--------5-----4-|--(4)-----4--------4-----2-|
|-(5)-(5)--5--------5-----5-|--(5)-----5--------5-----3-|
|---------------------------|---------------------------|
|-------------0--0-----0----|-------------0--0-----0----|
|
|      PM        PM       PM           PM       PM
|  E   E   E  E  E  E  E  E     E   E  E  E  E  E  E  E
|---------------------------|---------------------------|
|---------------------------|---------------------------|
|-17------17-16----16-14----|-[14]-12----12-10----10-10-|
|-----19--------17-------15-|---------14-------12-------|
|---------------------------|---------------------------|
|---------------------------|---------------------------|


          PM|    PM                             PM|
   +Q   E E  E E E E   +E   E E       E +E   E  E E
|--------------------|--------------------------------|
|--------------------|--------------------------------|
|--(2)--2------2---5-|-(5)--5---------4-(4)--4--------|
|--(3)--3------3---5-|-(5)--5---------5-(5)--5--------|
|---------0--0---0---|--------------------------------|
|--------------------|--------------------------0-0---|
|
|   ~~~~
|                             |-3--|
|  +H        E E E E   +E   E S  S S  Q      Q.
|--------------------|--------------------------------|
|--------------------|--------------------------------|
|-(10)------10-9-9-9-|-(9)-10p9h10p9------------------|
|--------------------|---------------12-----10--------|
|--------------------|--------------------------------|
|--------------------|--------------------------------|


                 PM---|         PM                      PM---|         PM---|
  E    E    E    E    E    E    E    E      +E     E    E    E    E    E    E    E
|-----------------------------------------|-------------------------------------------|
|-----------------------------------------|-------------------------------------------|
|-5S===7----7--------------7---------5----|-(5)----5--------------5--------------4----|
|-5S===7----7--------------7---------5----|-(5)----5--------------5--------------5----|
|----------------0----0---------0---------|-------------0----0---------0----0---------|
|-----------------------------------------|-------------------------------------------|
|
| PM-----|     PM------------------------------------|     PM---------------------------|
| |---3---| |---3---| |---3---| |---3---|    |---3----| |---3---| |---3---| |---3-------|
| E  E    E E  E    E E  E    E E  E    E    E   E    E E  E    E E  E    E E  E    E
|-----------------------------------------|-------------------------------------------|
|-----------------------------------------|-------------------------------------------|
|-----------------------------------------|-------------9-----------------------------|
|-----------9-----------------------------|---------------------------------9-10---12-|
|-------------------------------8-10---12-|--8--10---12---12---10-8-10---12-----------|
|-8-10---12---12---10-8-10---12-----------|-------------------------------------------|


                      PM---|          PM                          PM---|           PM
  +E      E      E    E    E    E     E    E      +Q         E    E     E    E     E    E
|-----------------------------------------------|-----------------------------------------------|
|-----------------------------------------------|-----------------------------------------------|
|-(4)-----5------5--------------5----------4----|-(4)--------4---------------4----------4-------|
|-(5)----(5)-----5--------------5----------5----|-(5)--------5---------------5----------5-------|
|-----------------------------------------------|-----------------------------------------------|
|---------------------3----3----------3---------|-----------------3-----3----------3------------|
|
|------------|      PM--------------------------------------------------------------------|
|  |----3-----|  |---3---| |---3---|  |---3---|    |--3---|  |---3---|  |---3---|  |---3--|
|  E   E      E  E  E    E E  E    E  E  E    E    E   E  E  E  E    E  E  E    E  E  E    E
|-----------------------------------------------|-----------10--------------------10-12---13----|
|---------------10-------------------10-12---13-|-10--12-13----13---12-10-12---13---------------|
|-----------------------------------------------|-----------------------------------------------|
|--9--10-----12----12---10-9-10---12------------|-----------------------------------------------|
|-----------------------------------------------|-----------------------------------------------|
|-----------------------------------------------|-----------------------------------------------|


              PM|      PM               PM|      PM
  +E   E   E  E  E  E  E  E    +Q    E  E  E  E  E  E
|---------------------------|-------------------------|
|---------------------------|-------------------------|
|-(4)--5---5--------5-----4-|--(4)---4--------4-----2-|
|-(5)-(5)--5--------5-----5-|--(5)---5--------5-----3-|
|---------------------------|-------------------------|
|-------------0--0-----0----|-----------0--0-----0----|
|
|                         ~~~~~~~~~                 ~~~
|  Q       E  E  E  E  E  E    +Q    E  E  E  E  E  E
|---------13-12-10----------|-------12-10-------------|
|------------------13-12-10-|-(10)--------13-12-10----|
|---------------------------|----------------------10-|
|---------------------------|-------------------------|
|---------------------------|-------------------------|
|---------------------------|-------------------------|


            PM|      PM                       PM|
   +Q    E  E  E  E  E E   +E  E E   E  +E  E E   E
|------------------------|---------------------------|
|------------------------|---------------------------|
|--(2)---2--------2----5-|-(5)-5-----4--(4)-4--------|
|--(3)---3--------3----5-|-(5)-5-----5--(5)-5--------|
|-----------0--0-----0---|---------------------------|
|------------------------|--------------------0---0--|
|
|~~~~~~                ~~~~~~~~~~~~~~~~~~~~~~~~~~~~~~
|  +Q    E  E  E  E  E E   +Q.       H           +E
|-------10---------------|---------------------------|
|----------13-12-10------|---------------------------|
|-(10)--------------10-9-|-(9)-----[10]---------(10)-|
|------------------------|---------------------------|
|------------------------|---------------------------|
|------------------------|---------------------------|


 Breakdown
  E5VII                              D#5
  Gtrs III, IV
      PM|   PM|    PM----|   PM|   PM
  E   E E E E E E  E     E E E E E E E E
|----------------------|-----------------|
|----------------------|-----------------|
|----------------------|-----------------|
|-9-------9-----9------|---9-----9---8-8-|
|-7-------7-----7------|---7-----7---7-7-|
|-----0-0---0-0----0---|-0---0-0---0-----|
|
| Gtr I
| ~~~
| H..             +E     W
|----------------------|-----------------|
|----------------------|-----------------|
|-9---------------(9)\-|-----------------|
|----------------------|-----------------|
|----------------------|-----------------|
|----------------------|-----------------|


  E5VII             N.C.
    PM|   PM|   PM
                    |-3--|  |-3--| |--3--|  |--3--|
  E E E E E E E E   E E  E  E  E E E  E  E  E  E  E
|-----------------|---------------------------------|
|-----------------|---------------------------------|
|-----------------|---------------------------------|
|-9-----9-----9---|---------------------------------|
|-7-----7-----7---|--------10--------------13-------|
|---0-0---0-0---0-|-0-8-11----11-8-0-11-14----14-11-|
|
| W                 W
|-----------------|---------------------------------|
|-----------------|---------------------------------|
|-----------------|---------------------------------|
|-----------------|---------------------------------|
|-----------------|---------------------------------|
|-----------------|---------------------------------|


  E5VII                         D#5
    PM|   PM|   PM--|   PM|   PM
  E E E E E E E E   E E E E E E E E
|-----------------|-----------------|
|-----------------|-----------------|
|-----------------|-----------------|
|-9-----9-----9---|---9-----9---8-8-|
|-7-----7-----7---|---7-----7---7-7-|
|---0-0---0-0---0-|-0---0-0---0-----|


  E5VII             N.C.
    PM|   PM|   PM
                    |--3--|  |--3--| |--3--|  |--3--|
  E E E E E E E E   E  E  E  E  E  E E  E  E  E  E  E
|-----------------|-----------------------------------|
|-----------------|-----------------------------------|
|-----------------|-----------------------------------|
|-9-----9-----9---|---------14---------------13-------|
|-7-----7-----7---|-0-12-15----15-12-0-11-14----14-11-|
|---0-0---0-0---0-|-----------------------------------|


  E5VII                         D#5
    PM|   PM|   PM--|   PM|   PM
  E E E E E E E E   E E E E E E E E
|-----------------|-----------------|
|-----------------|-----------------|
|-----------------|-----------------|
|-9-----9-----9---|---9-----9---8-8-|
|-7-----7-----7---|---7-----7---7-7-|
|---0-0---0-0---0-|-0---0-0---0-----|


  E5VII             N.C.
    PM|   PM|   PM
                    |-3--|  |-3--| |--3--|  |--3--|
  E E E E E E E E   E E  E  E  E E E  E  E  E  E  E
|-----------------|---------------------------------|
|-----------------|---------------------------------|
|-----------------|---------------------------------|
|-9-----9-----9---|---------------------------------|
|-7-----7-----7---|--------10--------------13-------|
|---0-0---0-0---0-|-0-8-11----11-8-0-11-14----14-11-|


  E5VII                         D#5
    PM|   PM|   PM--|   PM|   PM
  E E E E E E E E   E E E E E E E E
|-----------------|-----------------|
|-----------------|-----------------|
|-----------------|-----------------|
|-9-----9-----9---|---9-----9---8-8-|
|-7-----7-----7---|---7-----7---7-7-|
|---0-0---0-0---0-|-0---0-0---0-----|


  E5VII             N.C.
    PM|   PM|   PM
                    |--3--|  |--3--| |--3--|  |--3--|
  E E E E E E E E   E  E  E  E  E  E E  E  E  E  E  E
|-----------------|-----------------------------------|
|-----------------|-----------------------------------|
|-----------------|-----------------------------------|
|-9-----9-----9---|---------14---------------13-------|
|-7-----7-----7---|-0-12-15----15-12-0-11-14----14-11-|
|---0-0---0-0---0-|-----------------------------------|


  |--3--|  |--3--| |--3--|  |--3--|
  E  E  E  E  E  E E  E  E  E  E  E
|-----------------------------------|
|-----------------------------------|
|-----------------------------------|
|-----------------------------------|
|---------14---------------13-------|
|-0-12-15----15-12-0-11-14----14-11-|


                                             D.S. al Coda
  |-3--|  |-3--| |-3--| |-3--|   |-3--| |-3--| |-3-| |-3-|
  E E  E  E  E E E E  E E  E E   E E  E E  E E E E E E E E
|------------------------------|----------------------------|
|------------------------------|----------------------------|
|------------------------------|----------------------------|
|------------------------------|--------9------------8------|
|--------10-------------9------|-0-7-10---10-7-0-6-9---9-6--|
|-0-8-11----11-8-0-7-10---10-7-|----------------------------|


 End
  Q=180
  &
  E5
  Gtr I
  W          +W           +W           +W
|----------|------------|------------|--------*|
|----------|------------|------------|--------*|
|----------|------------|------------|--------*|
|-2--------|-(2)--------|-(2)--------|-(2)----*|
|-2--------|-(2)--------|-(2)--------|-(2)----*|
|-0--------|-(0)--------|-(0)--------|-(0)----*|
|
| Gtr II
| W          +W           +W           +W
|----------|------------|------------|--------*|
|----------|------------|------------|--------*|
|----------|------------|------------|--------*|
|-2--------|-(2)--------|-(2)--------|-(2)----*|
|-2--------|-(2)--------|-(2)--------|-(2)----*|
|-0--------|-(0)--------|-(0)--------|-(0)----*|

______________________________________________________________________________
4. ANTHEM (WE ARE THE FIRE) 4:03 - Composed by Matt Heafy and Paolo Gregoletto
______________________________________________________________________________
You can figure out the ordering of the riffs its fairly easy

Intro/Chorus riff
e|-------------------------------------------------------------------------|
B|-------------------------------------------------------------------------|
G|---------9------9--------7-----9--------4h5--4---2-------9-----10--------|
D|--------10-----10--------9-----9--------5h5--5---2------10-----10--------|
A|--0--0------0------0--0-----0-----0--0-----------0---0------0------0--0--|
E|-------------------------------------------------------------------------|
PM-------     -      ----     -     ----               -      -      ----

e|-------------------------|------------------------------------------|
B|-------------------------|------------------------------------------|
G|--4--4-----2-------------|---------9-----10--------7----------------|
D|--5--5-----3-------------|--------10-----10--------9----------------|
A|--------0------0---0-----|--0--0------0------0--0-------------------|
E|-----------------------3-|------------------------------------------|
PM        -                   ----      -      -----------------------|

e|---------------------------------------------------|----------------------|
B|---------------------------------------------------|----------------------|
G|-----9--------4h5--4-------------------------------|---2------------------|
D|-----9--------5h5--5----3--------5-----------------|---2----5----3--------|
A|--0-----0--0------------3--------5-------0---0-----|---0----5----3--------|
E|------------------------1--------3---------------3-|--------3----1--------|
PM---     ------------------------------------------------------------------|

Intro solo
e|---BU----------BD-----------------------7-----(8)---(7)p5----------------|
B|--9(10)~~~~~~~~--(8)----6\5~~~~~~--5h6----BU-----------------------------|
G|-----------------------------------------------------------7~~~----------|
D|-------------------------------------------------------------------------|
A|-------------------------------------------------------------------------|
E|-------------------------------------------------------------------------|

e|-----------------------------------BU-------8p5---5----------------------|
B|-------------------------BD-------8--10~~~------8---8p5-8p5---5----------|
G|--------5-----5--7b---(9)--(7)p5----------------------------7---7p5------|
D|--7--7-----7-------------------------------------------------------------|
A|-------------------------------------------------------------------------|
E|-------------------------------------------------------------------------|

e|-------------------------------------------------------------------------|
B|----BU----------BD-------------------------------------------------------|
G|--7---(9)----(9)--(7)p5--------2-----------------------------------------|
D|-------------------------7~~~--2------5------1---------------------------|
A|-------------------------------0------5------3---------------------------|
E|--------------------------------------3------3---------------------------|

e|---------------------------------------------------------------------------|
B|---------------------------------------------------------------------------|
G|--------------------------------------------------------4--4---3---5-------|
D|------------------------------------------3----7---------------------------|
A|--5\3/5----------------------------5\5----3----5----7---2--2---5---7-------|
E|--7\5/7--5--5--5--5--5--5--5--5----7\3----1----5----0----------------------|
PM         ------------------------------------------------------------------|

Pre Chorus
e|-------------------------|----------------------|------------------------|
B|-------------------------|----------------------|------------------------|
G|--------------5--------5-|-----------5----------|----------5-------------|
D|--2-----4--------4-----5-|-----4--------4-------|----4--------4----------|
A|--0--0-----0--------0----|--0-----0--------0--0-|-0-----0--------0--0----|
E|-------------------------|----------------------|------------------------|
PM     -     -        -       -     -        --------     -        ----|

e|--------------------------|----------------------------------------------|
B|--------------------------|----------------------------------------------|
G|--------------------------|-----------5--------5-----------5-------------|
D|--5--5-----6-----7-----2--|-----4--------4-----5-----4--------4----------|
A|--3--3--0--4--0--5--0--0--|--0-----0--------0-----0-----0--------0--0----|
E|--------------------------|----------------------------------------------|
PM        -     -     -        -     -        -     -     -        ----|

e|-------------------------------------------------------------------------|
B|-------------------------------------------------------------------------|
G|-------------------------------------------------------------------------|
D|--5----5--------6-------2------------------------------------------------|
A|--3----3----0---4---0---0------------------------------------------------|
E|----------------------------3--------------------------------------------|
PM            -       -       -|

On second time play 4 times with this twice over the second two
|-----------------------------------|-----------------------------------|
|-----------------------------------|-----------------------------------|
|--9--9-9-9-9-9-9-9-5-5-5-5-5-5-5-5-|--7--7-7-7-7-7-7-7-4-4-4-4-4-4-4-4-|
|--x--x-x-x-x-x-x-x-x-x-x-x-x-x-x-x-|--x--x-x-x-x-x-x-x-x-x-x-x-x-x-x-x-|
|--7--7-7-7-7-7-7-7-3-3-3-3-3-3-3-3-|--5--5-5-5-5-5-5-5-2-2-2-2-2-2-2-2-|
|-----------------------------------|-----------------------------------|

Solo
e|------------------------------------------------------------------|
B|------------------------------------------------------------------|
G|-----------------------------------------------12-14-16-----------|
D|--------------------12-14-15----------12-14-15----------12-14-15--|
A|-----------12-14-15----------12-14-15-----------------------------|
E|--12-13-15--------------------------------------------------------|

e|--------------------------------BU----20------BD-----BD------------------|
B|--13-15-17-13---15-17-20--20--20-(22)-------20-(22)-----(20)p18--20--20\-|
G|-------------------------------------------------------------------------|
D|-------------------------------------------------------------------------|
A|-------------------------------------------------------------------------|
E|-------------------------------------------------------------------------|

e|--15----------15----------15----------15---------------------------------|
B|-----15-15-15----13-13-13----12-12-12-----------------BU----BD-----------|
G|----------------------------------------14--12--14--14--(16)--(14)-------|
D|-------------------------------------------------------------------------|
A|-------------------------------------------------------------------------|
E|-------------------------------------------------------------------------|

e|----------------------------------------------------8--10--12--10\~~-----|
B|---------------------------------------10---10---12----------------------|
G|--12----BU--BD------------------9----9----9------------------------------|
D|------14-(15)-(14)--14~~~----10---10-------------------------------------|
A|--------------------------12---------------------------------------------|
E|-------------------------------------------------------------------------|
PM                          -----   ----    -------------------------------|

e|--13-12-10-13p10---------------------------------------------------------|
B|-----------------13--10h12h13p12p10h12-x---------------------------------|
G|------------------------------------------9\7--7h9p7---------------------|
D|-----------------------------------------------------7h9h10p9\2~~--------|
A|-------------------------------------------------------------------------|
E|----------------------------------------------------------------------/5-|

e|--------------------------------------------------8-12h17p12------12h17----|
B|------------------------------------------------10----------13--13---------|
G|--------------------------------10--9*---------9--------------14-----------|
D|-----------------7--5--9--7--9---------------10----------------------------|
A|--------5--7--8--------------------------12--------------------------------|
E|--7--8---------------------------------------------------------------------|
PM---------------     -------------------------------------------------------|

     T                   T
e|--20p17p12------12h17-20p17p12-------------------------------------------|
B|----------13--13---------------18-18-18-18-17-17-17-17-18-18-18-18-20-20-|
G|------------14-----------------------------------------------------------|
D|-------------------------------------------------------------------------|
A|-------------------------------------------------------------------------|
E|-------------------------------------------------------------------------|


e|-------------------------------------------------------------------------|
B|------------------------------------------------BU-----------------------|
G|-20-20-18-18-18-18-20-20-20-20-22-22-22-22-20-20(24)---------------------|
D|-------------------------------------------------------------------------|
A|-------------------------------------------------------------------------|
E|-------------------------------------------------------------------------|

e|---------------------------------------14---14--19p14----------14h19p14--|
B|-------------------------------12---15----------------15----15-----------|
G|------------------------11--12---------------------------16--------------|
D|-----------------7--12---------------------------------------------------|
A|----------9--10----------------------------------------------------------|
E|--7---10-----------------------------------------------------------------|

e|-----------14----------------BU------------------------------------------|
B|--15---15-------15---------18-(19)---------------------------------------|
G|--------------------16-------------19p18p17--17~~------------------------|
D|-----------------------16------------------------------------------------|
A|-------------------------------------------------------------------------|
E|-------------------------------------------------------------------------|

e|--14p10--------------------10--14p10------10-17p14------14--19-19-19-17--|
B|-------12----------------12---------12--12--------15--15-----------------|
G|---------11------------11-------------11------------14-------------------|
D|-----------12--------12--------------------------------------------------|
A|-------------14--9h14----------------------------------------------------|
E|-------------------------------------------------------------------------|

e|--17---/14~~~~----14----17------------------12---10~~~-----10--12--17~~~-|
B|-----------------------------10----12---13-------------13----------------|
G|-------------------------------------------------------------------------|
D|-------------------------------------------------------------------------|
A|-------------------------------------------------------------------------|
E|-------------------------------------------------------------------------|

e|-15~~~~~~~~~~~~~----------------12---10~~~-----10---12/20--19~~~--17~~~~-|
B|-----------------------12---13-------------13----------------------------|
G|-----------------14------------------------------------------------------|
D|-------------------------------------------------------------------------|
A|-------------------------------------------------------------------------|
E|-------------------------------------------------------------------------|

e|-------------------------------------------------------------------------|
B|--20---18---17---17~~~~~~~~~---20~~~~~~~~~~~~~~~~~~----------------------|
G|-------------------------------------------------------------------------|
D|-------------------------------------------------------------------------|
A|-------------------------------------------------------------------------|
E|-------------------------------------------------------------------------|

Coreys dive bomb is 9 on d and g strings

Breakdown
e|-------------------------------------------0-----------------------------|
B|-------------------------------------------0-----------------------------|
G|---------9----10-------7----9-------4h5-4--4---------9----10----7-----9--|
D|--------10----10-------9----9-------5h5-5--5--------10----10----9-----9--|
A|--0--0-----0-----0--0----0----0--0------------0--0-----0-----0-----0-----|
E|-------------------------------------------------------------------------|
PM------     -     ----    -    ----            ----     -     -     -

e|-----------------------------------------------------------|
B|-------------------------1----3----------3-----------------|
G|--------4h5-4------------2----4----------4-----------------|
D|--------5h5-5------------3----5----------5-----------------|
A|--0--0--------------3---------3-----5----------------------|
E|---------------1--------------3----------------------------|

Outro Solo
e|--------BD--------------------------7-------(8)--(8)------(7)------------|
B|--(10)------(8)---6\5--5~~~~---5h6-----BU-------------BD-------7~~~~~~---|
G|-------------------------------------------------------------------------|
D|-------------------------------------------------------------------------|
A|-------------------------------------------------------------------------|
E|-------------------------------------------------------------------------|

e|------------------------------------------------BU------------------|
B|---------------------------------BD-----BD-----8-(10)-------5---5---|
G|-----------5-------5---7¼----(9)----(7)----(5)--------5--5----------|
D|---7---7-------7----------------------------------------------------|
A|--------------------------------------------------------------------|
E|--------------------------------------------------------------------|

e|-----------BD----BD------8-(10)----------17---17p20h17--17p20h17-----|
B|--8----(10)---(8)---(5)---BU------/20-----------------20--------20---|
G|---------------------------------------------------------------------|
D|---------------------------------------------------------------------|
A|---------------------------------------------------------------------|
E|---------------------------------------------------------------------|

e|--17p20h17--17---20p17--22p17---------------------BU---------------------|
B|------------------------------20--22p2017--20p17-20(22)(22)-20p17-20p17--|
G|-------------------------------------------------------------------------|
D|-------------------------------------------------------------------------|
A|-------------------------------------------------------------------------|
E|-------------------------------------------------------------------------|

e|----------------------------------------------------------------------17-|
B|-------------------------------BU--------BD--------------------BU--------|
G|--19p17-19--19¼--(20)--(21)--19-(21)-(21)--(19)p17----------17----19-----|
D|---------------------------------------------------19~~~~~---------------|
A|-------------------------------------------------------------------------|
E|-------------------------------------------------------------------------|

e|------------17--------------------17--------20----(22)~~~~--20--20p17----|
B|------BU---------20p17----BU---------20p17-----BU---------------------20-|
G|----17(19)--------------19--(21)-----------------------------------------|
D|-------------------------------------------------------------------------|
A|-------------------------------------------------------------------------|
E|-------------------------------------------------------------------------|

e|--17------------------------------------------------|
B|-----20p17-20p17----17----------BU------------------|
G|-----------------19----19p17--19(21)-19-17----------|
D|-------------------------------------------19\------|
A|----------------------------------------------------|
E|----------------------------------------------------|

e|-------------12-17p12----------------------12-17p12---------------|
B|-----------13----------13----------------13--------13-------------|
G|---------14--------------14------------14------------14-----------|
D|-------14------------------14--------14----------------14---------|
A|--12h15----------------------15-12h15--------------------15-12~~--|
E|------------------------------------------------------------------|

e|--15(17)-----(17)----15----15(17)-------------------|
B|-- BU------------------------BU---------------------|
G|----------------------------------------------------|
D|----------------------------------------------------|
A|----------------------------------------------------|
E|----------------------------------------------------|

_______________________________________________________________________________
5. UNREPENTANT 4:51 - Composed by Matt Heafy and Corey Beaulieu
_______________________________________________________________________________
INTRO

Matt
|---------------------------------------------------------------------|
|---------------------------------------------------------------------|
|---------------------------------------------------------------------|
|-4-------4-------4-------5-------4-------4--------------4------------|
|--------------------------------------------------------2-------5----|
|---2-0-2---2-0-2---2-0-2---3-2-3---2-0-2---2-0-2--2-2-2---2-2-2-3----|


Both guitars 2x
|---------------------------------------------------------------------|
|---------------------------------------------------------------------|
|---------------------------------------------------------------------|
|-4-------4-------4-------5-------4-------4--------------4------------|
|--------------------------------------------------------2-------5----|
|---2-0-2---2-0-2---2-0-2---3-2-3---2-0-2---2-0-2--2-2-2---2-2-2-3----|

|---------------------------------------------------------------------|
|---------------------------------------------------------------------|
|---------------------------------------------------------------------|
|-4-------4-------4-------5-----5-4-------4----------------9----------|
|--------------------------------------------------7-9---7---10-9-7---|
|---2-0-2---2-0-2---2-0-2---2-0-----2-0-2---2-0-2------7--------------|

On second time do this for the fill
|-------------------------------------|
|-------------------------------------|
|-------------------------------------|
|---------9---------------------------|
|-7-9---7---10-9-7-10-9-7-------------|
|-----7-------------------10-9-7-5-7--|

VERSE 2x
|--------------------------------------|
|--------------------------------------|
|--------------------------------------|
|--------------------------------------|
|-----------------------------5-----4--|
|-2-2-2-2-2-2-2-3-2--2--2-2-2---3-2----|

|--------------------------------------|
|--------------------------------------|
|--------------------------------------|
|------------------------------------5-|
|------------------------------------5-|
|-2-2-2-2-2-2-2-3-2--2--2-2-2--2-2-2-3-|

|--------------------------------------|
|--------------------------------------|
|--------------------------------------|
|--------------------------------------|
|-----------------------------5-----4--|
|-2-2-2-2-2-2-2-3-2--2--2-2-2---3-2----|

|--------------------------------------|
|--------------------------------------|
|--------------------------------------|
|----------------------------2---------|
|----------------------------0-------5-|
|-2-2-2-2-2-2-2-3-2--2--2-2-2--2-2-2-3-|

Pre chorus pt 1 2x
|----------------------------------|
|----------------------------------|
|----------------------------------|
|----------------------------------|
|-----------------4-----5-4-2-0-2--|
|-3-2-0-5-3-0-3-2---3-2------------|

|----------------------------------|
|----------------------------------|
|----------------------------------|
|----------------------------------|
|-----------------4-----5-4-2-0-2--|
|-3-2-0-5-3-0-3-2---3-2------------|

|----------------------------------|
|----------------------------------|
|----------------------------------|
|----------------------------------|
|-----------------4-----5-4-2-0-2--|
|-3-2-0-5-3-0-3-2---3-2------------|

|----------------------------------|
|----------------------------------|
|----------------------------------|
|-----------------------------2----|
|-----------------4-----5-4-2-0----|
|-3-2-0-5-3-0-3-2---3-2------------|

Pre Chorus pt2 x2
Coreys part
|------------------------------------------------------------|
|------------------------------------------------------------|
|-11-----7------11-----14-----12--12--12-----9-----6-----11--|
|------------------------------------------------------------|
|-9------5------9------12-----10--10--10-----7-----4-----9---|
|------------------------------------------------------------|
 Matts part
|---------------------------------------------------------------|
|---------------------------------------------------------------|
|---------------------------------------------------------------|
|---4-------4-------4-------4-------5-------5-5---5-----5-----5-|
|-0-2-2-2-0-2-2-2-0-2-2-2-0-2-2-2-0-2-2-2-2-2-2-0-2-2-2-2-2-2-2-|
|---------------------------------------------------------------|

|----------------------------------------------------------|
|----------------------------------------------------------|
|----------------------------------------------------------|
|-2-----------2---2---2-2-----2---2-----2-----2-2----------|
|-4-4-4-4-4-4-4-2-4-4-4-4-4-4-4-2-5-5-5-5-5-5-5-5-5-5-5-4--|
|-----------------------------------------------------3-2--|

CHORUS 2x
|----------------------------------------------------------------------------|
|----------------------------------------------------------------------------|
|-4--4--4--6--6--6--7--7-----11-11-11--9--9--9--11-11-14-14-14-12-12-12-11-11|
|------------------------X2--------------------------------------------------|
|-2--2--2--4--4--4--5--5-----9--9--9---7--7--7--9--9--12-12-12-10-10-10-9--9-|
|----------------------------------------------------------------------------|


Verse 2x
Pre Chorus pt 1 2x
pre chorus pt 2 2x
Chorus 2 x

BREAKDOWN

 Matt
|---------------------------------------|
|---------------------------------------|
|-----------------------------------2-1-|
|----4-2-4----4-2-4---4-2-4---4-2-4-----|
|---------------------------2-----------|
|-2--------2--------5-------------------|

on second time corey does this
|---------------------------------------|
|---------------------------------------|
|-----------------------------------2-1-|
|-4--------4--------7---------4-2-4-----|
|-4--------4--------7-------2-----------|
|-2--------2--------5-------------------|

Then play breakdown 2x

solo backing is basically these chords
|----------------| you can figure out the
|----------------|rythm yourself
|----------------|
|-----2---4---2--|
|-4---0---2---0--|
|-2--------------|

Solo Corey
|-----------------------|
|-----------------------|
|----------11-13-13-14--|
|-11-12-14--------------|
|-----------------------|
|-----------------------|

|---------------------------------------------------|
|---------------------------------------------------|
|-16b-16b-16br-14-14-16--14-13-14-13h14p13-11-13-11-|
|---------------------------------------------------|
|---------------------------------------------------|
|---------------------------------------------------|

|-----------------------------------------------------|
|-----------------------------------------------------|
|----11-----------------------------------------------|
|-14----14-14h16p14-12-14-12-11-11h12p11---12*--12-14-|
|-----------------------------------------------------|
|----------------------------------------9------------|

|-------------------------------------------12-14-16-12-14-16-|
|--------------------------12-14-15-12-14-15------------------|
|---------11-13-14-11-13-14-----------------------------------|
|-11-12-14----------------------------------------------------|
|-------------------------------------------------------------|
|-------------------------------------------------------------|


|-14-16-17-14-16-17-16-17-19-16-19-19b-19br-19-19-|
|-------------------------------------------------|
|-------------------------------------------------|
|-------------------------------------------------|
|-------------------------------------------------|
|-------------------------------------------------|

|-21-21-21-19-17-19-17-16-17-16-14-12-14-12--|
|--------------------------------------------|
|--------------------------------------------|
|--------------------------------------------|
|--------------------------------------------|
|--------------------------------------------|
                                      ~~~~~
|-10----10---------------------------------|
|----14----14-12-14-12-10-12-10----10------|
|-------------------------------13----13---|
|------------------------------------------|
|------------------------------------------|
|------------------------------------------|

Trem the whole bar
|------------------9----9-10-12--|
|---7-9-10-9-10-12---12----------|
|-9------------------------------|
|--------------------------------|
|--------------------------------|
|--------------------------------|

|-17-21-17----------17----------17-21-17----------17-|
|---------19------19--19------19--------19------19---|
|-----------18--18------18--18------------18--18-----|
|-------------19----------19----------------19-------|
|----------------------------------------------------|
|----------------------------------------------------|

|-19b-19b--|
|----------|
|----------|
|----------|
|----------|
|----------|

Then breakdown riff except with this duetting it
2x
|--------------------------------------------|
|---------------------------------------2----|
|---2--1h2----2--1h2----2--1h2----2-1-2---4--|
|--------------------------------------------|
|--------------------0---------2-------------|
|-2--------2---------------------------------|

Then
Matt
|-------------------4---4-5-------|
|-------------5---5---5-----------|
|-6-4-6-7-6-7---7-----------------|
|---------------------------------|
|---------------------------------|
|----------------------------x\\--|
|
|Corey
|---------------------------------|
|-------------------------7-------|
|-------------6---6-9-6-9---------|
|-7-6-7-9-7-9---9-----------------|
|---------------------------------|
|----------------------------x\\--|


pre chorus pt 1 2 x
pre chorus pt 2 1 x but no guitar
chorus 2x
outro is same as intro
__________________________________________________________________________________
6. AND SADNESS WILL SEAR 3:34 - Composed by Matt Heafy
__________________________________________________________________________________
(personal favourite, not for palying though lol)

Intro

Just matt for the first 2
|-----------------------------------------------------|
|-----------------------------------------------------|
|-----------------------------------------------------|
|-----------------------------------------------------|
|-5-5-5-5-5---5-4--4-------2--------2-----------------|
|-3-3-3-3-3---3-2--2-------2---7\---2--2-2-2-2-2-2-2--|
|-3-3-3-3-3---3-2--2--2-2--0-0-0--0-0--0-0-0-0-0-0-0--|

VERSE
|----------------------|------------------------|
|----------------------|------------------------|
|----------------------|--------------------9---|
|-4----7----11---10----|-4----7----11---10------|
|----------------------|------------------------|
|----------------------|------------------------|
|----------------------|------------------------|

Chorus is the same as intro
then verse on second half play this
|-----------------------------------------------------|
|-----------------------------------------------------|
|-----------------------------------------------------|
|-----------------------------------------------------|
|-----------------------------------------------------|
|---2--2--2--2--2--2--2--2--2--2--2--2--2--2--2--2----|
|-----------------------------------------------------|

|-----------------------------------------------------|
|-----------------------------------------------------|
|-----------------------------------------------------|
|-----------------------------------------------------|
|-----------------------------------------------------|
|-----------------------------------------------------|
|---3--3--3--3--3--3--3--3--0--0--0--0--0--0--0--0----|

Chorus

Bridge (trem pick whole thing)

 Matt
|--------------------------------------------------------|
|--------------------------------------------------------|
|--------------------------------------------------------|
|--------------------------------------------------------|
|-------4----5------------------------5---4---4---5---7--|
|-7------------------6------7-----5----------------------|
|--------------------------------------------------------|
|
|Corey
|--------------------------------------------------------|
|--------------------------------------------------------|
|--------------------------------------------------------|
|--------------------------------------------------------|
|--------------------------------------------------------|
|--------------------------------------------------------|
|-7-----------8------------7----------10-----------------|

Solo
 Matt
|-------------------------------------------------|
|---12--12b---12brhr12---10-12--------------------|
|-11--11------------------------11--12-9--11------|
|--------------------------------------------12\--|
|-------------------------------------------------|
|-------------------------------------------------|
|-------------------------------------------------|

|--------------------------------------------------|
|--------------------------------------------------|
|--------------------------------------------------|
|--------9----------11p9p7-------------------------|
|-7-9-10---10-9-7-9-------10p9p7-------------------|
|-------------------------------10p9p7h10p9p7------|
|----------------------------------------------10--|

|----------------|
|----------------|
|-11-11-11-12-9--|
|----------------|
|--9--9--9-10-7--|
|----------------|
|----------------|

|-------------------------------------------------|
|-------------------------------------------------|
|-------------------------------------------------|
|-------------------------------------------------|
|-------------------------------------------------|
|------------------------10h12h14p10h12h14p12h14--|
|-10h12h14p10h12h14p12h14-------------------------|

|-------------------------------------------------|
|-------------------------------------------------|
|-------------------------------------------------|
|------------------------11h12h14p11h12h14p12h14--|
|-10h12h14p10h12h14p12h14-------------------------|
|-------------------------------------------------|
|-------------------------------------------------|

|-----------------------------------10h12h14p10h14p12p10-|
|------------------10h12h14p10h12h14---------------------|
|-11h12h14p11h12h14--------------------------------------|
|--------------------------------------------------------|
|--------------------------------------------------------|
|--------------------------------------------------------|
|--------------------------------------------------------|

|---------|
|-14~~~~--|
|---------|
|---------|
|---------|
|---------|
|---------|

|------------12h15p12-----------------------------|
|----------13--------13---------------------------|
|--------12------------12------12-12-12-12-11-11--|
|------14----------------14-----------------------|
|-12h15--------------------15--10-10-10-10--9--9--|
|-------------------------------------------------|
|-------------------------------------------------|

|------------15h19p15-------------15-15-15-15-14-14--|
|----------17--------17------------------------------|
|--------16------------16---------12-12-12-12-11-11--|
|------17----------------17--------------------------|
|-15h19--------------------19------------------------|
|-----------------------------17---------------------|
|----------------------------------------------------|

Outro solo (played over the top of the chorus)
Corey
|---------------------------------------------|
|---------------------------------10----------|
|-11---11-12-11---9-11-11---11-12----12-11-12-|
|----9----------9---------9-------------------|
|---------------------------------------------|
|---------------------------------------------|
|---------------------------------------------|

|--------------------------------------------|
|--------------------------------------------|
|-11---11-12-11------9-11---11-12-12-9----9--|
|----9----------9-12------9------------12----|
|--------------------------------------------|
|--------------------------------------------|
|--------------------------------------------|2x

Slower part
|-14------14--15--14------12--14--14-----14--15--|
|-----12--------------15--------------12---------|
|-11------11--12--11-------9--11--11-----11--12--|
|------9--------------12--------------9----------|
|------------------------------------------------|
|------------------------------------------------|
|------------------------------------------------|

|-17--15--14--15--14------14--15--14------12--14-|
|---------------------12--------------15---------|
|-14--12--11--12--11------11--12--11-------9--11-|
|----------------------9--------------12---------|
|------------------------------------------------|
|------------------------------------------------|
|------------------------------------------------|

|-14------14--15--14--12--10--9--7~~~~~~~--------|
|-----12-----------------------------------------|
|-11------11--12--11---9---7--6--4~~~~~~~--------|
|------9-----------------------------------------|
|------------------------------------------------|
|------------------------------------------------|
|------------------------------------------------|

_________________________________________________________________________
7. BECOMING THE DRAGON 4:43 - Composed by Matt Heafy
_________________________________________________________________________

Guitar I
E|----------------|----------------|----------------|----------------|
B|----------------|----------------|----------------|----------------|
G|----------------|----------------|----------------|----------------|
D|9---------------|8---------------|9---------------|8---------------|
A|7---------------|6---------------|7---------------|6---------------|
E|----------------|----------------|----------------|----------------|
B|----------------|----------------|----------------|----------------|
pm

  Guitar II
E|------------------------|--------------------|
B|------------------------|--------------------|
G|------------------------|--------------------|
D|------------------------|------------5---4---|
A|7-----8-------7---6-----|------------3---2---|
E|--0-0---0-0-0---0---0-0-|0-0-0-0-0-0---------|
B|------------------------|--------------------|
pm  . .   . . .   .   . .  . . . . . .

                            |------------------------|----------------------|
                            |------------------------|----------------------|
                            |------------------------|----------------------|
                            |------------------------|------------11---12---|
                            |7-----8-------7---6-----|-------------9---10---|
                            |--0-0---0-0-0---0---0-0-|0-0-0-0-0-0-----------|
                            |------------------------|----------------------|
                               . .   . . .   .   . .  . . . . . .


===============================================================================
-Intro Solo- (0:07 - 0:20)


  Guitars I + II                                                        __
E|------------------------|---------------------- |                          \
B|------------------------|--------------------|  |
G|------------------------|--------------------|  |
D|------------------------|------------5---4---|  |
A|7-----8-------7---6-----|------------3---2---|  |
E|--0-0---0-0-0---0---0-0-|0-0-0-0-0-0---------|  |
B|------------------------|--------------------|  |
pm  . .   . . .   .   . .  . . . . . .                                   x2
                                                                          |
                       |------------------------|----------------------|  |
                       |------------------------|----------------------|  |
                       |------------------------|----------------------|  |
                       |------------------------|------------11---12---|  |
                       |7-----8-------7---6-----|-------------9---10---|  |
                       |--0-0---0-0-0---0---0-0-|0-0-0-0-0-0-----------|  |
                       |------------------------|----------------------|  |
                          . .   . . .   .   . .  . . . . . .            __/

  Guitar III
E|----------------------------|-----------------------------|
B|----------------------------|--------10-------------------|
G|--------12-11-9~------------|-----------12-11~------------|
D|------9---------------------|------9----------------------|
A|---10-----------------------|---10------------------------|
E|12--------------------------|12---------------------------|
pm .  . .                       .  . .

E|-----------------------------------|-------------------------------|
B|--------12-------------------------|-------------------------------|
G|-----------14-12-14-12-11-12-11----|11-----------------------------|
D|------9-------------------------14-|---14-12-14-12----14~----------|
A|---10------------------------------|---------------14--------------|
E|12---------------------------------|-------------------------------|
pm .  . .

   T        T        T        T        T        T        T        T
E|15p12h14-15p12h14------------------------------------------------------|
B|------------------15p12h13-15p12h13------------------------------------|
G|------------------------------------16p12h14-16p12h14------------------|
D|------------------------------------------------------16p12h14-16p12h14|
A|-----------------------------------------------------------------------|
E|-----------------------------------------------------------------------|

   T        T        T        T
E|-------------------------------------------------|
B|-------------------------------------------------|
G|-------------------------------------------------|
D|-------------------------------------------------|
A|15p12h14-15p12h14--------------------------------|
E|------------------15p12h14-15p12h14-12~----------|

E|-----------------------------------------------------------------------|
B|-----------------------------------------------------------------------|
G|-----------------------------------------------------------------------|
D|---------------------------------------------------------14-16-14-16-17|
A|---------12-------------------14-15-17-14-15-17-17-15-14---------------|
E|12-14-15----15-14-12-12-14-15------------------------------------------|

E|-------------------------------------------------|
B|-------------------------------------------------|
G|------------------------------------16~/\/\/\/\/\| <--whammy bar vibrato
D|------------------16-17-14-16-17-14--------------|
A|15-19-17-15-19-17--------------------------------|
E|-------------------------------------------------|


===============================================================================
-Verse- (0:20 - 0:33)


  Guitars I + II                                                        __
E|------------------------|---------------------- |                          \
B|------------------------|--------------------|  |
G|------------------------|--------------------|  |
D|------------------------|------------5---4---|  |
A|7-----8-------7---6-----|------------3---2---|  |
E|--0-0---0-0-0---0---0-0-|0-0-0-0-0-0---------|  |
B|------------------------|--------------------|  |
pm  . .   . . .   .   . .  . . . . . .                                   x2
                                                                          |
                       |------------------------|----------------------|  |
                       |------------------------|----------------------|  |
                       |------------------------|----------------------|  |
                       |------------------------|------------11---12---|  |
                       |7-----8-------7---6-----|-------------9---10---|  |
                       |--0-0---0-0-0---0---0-0-|0-0-0-0-0-0-----------|  |
                       |------------------------|----------------------|  |
                          . .   . . .   .   . .  . . . . . .            __/

===============================================================================
-Chorus- (0:34 - 0:50)


  Guitars I + II
E|------------------------|------------------------|
B|------------------------|------------------------|
G|------------------------|------------------------|
D|------------------------|------------------------|
A|------9--9--------7--7--|------5--5--------4--4--|
E|7-7-7-7--7--5-5-5-5--5--|3-3-3-3--3--2-2-2-2--2--|
B|------------------------|------------------------|
pm. . .       . . .        . . .       . . .

                            then                                          __
                                                                            \
E|------------------|----------------|------------------|                   |
B|------------------|----------------|------------------|                   |
G|------------------|----------------|------------------|                   |
D|------------------|----------------|------------------|                   |
A|------2-------5---|4---------------|------2-------5-\\|                   |
E|0-0-0-0-------3---|2---------------|0-0-0-0-------3-\\|                   |
B|------------------|----------------|------------------|                   |
pm. . .                               . . .                                x2
                                                                            |
                                                    |--------------------|  |
                                                    |--------------------|  |
                                                    |--------------------|  |
                                                    |--------------------|  |
                                                    |--------------------|  |
                                                    |2---------2---------|  |
                                                    |0---0-0-0-0---0-0-0-|  |
                                                         . . .     . . .  __/


===============================================================================

-Repeat Verse- (0:51 - 1:04)

-Repeat Chorus- (1:04 - 1:20)

===============================================================================
-Breakdown- (1:21 - 1:53)


  Guitars I + II
E|----------------|----------------|----------------|
B|----------------|----------------|----------------|
G|----------------|----------------|----------------|
D|----------------|----------------|----------------|
A|----------------|----------------|----------------|
E|----------------|----------------|----------------|
B|0000--0000--0000|--0000--0000--00|00--0000--0000--|
pm....  ....  ....   ....  ....  .. ..  ....  ....

                             then

  Guitars I + II
E|----------------|----------------|
B|----------------|----------------|
G|----------------|------------4422|
D|----------------|------222111----|
A|----------------|000333----------|
E|---------0002233|----------------|
B|000111444-------|----------------|

                             then

  Guitars I + II
E|----------------|----------------|----------------|
B|----------------|----------------|----------------|
G|----------------|----------------|----------------|
D|----------------|----------------|----------------|
A|----------------|----------------|----------------|
E|----------------|----------------|----------------|
B|0000--0000--0000|--0000--0000--00|00--0000--0000--|
pm....  ....  ....   ....  ....  .. ..  ....  ....

                             then

  Guitar I                                 Guitar II
E|----------------|----------------|     E|----------------|----------------|
B|----------------|----------------|     B|----------------|----------------|
G|----------------|------------4422|     G|----------------|------------4455|
D|----------------|------222111----|     D|----------------|------222111----|
A|----------------|000333----------|     A|----------------|000333----------|
E|---------0002233|----------------|     E|---------0002233|----------------|
B|000111444-------|----------------|     B|000111444-------|----------------|

                             then

  Guitars I + II
E|-------------------------------|---------------------------------|
B|-------------------------------|---------------------------------|
G|-------------------------------|---------------------------------|
D|-------------------------------|---------------------------------|
A|-------------------------------|---------------------------------|
E|-------------------------------|---------------------------------|
B|7-0-0-8-0-0-7-0-0-8-0-0-7-0-8-0|7-0-0-8-0-0-7-0-0-8-0-0-10-0-12-0|
pm. . . . . . . . . . . . . . . . . . . . . . . . . . . .  . .  . .

                             then

  Guitars I + II
E|----------------|----------------|
B|----------------|----------------|
G|----------------|------------4422|
D|----------------|------222111----|
A|----------------|000333----------|
E|---------0002233|----------------|
B|000111444-------|----------------|

                             then

  Guitars I + II
E|----------------|----------------|----------------|
B|----------------|----------------|----------------|
G|----------------|----------------|----------------|
D|----------------|----------------|----------------|
A|----------------|----------------|----------------|
E|----------------|----------------|----------------|
B|0000--0000--0000|--0000--0000--00|00--0000--0000--|
pm....  ....  ....   ....  ....  .. ..  ....  ....

                             then

  Guitar I                                 Guitar II
E|----------------|----------------|     E|----------------|----------------|
B|----------------|----------------|     B|----------------|----------------|
G|----------------|------------4422|     G|----------------|------------4455|
D|----------------|------222111----|     D|----------------|------222111----|
A|----------------|000333----------|     A|----------------|000333----------|
E|---------0002233|----------------|     E|---------0002233|----------------|
B|000111444-------|----------------|     B|000111444-------|----------------|


===============================================================================
Fill Thingy (1:53 - 2:26)

                                                                        __
  Guitars I + II                                                          \
E|-------------------------------|---------------------------------|      |
B|-------------------------------|---------------------------------|      |
G|-------------------------------|---------------------------------|      |
D|-------------------------------|---------------------------------|      |
A|-------------------------------|---------------------------------|      |
E|-------------------------------|---------------------------------|      |
B|7-0-0-8-0-0-7-0-0-8-0-0-7-0-8-0|7-0-0-8-0-0-7-0-0-8-0-0-10-0-12-0|      |
pm. . . . . . . . . . . . . . . . . . . . . . . . . . . .  . .  . .       |
                                                                         x2
E|-------------------------------|-------------------------------|        |
B|-------------------------------|-------------------------------|        |
G|-------------------------------|-------------------------------|        |
D|-------------------------------|-------------------------------|        |
A|-------------------------------|-------------------------------|        |
E|-------------------------------|-------------------------------|        |
B|7-0-0-8-0-0-7-0-0-8-0-0-7-0-8-0|7-0-0-8-0-0-7-0-0-8-0-0-2-0-3-0|        |
pm. . . . . . . . . . . . . . . . . . . . . . . . . . . . . . . .       __/

                             then
                                                                        __
  Guitars I + II                                                          \
E|-------------------------------|---------------------------------|      |
B|-------------------------------|---------------------------------|      |
G|-------------------------------|---------------------------------|      |
D|-------------------------------|---------------------------------|      |
A|-------------------------------|---------------------------------|      |
E|-------------------------------|---------------------------------|      |
B|7-0-0-8-0-0-7-0-0-8-0-0-7-0-8-0|7-0-0-8-0-0-7-0-0-8-0-0-10-0-12-0|      |
                                                                          |
                                                                         x2
E|-------------------------------|-------------------------------|        |
B|-------------------------------|-------------------------------|        |
G|-------------------------------|-------------------------------|        |
D|-------------------------------|-------------------------------|        |
A|-------------------------------|-------------------------------|        |
E|-------------------------------|-------------------------------|        |
B|7-0-0-8-0-0-7-0-0-8-0-0-7-0-8-0|7-0-0-8-0-0-7-0-0-8-0-0-2-0-3-0|        |
                                                                        __/

                             then

  Guitar I
E|-------------------------------|---------------------------------|
B|-------------------------------|---------------------------------|
G|-------------------------------|---------------------------------|
D|-------------------------------|---------------------------------|
A|-------------------------------|---------------------------------|
E|-------------------------------|---------------------------------|
B|7-0-0-8-0-0-7-0-0-8-0-0-7-0-8-0|7-0-0-8-0-0-7-0-0-8-0-0-10-0-12-0|
pm. . . . . . . . . . . . . . . . . . . . . . . . . . . .  . .  . .

  Guitar II
E|-------------------------------|-------------------------------|
B|-------------------------------|-------------------------------|
G|-------------------------------|-------------------------------|
D|-------------------------------|-------------------------------|
A|-------------------------------|-------------------------------|
E|-------------------------------|-------------------------------|
B|0-0-0-0-0-0-0-0-0-0-0-0-0-0-0-0|0-0-0-0-0-0-0-0-0-0-0-0-0-0-0-0|
pm. . . . . . . . . . . . . . . . . . . . . . . . . . . . . . . .

                             then

  Guitar I
E|----------------|----------------|
B|----------------|----------------|
G|----------------|----------------|
D|----------------|8tr9------------|
A|5--4--2-7--5--4-|----------------|                tr = trill
E|----------------|----------------|
B|----------------|----------------|         (hammer-on and pull-off
                                                   really fast)

  Guitar II
E|----------------|----------------|
B|----------------|----------------|
G|----------------|----------------|
D|----------------|4tr5------------|
A|--------4--2--1-|----------------|
E|7--6--3---------|----------------|
B|----------------|----------------|


===============================================================================
-Middle Solo- (2:27 - 2:41)


  Guitars I + II                                                        __
E|------------------------|---------------------- |                          \
B|------------------------|--------------------|  |
G|------------------------|--------------------|  |
D|------------------------|------------5---4---|  |
A|7-----8-------7---6-----|------------3---2---|  |
E|--0-0---0-0-0---0---0-0-|0-0-0-0-0-0---------|  |
B|------------------------|--------------------|  |
pm  . .   . . .   .   . .  . . . . . .                                   x2
                                                                          |
                       |------------------------|----------------------|  |
                       |------------------------|----------------------|  |
                       |------------------------|----------------------|  |
                       |------------------------|------------11---12---|  |
                       |7-----8-------7---6-----|-------------9---10---|  |
                       |--0-0---0-0-0---0---0-0-|0-0-0-0-0-0-----------|  |
                       |------------------------|----------------------|  |
                          . .   . . .   .   . .  . . . . . .            __/

  Guitar III
E|-----------------------------------------------------------------------|
B|-----------------------------------------------------------------------|
G|-----------------------------------------------------------------------|
D|---------------------------------------------12-12----------12-12-14-16|
A|---------12----------------12-14-15-12-14-15-------14-12-14------------|
E|12-14-15----15-14-12-14-15---------------------------------------------|

E|-------------------------------------------------|
B|-------------------------------------------------|
G|---------------------------12-14-16-16~----------|
D|16-12-14-16-17-16-12-14-16-----------------------|
A|-------------------------------------------------|
E|-------------------------------------------------|

E|--------------------------------------------------------------------|
B|---------------------------14-14-------------------------------15---|
G|------------------------14-------11-12-14-16-14-14-11-12-14-16----16|
D|18---17---16---16-17-19---------------------------------------------|
A|--------------------------------------------------------------------|
E|--------------------------------------------------------------------|

E|------------------15-12-14-14-15-17-19~----------|
B|------15-15-13-12--------------------------------|
G|16-17--------------------------------------------|
D|-------------------------------------------------|
A|-------------------------------------------------|
E|-------------------------------------------------|

E|19-19-19-19-19-19-15-----------------------------|
B|---------------------17--------------------------|
G|------------------------16-----------------------|
D|---------------------------14-13-----------------|
A|---------------------------------14--------------|
E|------------------------------------12~----------|

                         then

  Guitar III
E|----------------------------|
B|----------------------------|
G|-9----8---------------------|
D|----------10----9-----------|
A|----------------------------|
E|----------------------------|

E|-----------------------------------------------------------------------|
B|-----------------------------------------------------------------------|
G|-----------------------------------------------------------------------|
D|10-13-14-14-13-10-10-13-14-14-13-10-10-13-14-14-13-10-10-13-14-14-13-10|
A|-----------------------------------------------------------------------|
E|-----------------------------------------------------------------------|

E|---------------------------|-----------------|
B|---------------------------|-----------------|
G|12---11---9---8------------|-----------------|
D|------------------10---9---|9~---------------|
A|---------------------------|-----------------|
E|---------------------------|-----------------|


  Guitar IV
E|----------------------------|
B|----------------------------|
G|12---11---------------------|
D|----------14---13-----------|
A|----------------------------|
E|----------------------------|

E|---------------------------------------------------------------|
B|---------------------------------------------------------------|
G|9-11-12-12-11-9-9-11-12-12-11-9-9-11-12-12-11-9-9-11-12-12-11-9|
D|---------------------------------------------------------------|
A|---------------------------------------------------------------|
E|---------------------------------------------------------------|

E|------------------------------|-----------------|
B|12----------------------------|-----------------|
G|-----14---12---11-------------|-----------------|
D|--------------------14---13---|13~--------------|
A|------------------------------|-----------------|
E|------------------------------|-----------------|


===============================================================================

-Repeat Verse- (2:41 - 2:54)

===============================================================================
-Slightly Altered Chorus- (2:54 - 3:14)


Guitars I + II
E|------------------------|------------------------|
B|------------------------|------------------------|
G|------------------------|------------------------|
D|------------------------|------------------------|  x2
A|------9--9--------7--7--|------5--5--------4--4--|
E|7-7-7-7--7--5-5-5-5--5--|3-3-3-3--3--2-2-2-2--2--|
B|------------------------|------------------------|
pm. . .       . . .        . . .       . . .

                            then                                          __
                                                                            \
E|------------------|----------------|------------------|                   |
B|------------------|----------------|------------------|                   |
G|------------------|----------------|------------------|                   |
D|------------------|----------------|------------------|                   |
A|------2-------5---|4---------------|------2-------5-\\|                   |
E|0-0-0-0-------3---|2---------------|0-0-0-0-------3-\\|                   |
B|------------------|----------------|------------------|                   |
pm. . .                               . . .                                x2
                                                                            |
                                                    |--------------------|  |
                                                    |--------------------|  |
                                                    |--------------------|  |
                                                    |--------------------|  |
                                                    |--------------------|  |
                                                    |2---------2---------|  |
                                                    |0---0-0-0-0---0-0-0-|  |
                                                         . . .     . . .  __/


===============================================================================
-Outro Buildup- (3:14 - 3:29)


  Guitar I
E|----------------|----------------|----------------|----------------|
B|----------------|----------------|----------------|----------------|
G|----------------|----------------|----------------|----------------|
D|----------------|----------------|----------------|----------------|
A|2---------------|----------------|3---------------|----------------|
E|2---------------|----------------|3---------------|----------------|
B|0---------------|----------------|1---------------|----------------|

E|----------------|----------------|----------------|----------------|
B|----------------|----------------|----------------|----------------|
G|----------------|----------------|----------------|----------------|
D|----------------|----------------|----------------|----------------|
A|----------------|----------------|----------------|----------------|
E|2---------------|----------------|----------------|----------------|
B|0-0-0-0-0-0-0-0-|0-0-0-0-0-0-0-0-|1-1-1-1-1-1-1-1-|1-1-1-1-1-1-1-1-|
pm  . . . . . . .  . . . . . . . .  . . . . . . . .  . . . . . . . .

  Guitar II
E|----------------|----------------|----------------|----------------|
B|----------------|----------------|----------------|----------------|
G|----------------|----------------|----------------|----------------|
D|----------------|----------------|----------------|----------------|  x2
A|----------------|----------------|----------------|----------------|
E|2-------2-------|--3-3-3---3-3-3-|3-------3-------|--3-3-3---3-3-3-|
B|0-0-0-0-0---0-0-|0-5-5-5-5-4-4-4-|1-1-1-1-1---1-1-|1-5-5-5-5-4-4-4-|
pm  . . .     . .  .       .          . . .     . .  .       .


===============================================================================
-Outro Solo 1- (3:29 - 3:43)


  Guitars I + II
E|----------------|----------------|----------------|----------------|
B|----------------|----------------|----------------|----------------|
G|----------------|----------------|----------------|----------------|
D|----------------|----------------|----------------|----------------|  x2
A|----------------|----------------|----------------|----------------|
E|2-------2-------|--3-3-3---3-3-3-|3-------3-------|--3-3-3---3-3-3-|
B|0-0-0-0-0---0-0-|0-5-5-5-5-4-4-4-|1-1-1-1-1---1-1-|1-5-5-5-5-4-4-4-|
pm  . . .     . .  .       .          . . .     . .  .       .


  Guitar III                                                       __
E|-------------------------------------------------------------------- |             \
B|-----------------------------------------------------|            -- |
G|-----------------------------------------------------|            -- |
D|-----------------------------------7--------------7-9|            -- |
A|----7---7-------6-6-7-9-10-10-9-10---10-10-7-9-10----|            -- |
E|7-8---8---8-7-8--------------------------------------|            -- |
                                                                     |
E|------------------------------------------------------------|      |
B|--------------------------------------------8-----------8-10|      |
G|-----------8---------------8-9-11-8-9-11-11---11-8-9-11-----|      |
D|10-7-10-10---10-10-7-10-10----------------------------------|      |
A|------------------------------------------------------------|      |
E|------------------------------------------------------------|      |
                                                                    x2
E|---------------------------8-11-11-12-11-8-11-8-7-8-----------|    |
B|12-8-10---13-12-12-10-8-12--------------------------10-12-8-10|    |
G|--------9-----------------------------------------------------|    |
D|--------------------------------------------------------------|    |
A|--------------------------------------------------------------|    |
E|--------------------------------------------------------------|    |
                                                                     |
E|--------------------------------------------------|                |
B|10----8-8-----------------------------------------|                |
G|---11-----9-11-9-8-------8------------------------|                |
D|-------------------10-10---9-10-7-9-7-7---6*~-----|                |
A|----------------------------------------9---------|                |
E|--------------------------------------------------|                |
                                                                   __/


===============================================================================
-Outro Solo 2- (3:44 - end)


  Guitars I + II
E|----------------|----------------|----------------|----------------|
B|----------------|----------------|----------------|----------------|
G|----------------|----------------|----------------|----------------|
D|----------------|----------------|----------------|----------------|  x8
A|----------------|----------------|----------------|----------------|
E|2-------2-------|--3-3-3---3-3-3-|3-------3-------|--3-3-3---3-3-3-|
B|0-0-0-0-0---0-0-|0-5-5-5-5-4-4-4-|1-1-1-1-1---1-1-|1-5-5-5-5-4-4-4-|
pm  . . .     . .  .       .          . . .     . .  .       .


  Guitar III (change to neck pickup and kick on the wah now)

  T     T     T     T     T     T     T     T
E|-----------------------------------------------|
B|-----------------------------------------------|
G|-----------------------------------------------|
D|7p4h5-7p4h5-7p4h5-7p4h5-7p4h5-7p4h5-7p4h5-7p4h5|
A|-----------------------------------------------|
E|-----------------------------------------------|

  T     T     T     T     T     T     T     T
E|-----------------------------------------------|
B|-----------------------------------------------|
G|-----------------------------------------------|
D|7p4h5-7p4h5-7p4h5-7p4h5-9p4h5-7p4h5-9p4h5-7p4h5|
A|-----------------------------------------------|
E|-----------------------------------------------|

   T     T     T     T     T     T     T     T
E|------------------------------------------------|
B|------------------------------------------------|
G|------------------------------------------------|
D|10p5h7-9p5h7-9p5h7-9p5h7-9p5h7-9p5h7-9p5h7-9p5h7|
A|------------------------------------------------|
E|------------------------------------------------|

   T      T      T     T      T     T      T     T
E|----------------------------------------------------|
B|----------------------------------------------------|
G|----------------------------------------------------|
D|10p5h7-13p5h7-10p5h7-9p5h7-10p5h7-9p5h7-10p5h7-9p5h7|
A|----------------------------------------------------|
E|----------------------------------------------------|

  T     T     T     T     T     T     T     T
E|-----------------------------------------------|
B|-----------------------------------------------|
G|-----------------------------------------------|
D|7p4h5-7p4h5-7p4h5-7p4h5-5p4h5-7p4h5-9p4h5-7p4h5|
A|-----------------------------------------------|
E|-----------------------------------------------|

  T     T     T     T     T      T
E|-----------------------------------------|
B|-----------------------------------------|
G|-----------------------------------------|
D|9p4h5-7p4h5-9p4h5-7p4h5-9p4h5-10p4h5-7\\\|
A|-----------------------------------------|
E|-----------------------------------------|


E|------------------|-----------------|-----------------|------------------|
B|------------------|-----------------|-----------------|------------------|
G|------------------|-----------------|-----------------|------------------|
D|----9-------------|-----------------|7-------9-----10-|------7-9b10r~----|
A|2/7---7-9-b10-r-7-|9-------------7h9|---9--7----7-----|7--9--------------|
E|------------------|-----------------|-----------------|------------------|

E|----------------|----------------|-------------------|
B|----------------|----------------|-------------------|
G|----------------|----------------|-------------------|
D|----7-----------|----------------|-------------------|
A|4/9---9-7---9\7-|7\6-6/7-/9------|9-----6h7h9-----6h7|
E|----------------|----------------|-------------------|

                                             |-----------------------------|
                                             |-----------------------------|
                                             |-----------------------------|
                                             |-----------------------------|
                                             |h9p6h7h9p6h7h9p6h7h9p6h7h9-6/|
                                             |-----------------------------|

E|-------------------|-------------------|----------------|----------------|
B|-------------------|-------------------|----------------|----------------|
G|-------------------|-------------------|----------------|----------------|
D|-------------------|-------------------|----9-----------|----------------|
A|-10--9-7-7h9p7----9|-10--9-7-7h9p7-----|2/7---7-7\6-6-6-|6-7-7-9---------|
E|-------------------|-------------------|----------------|----------------|

E|-----------------|------------------|-----------------|------------------|
B|-----------------|------------------|-----------------|------------------|
G|-----------------|------------------|-----------------|------------------|
D|----9---10-------|------------------|----9---10---9---|------------------|
A|2/7---7----7-7-6-|6-7-7-10-10-------|2/7---7----7---7-|7-6-6b7rbrbrbr~---|
E|-----------------|------------------|-----------------|------------------|
                                       |----starts fading out now----------|

E|-----------------|------------------|----------------|------------------|
B|-----------------|------------------|----------------|------------------|
G|-----------------|------------------|----------------|------------------|
D|----9---10---9---|------------------|----------------|------------------|
A|2/7---7----7---9-|9-9b10rbrbrbr~----|2--3--2--2-0--2-|-3--2--3p2p0---2--|
E|-----------------|------------------|----------------|------------------|

E|--------------------|----------------|--------------------|---------------|
B|--------------------|----------------|--------------------|---------------|
G|--------------------|----------------|--------------------|---------------|
D|--------------------|----------------|------------------slowly-release----|
A|3--3h5p3-5-3-2/7----|-------9~-----7-|-9-b9.5-r-7-9b10---while picking----|
E|--------------------|----------------|--------------------string rapidly--|
____________________________________________________________________________________
8. TO THE RATS 3:42 - Composed by Matt Heafy and Corey Beaulieu
____________________________________________________________________________________

Sorry guys borrowed this tab from AndrewZara cause this is the way that i play it

||----------------------------------|-----------------------------||
||o---------------------------------|----------------------------o||
||----------------------------------|-----------------------------||
||--------------3-------------------|-------------------------5---||
||o-5p2-2-2-2-2---2-2-2-2-2-2-2-2-2-|-5p2-2-2-2-2-3p2-2-2-2-2-3--o||
||----------------------------------|-----------------------------||


    B5                                                        C5
    Gtrs I, II
        PM----|   PM--------------|
    S S S S S S S S S S S S S S S S   S S S S S S S S S S S S Q
||----------------------------------|-----------------------------||
||o---------------------------------|----------------------------o||
||----------------------------------|-----------------------------||
||--------------3-------------------|-------------------------5---||
||o-5p2-2-2-2-2---2-2-2-2-2-2-2-2-2-|-5p2-2-2-2-2-3p2-2-2-2-2-3--o||
||----------------------------------|-----------------------------||


  B5N.B5C5    B5                  C5   B5N.B5D5    B5                  Eb5
                         2/4          4/4                     2/4
    PM|         PM--------------|        PM|         PM--------------|
  E E E E +E  E S S S S   S S S S Q    E E E E +E  E S S S S   S S S S Q
|-----------------------|------------|-----------------------|------------|
|-----------------------|------------|-----------------------|------------|
|-----------------------|------------|-----------------------|------------|
|-4---4-5-(5)-4---------|---------5--|-4---4-7-(7)-4---------|---------8--|
|-2-0-2-3-(3)-2-2-2-2-2-|-2-2-2-2-3--|-2-0-2-5-(5)-2-2-2-2-2-|-2-2-2-2-6--|
|-----------------------|------------|-----------------------|------------|


  B5N.B5C5    B5                  C5   B5N.B5Eb5   B5                  D5
 4/4                     2/4          4/4                     2/4
    PM|         PM--------------|        PM|         PM--------------|
  E E E E +E  E S S S S   S S S S Q    E E E E +E  E S S S S   S S S S Q
|-----------------------|------------|-----------------------|--------------|
|-----------------------|------------|-----------------------|--------------|
|-----------------------|------------|-----------------------|--------------|
|-4---4-5-(5)-4---------|---------5--|-4---4-8-(8)-4---------|---------7----|
|-2-0-2-3-(3)-2-2-2-2-2-|-2-2-2-2-3--|-2-0-2-6-(6)-2-2-2-2-2-|-2-2-2-2-5----|
|-----------------------|------------|-----------------------|--------------|


   Verse 1
    B5                                                            C5
        PM----|   PM----------------|
    S S S S S S S S   S S S S S S S S   S S S S S S S S   S S S S Q    4x
||------------------|-----------------|-----------------|--------------||
||o-----------------|-----------------|-----------------|-------------o||
||------------------|-----------------|-----------------|--------------||
||--------------3---|-----------------|-----------------|---------5----||
||o-5p2-2-2-2-2---2-|-2-2-2-2-2-2-2-2-|-5p2-2-2-2-2-3p2-|-2-2-2-2-3---o||
||------------------|-----------------|-----------------|--------------||


  B5N.B5C5    B5                  C5   B5N.B5D5    B5                  Eb5
 4/4                     2/4          4/4                     2/4
    PM|         PM--------------|        PM|         PM--------------|
  E E E E +E  E S S S S   S S S S Q    E E E E +E  E S S S S   S S S S Q
|-----------------------|------------|-----------------------|--------------|
|-----------------------|------------|-----------------------|--------------|
|-----------------------|------------|-----------------------|--------------|
|-4---4-5-(5)-4---------|---------5--|-4---4-7-(7)-4---------|---------8----|
|-2-0-2-3-(3)-2-2-2-2-2-|-2-2-2-2-3--|-2-0-2-5-(5)-2-2-2-2-2-|-2-2-2-2-6----|
|-----------------------|------------|-----------------------|--------------|


  B5N.B5C5    B5                  C5   B5N.B5Eb5   B5                  D5
 4/4                     2/4          4/4                     2/4
    PM|         PM--------------|        PM|         PM--------------|
  E E E E +E  E S S S S   S S S S Q    E E E E +E  E S S S S   S S S S Q
|-----------------------|------------|-----------------------|--------------|
|-----------------------|------------|-----------------------|--------------|
|-----------------------|------------|-----------------------|--------------|
|-4---4-5-(5)-4---------|---------5--|-4---4-8-(8)-4---------|---------7----|
|-2-0-2-3-(3)-2-2-2-2-2-|-2-2-2-2-3--|-2-0-2-6-(6)-2-2-2-2-2-|-2-2-2-2-5----|
|-----------------------|------------|-----------------------|--------------|


  B5A5B5C5/G  B5/F#       C5/G B5A5B5D5/A  B5/F#       Eb5/Bb
 4/4                 2/4      4/4                 2/4
    PM|         PM------|        PM|         PM------|
  E E E E +E  E E E   E E Q    E E E E +E  E E E   E E Q
|-------------------|--------|-------------------|--------|
|-------------------|--------|-------------------|--------|
|-------------------|--------|-------------------|--------|
|-4---4-5-(5)-4-----|-----5--|-4---4-7-(7)-4-----|-----8--|
|-2-0-2-3-(3)-2-2-2-|-2-2-3--|-2-0-2-5-(5)-2-2-2-|-2-2-6--|
|-2-0-2-3-(3)-2-2-2-|-2-2-3--|-2-0-2-5-(5)-2-2-2-|-2-2-6--|


  B5A5B5C5/G  B5/F#       C5/G B5A5B5Eb5/BbB5/F#       D5/A
 4/4                 2/4      4/4                 2/4
    PM|         PM------|        PM|         PM------|
  E E E E +E  E E E   E E Q    E E E E +E  E E E   E E Q
|-------------------|--------|-------------------|--------|
|-------------------|--------|-------------------|--------|
|-------------------|--------|-------------------|--------|
|-4---4-5-(5)-4-----|-----5--|-4---4-8-(8)-4-----|-----7--|
|-2-0-2-3-(3)-2-2-2-|-2-2-3--|-2-0-2-6-(6)-2-2-2-|-2-2-5--|
|-2-0-2-3-(3)-2-2-2-|-2-2-3--|-2-0-2-6-(6)-2-2-2-|-2-2-5--|


 Pre-Chorus 1
  Bb5
 4/4
  Gtr I
     PM      PM     PM------------|
  Q  E E +E  E Q    E E E E E E E E
|-----------------|-----------------|
|-----------------|-----------------|
|-----------------|-----------------|
|-3--3-2-(2)-2-3--|-3-3-3-3-3-3-3-3-|
|-1--1-1-(1)-1-1--|-1-1-1-1-1-1-1-1-|
|-----------------|-----------------|


   Chorus 1
    C5/G
    Gtr I
       PM      PM      PM-|   PM    PM|
    Q  E E +E  E Q     E  E E E E E E E
||------------------|-------------------|
||o-----------------|-------------------|
||------------------|-------------------|
||--5--5-3-(3)-3-5--|--5--5-5---3-5-5-5-|
||o-3--3-3-(3)-3-3--|--3--3-3-3-3-3-3-3-|
||------------------|-------------------|
|
|   Gtr II
|   W                 +W
||------------------|-------------------|
||o-----------------|-------------------|
||------------------|-------------------|
||--5---------------|-(5)---------------|
||o-3---------------|-(3)---------------|
||--3---------------|-(3)---------------|


  A5
     PM      PM      PM-|   PM      PM|
  Q  E E +E  E Q     E  E E E E  E  E E
|-----------------|---------------------|
|-----------------|---------------------|
|-2----2-(2)------|---------------------|
|-3--3-2-(2)-2-3--|--3--3-3---3p=2--2-2-|
|-0--0-0-(0)-0-0--|--0--0-0-0-0-(0)-0-0-|
|-----------------|---------------------|
|
| W                 +W
|-----------------|---------------------|
|-----------------|---------------------|
|-2---------------|-(2)-----------------|
|-2---------------|-(2)-----------------|
|-0---------------|-(0)-----------------|
|-----------------|---------------------|


                                   1.                                   2.
  D5          C5                   Bb5
        PM|               PM|         PM      PM      PM-------------|
  Q  Q  E E E E   +Q   Q  E E Q    Q  E E +E  E Q     E  E E E E E E E
|---------------|----------------|-----------------|-------------------|---||
|---------------|----------------|-----------------|-------------------|--o||
|---------------|----------------|-----------------|-------------------|---||
|-7--7--7-7-7s5-|-(5)--5--5-5-5--|-3--3-2-(2)-2-3--|--3--3-3-3-3-3-3-3-|---||
|-5--5--5-5-5s3-|-(3)--3--3-3-3--|-1--1-1-(1)-1-1--|--1--1-1-1-1-1-1-1-|--o||
|---------------|----------------|-----------------|-------------------|---||
|
|       PM|               PM|
| H     E E E E   +H      E E Q    W                 +W
|---------------|----------------|-----------------|-------------------|---||
|---------------|----------------|-----------------|-------------------|--o||
|-7---------7s5-|-(5)---------5--|-3---------------|-(3)---------------|---||
|-7-----7-7-7s5-|-(5)-----5-5-5--|-3---------------|-(3)---------------|---||
|-5-----5-5-5s3-|-(3)-----3-3-3--|-1---------------|-(1)---------------|--o||
|---------------|----------------|-----------------|-------------------|---||


   Verse 2
    B5                                                        C5
    Gtrs I, II
        PM----|   PM--------------|
    S S S S S S S S S S S S S S S S   S S S S S S S S S S S S Q     4x
||----------------------------------|-------------------------------||
||o---------------------------------|------------------------------o||
||----------------------------------|-------------------------------||
||--------------3-------------------|-------------------------5-----||
||o-5p2-2-2-2-2---2-2-2-2-2-2-2-2-2-|-5p2-2-2-2-2-3p2-2-2-2-2-3----o||
||----------------------------------|-------------------------------||


  B5N.B5C5    B5                  C5   B5N.B5D5    B5                  Eb5
                         2/4          4/4                     2/4
    PM|         PM--------------|        PM|         PM--------------|
  E E E E +E  E S S S S   S S S S Q    E E E E +E  E S S S S   S S S S Q
|-----------------------|------------|-----------------------|------------|
|-----------------------|------------|-----------------------|------------|
|-----------------------|------------|-----------------------|------------|
|-4---4-5-(5)-4---------|---------5--|-4---4-7-(7)-4---------|---------8--|
|-2-0-2-3-(3)-2-2-2-2-2-|-2-2-2-2-3--|-2-0-2-5-(5)-2-2-2-2-2-|-2-2-2-2-6--|
|-----------------------|------------|-----------------------|------------|


  B5N.B5C5    B5                  C5   B5N.B5Eb5   B5                  D5
 4/4                     2/4          4/4                     2/4
    PM|         PM--------------|        PM|         PM--------------|
  E E E E +E  E S S S S   S S S S Q    E E E E +E  E S S S S   S S S S Q
|-----------------------|------------|-----------------------|--------------|
|-----------------------|------------|-----------------------|--------------|
|-----------------------|------------|-----------------------|--------------|
|-4---4-5-(5)-4---------|---------5--|-4---4-8-(8)-4---------|---------7----|
|-2-0-2-3-(3)-2-2-2-2-2-|-2-2-2-2-3--|-2-0-2-6-(6)-2-2-2-2-2-|-2-2-2-2-5----|
|-----------------------|------------|-----------------------|--------------|


  EbA5B5C5/G  B5/F#       C5/G B5A5B5D5/A  B5/F#       Eb5/Bb
 4/4                 2/4      4/4                 2/4
    PM|         PM------|        PM|         PM------|
  E E E E +E  E E E   E E Q    E E E E +E  E E E   E E Q
|-------------------|--------|-------------------|--------|
|-------------------|--------|-------------------|--------|
|-------------------|--------|-------------------|--------|
|-4---4-5-(5)-4-----|-----5--|-4---4-7-(7)-4-----|-----8--|
|-2-0-2-3-(3)-2-2-2-|-2-2-3--|-2-0-2-5-(5)-2-2-2-|-2-2-6--|
|-2-0-2-3-(3)-2-2-2-|-2-2-3--|-2-0-2-5-(5)-2-2-2-|-2-2-6--|


  EbA5EbC5/G  B5/F#       C5/G EbA5B5D5/A  B5/F#       D5/A
 4/4                 2/4      4/4                 2/4
    PM|         PM------|        PM|         PM------|
  E E E E +E  E E E   E E Q    E E E E +E  E E E   E E Q
|-------------------|--------|-------------------|--------|
|-------------------|--------|-------------------|--------|
|-------------------|--------|-------------------|--------|
|-4---4-5-(5)-4-----|-----5--|-4---4-8-(8)-4-----|-----7--|
|-2-0-2-3-(3)-2-2-2-|-2-2-3--|-2-0-2-6-(6)-2-2-2-|-2-2-5--|
|-2-0-2-3-(3)-2-2-2-|-2-2-3--|-2-0-2-6-(6)-2-2-2-|-2-2-5--|


 Pre-Chorus 2
  Bb5
 4/4
  Gtr I
     PM      PM     PM------------|
  Q  E E +E  E Q    E E E E E E E E
|-----------------|-----------------|
|-----------------|-----------------|
|-----------------|-----------------|
|-3--3-2-(2)-2-3--|-3-3-3-3-3-3-3-3-|
|-1--1-1-(1)-1-1--|-1-1-1-1-1-1-1-1-|
|-----------------|-----------------|


   Chorus 2
    C5/G
    Gtr I
       PM      PM      PM-|   PM    PM|
    Q  E E +E  E Q     E  E E E E E E E
||------------------|-------------------|
||o-----------------|-------------------|
||------------------|-------------------|
||--5--5-3-(3)-3-5--|--5--5-5---3-5-5-5-|
||o-3--3-3-(3)-3-3--|--3--3-3-3-3-3-3-3-|
||------------------|-------------------|
|
|   Gtr II
|   W                 +W
||------------------|-------------------|
||o-----------------|-------------------|
||------------------|-------------------|
||--5---------------|-(5)---------------|
||o-3---------------|-(3)---------------|
||--3---------------|-(3)---------------|


  A5
     PM      PM      PM-|   PM      PM|
  Q  E E +E  E Q     E  E E E E  E  E E
|-----------------|----------------------|
|-----------------|----------------------|
|-2----2-(2)------|----------------------|
|-3--3-2-(2)-2-3--|--3--3-3---3p=2--2-2--|
|-0--0-0-(0)-0-0--|--0--0-0-0-0-(0)-0-0--|
|-----------------|----------------------|
|
| W                 +W
|-----------------|----------------------|
|-----------------|----------------------|
|-2---------------|-(2)------------------|
|-2---------------|-(2)------------------|
|-0---------------|-(0)------------------|
|-----------------|----------------------|


                                   1.                                   2.
  D5          C5                   Bb5
        PM|               PM|         PM      PM      PM-------------|
  Q  Q  E E E E   +Q   Q  E E Q    Q  E E +E  E Q     E  E E E E E E E
|---------------|----------------|-----------------|-------------------|---||
|---------------|----------------|-----------------|-------------------|--o||
|---------------|----------------|-----------------|-------------------|---||
|-7--7--7-7-7s5-|-(5)--5--5-5-5--|-3--3-2-(2)-2-3--|--3--3-3-3-3-3-3-3-|---||
|-5--5--5-5-5s3-|-(3)--3--3-3-3--|-1--1-1-(1)-1-1--|--1--1-1-1-1-1-1-1-|--o||
|---------------|----------------|-----------------|-------------------|---||
|
|       PM|               PM|
| H     E E E E   +H      E E Q    W                 +W
|---------------|----------------|-----------------|-------------------|---||
|---------------|----------------|-----------------|-------------------|--o||
|-7---------7s5-|-(5)---------5--|-3---------------|-(3)---------------|---||
|-7-----7-7-7s5-|-(5)-----5-5-5--|-3---------------|-(3)---------------|---||
|-5-----5-5-5s3-|-(3)-----3-3-3--|-1---------------|-(1)---------------|--o||
|---------------|----------------|-----------------|-------------------|---||


 Breakdown 1
  N.C.
  Gtr I
  PM--|   PM--|   PM--|   PM--|     PM--|   PM--|   PM--|   PM--|
  S S S S S S S S S S S S S S S S   S S S S S S S S S S S S S S S S
|---------------------------------|---------------------------------|
|---------------------------------|---------------------------------|
|---------------------------------|---------------------------------|
|---------------------------------|---------------------------------|
|---------------------------------|---------------------------------|
|-0-0-0---0-0-0---0-0-0---0-0-0---|-0-0-0---0-0-0---0-0-0---0-0-0---|


                                    Db5EbbDb5Ab5BbbGb5Abb5
  PM--|   PM--|   PM--|   PM--|              PM-------|
  S S S S S S S S S S S S S S S S   E  E  Q  E  E  E  E
|---------------------------------|----------------------|
|---------------------------------|----------------------|
|---------------------------------|-7s=8s=7--------------|
|---------------------------------|-6s=7s=6--------------|
|---------------------------------|-5s=6s=5--6--7--4--5--|
|-0-0-0---0-0-0---0-0-0---0-0-0---|----------5--6--3--4--|


  N.C.
  PM--|   PM--|   PM--|   PM--|     PM--|   PM--|   PM--|   PM--|
  S S S S S S S S S S S S S S S S   S S S S S S S S S S S S S S S S
|---------------------------------|---------------------------------|
|---------------------------------|---------------------------------|
|---------------------------------|---------------------------------|
|---------------------------------|---------------------------------|
|---------------------------------|---------------------------------|
|-0-0-0---0-0-0---0-0-0---0-0-0---|-0-0-0---0-0-0---0-0-0---0-0-0---|
|
| E   E     Q       E     E   Q     E   E     Q       E   E     Q
|---------------------------------|---------------------------------|
|---------------------------------|---------------------------------|
|---------------------------------|---------------------------------|
|---------------------------------|---------------------------------|
|-2-----------------2-------------|-2-----------------2-------------|
|-0-----------------0-------------|-0-----------------0-------------|


                                    Db5EbbDb5Ab5BbbGb5Abb5
  PM--|   PM--|   PM--|   PM--|              PM-------|
  S S S S S S S S S S S S S S S S   E  E  Q  E  E  E  E
|---------------------------------|----------------------|
|---------------------------------|----------------------|
|---------------------------------|-7s=8s=7--------------|
|---------------------------------|-6s=7s=6--------------|
|---------------------------------|-5s=6s=5--6--7--4--5--|
|-0-0-0---0-0-0---0-0-0---0-0-0---|----------5--6--3--4--|
|
|                                            PM-------|
| E   E     Q       E   E     Q     E  E  Q  E  E  E  E
|---------------------------------|----------------------|
|---------------------------------|----------------------|
|---------------------------------|-7s=8s=7--------------|
|---------------------------------|-6s=7s=6--------------|
|-2-----------------2-------------|-5s=6s=5--6--7--5--6--|
|-0-----------------0-------------|----------5--6--4--5--|


    N.C.
    Gtrs I, II
    PM--|   PM--|   PM--|   PM--|     PM--|   PM--|   PM--|   PM--|
    S S S S S S S S S S S S S S S S   S S S S S S S S S S S S S S S S
||----------------------------------|---------------------------------|
||o---------------------------------|---------------------------------|
||----------------------------------|---------------------------------|
||----------------------------------|---------------------------------|
||o---------------------------------|---------------------------------|
||--0-0-0---0-0-0---0-0-0---0-0-0---|-0-0-0---0-0-0---0-0-0---0-0-0---|


                                    Db5EbbDb5Ab5BbbGb5Abb5
  PM--|   PM--|   PM--|   PM--|              PM-------|
  S S S S S S S S S S S S S S S S   E  E  Q  E  E  E  E
|---------------------------------|-------------------------||
|---------------------------------|------------------------o||
|---------------------------------|-7s=8s=7-----------------||
|---------------------------------|-6s=7s=6-----------------||
|---------------------------------|-5s=6s=5--6--7--4--5----o||
|-0-0-0---0-0-0---0-0-0---0-0-0---|----------5--6--3--4-----||


 Guitar Solo 1 (Beaulieu)
  N.C.    F5     N.C.    F5     N.C.   F5     N.C.   F5
  Gtr I
   T         T         T         T
   |-----------9:8------------|  |----------9:8----------|
   S S  S    S S    S  S   S  S  S S S    S S   S  S   S S
|-13p7h10h==13p7h==10h13p==7h10----------------------------|
|-------------------------------12p6h9h==12p6h==9h12p==6h9-|
|----------------------------------------------------------|
|----------------------------------------------------------|
|----------------------------------------------------------|
|----------------------------------------------------------|
|
| Gtr II
|  T         T         T         T
|  |-----------9:8------------|  |----------9:8----------|
|  S S  S    S S    S  S   S  S  S S S    S S   S  S   S S
|-10-4h=7h==10p4h===7h10p==4h=7----------------------------|
|--------------------------------9p3h6h===9p3h==6h=9p==3h6-|
|----------------------------------------------------------|
|----------------------------------------------------------|
|----------------------------------------------------------|
|----------------------------------------------------------|
|
| Gtr III
|  PM-------------------------------------------------------
|  E      E      E       E       E     E      E      E
|----------------------------------------------------------|
|----------------------------------------------------------|
|----------------------------------------------------------|
|----------------------------------------------------------|
|---------3--------------3-------------3-------------3-----|
|--0------1------0-------1-------0-----1------0------1-----|


  N.C.   F5     N.C.   F5    N.C.   F5     G5
                              T
   |----------9:8----------|  |---------9:8---------|
   S S S    S S   S  S   S S  S S S    S S   S  S S S
|-------------------------------------------------------|
|----------------------------12p6h9h==12p6h==9h12p6h9---|
|-10p4h7h==10p4h==7h10p==4h7----------------------------|
|-------------------------------------------------------|
|-------------------------------------------------------|
|-------------------------------------------------------|
|
|                             T
|  |----------9:8----------|  |---------9:8---------|
|  S S S    S S   S  S   S S  S S S    S S   S  S S S
|-------------------------------------------------------|
|-----------------------------9p3h6h===9p3h==6h=9p3h6---|
|--7p1h4h===7p1h==4h=7p==1h4----------------------------|
|-------------------------------------------------------|
|-------------------------------------------------------|
|-------------------------------------------------------|
|
|-----------------------------------|
|  E     E      E      E      E     E      Q
|-------------------------------------------------------|
|-------------------------------------------------------|
|-------------------------------------------------------|
|-------------------------------------------------------|
|--------3-------------3------------3------5------------|
|--0-----1------0------1------0-----1------3------------|


  N.C.     F5      N.C.    F5      N.C.    F5     N.C.    F5
   T          T          T          T
   |-------------9:8-------------|  |-----------9:8-----------|
   S  S  S    S  S    S  S    S  S  S S  S    S S    S  S   S S
|-16p10h13h==16p10h==13h16p==10h13------------------------------|
|----------------------------------15p9h12h==15p9h==12h15p==6h9-|
|---------------------------------------------------------------|
|---------------------------------------------------------------|
|---------------------------------------------------------------|
|---------------------------------------------------------------|
|
|  T          T          T          T
|  |-------------9:8-------------|  |-----------9:8-----------|
|  S  S  S    S  S    S  S    S  S  S S  S    S S    S  S   S S
|-13p=7h10h==13p=7h==10h13p===7h10------------------------------|
|----------------------------------12p6h=9h==12p6h===9h12p==6h9-|
|---------------------------------------------------------------|
|---------------------------------------------------------------|
|---------------------------------------------------------------|
|---------------------------------------------------------------|
|
|  PM------------------------------------------------------------
|  E       E       E       E        E      E      E       E
|---------------------------------------------------------------|
|---------------------------------------------------------------|
|---------------------------------------------------------------|
|---------------------------------------------------------------|
|----------3---------------3---------------3--------------3-----|
|--0-------1-------0-------1--------0------1------0-------1-----|


  N.C.    F5     N.C.    F5     N.C.    F5     G5
                                 T
   |-----------9:8------------|  |----------9:8----------|
   S S  S    S S    S  S   S  S  S S  S    S S    S  S S S
|------------------------------------------------------------|
|-------------------------------15p9h12h==15p9h==12h15p6h9---|
|-13p7h10h==13p7h==10h13p==7h10------------------------------|
|------------------------------------------------------------|
|------------------------------------------------------------|
|------------------------------------------------------------|
|
|                                T
|  |-----------9:8------------|  |----------9:8----------|
|  S S  S    S S    S  S   S  S  S S  S    S S    S  S S S
|------------------------------------------------------------|
|-------------------------------12p6h=9h==12p6h===9h12p6h9---|
|-10p4h=7h==10p4h===7h10p==4h=7------------------------------|
|------------------------------------------------------------|
|------------------------------------------------------------|
|------------------------------------------------------------|
|
|---------------------------------------|
|  E      E      E       E       E      E      Q
|------------------------------------------------------------|
|------------------------------------------------------------|
|------------------------------------------------------------|
|------------------------------------------------------------|
|---------3--------------3--------------3------5-------------|
|--0------1------0-------1-------0------1------3-------------|


  N.C.     F5      N.C.    F5      N.C.     F5      N.C.    F5
   T          T          T          T
   |-------------9:8-------------|  |-------------9:8-------------|
   S  S  S    S  S    S  S    S  S  S  S  S    S  S    S  S    S  S
|-19p13h16h==19p13h==16h19p==13h16----------------------------------|
|----------------------------------18p12h15h==18p12h==15h18p==12h15-|
|-------------------------------------------------------------------|
|-------------------------------------------------------------------|
|-------------------------------------------------------------------|
|-------------------------------------------------------------------|
|
|  T          T          T          T
|  |-------------9:8-------------|  |-------------9:8-------------|
|  S  S  S    S  S    S  S    S  S  S  S  S    S  S    S  S    S  S
|-16p10h13h==16p10h==13h16p==10h13----------------------------------|
|----------------------------------15p=9h12h==15p=9h==12h15p===6h=9-|
|-------------------------------------------------------------------|
|-------------------------------------------------------------------|
|-------------------------------------------------------------------|
|-------------------------------------------------------------------|
|
|  PM----------------------------------------------------------------
|  E       E       E       E        E       E       E       E
|-------------------------------------------------------------------|
|-------------------------------------------------------------------|
|-------------------------------------------------------------------|
|-------------------------------------------------------------------|
|----------3---------------3----------------3---------------3-------|
|--0-------1-------0-------1--------0-------1-------0-------1-------|


  N.C.     F5      N.C.    F5      N.C.     F5      G5
                                    T
   |-------------9:8-------------|  |------------9:8------------|
   S  S  S    S  S    S  S    S  S  S  S  S    S  S    S  S  S  S
|-------------------------------------------------------------------|
|----------------------------------18p12h15h==18p12h==15h18p12h15---|
|-16p10h13h==16p10h==13h16p==10h13----------------------------------|
|-------------------------------------------------------------------|
|-------------------------------------------------------------------|
|-------------------------------------------------------------------|
|
|                                   T
|  |-------------9:8-------------|  |------------9:8------------|
|  S  S  S    S  S    S  S    S  S  S  S  S    S  S    S  S  S  S
|-------------------------------------------------------------------|
|----------------------------------15p=9h12h==15p=9h==12h15p=6h=9---|
|-13p=7h10h==13p=7h==10h13p===7h10----------------------------------|
|-------------------------------------------------------------------|
|-------------------------------------------------------------------|
|-------------------------------------------------------------------|
|
|-------------------------------------------|
|  E       E       E       E        E       E       Q
|-------------------------------------------------------------------|
|-------------------------------------------------------------------|
|-------------------------------------------------------------------|
|-------------------------------------------------------------------|
|----------3---------------3----------------3-------5---------------|
|--0-------1-------0-------1--------0-------1-------3---------------|


  N.C.     F5      N.C.    F5      N.C.     Gb5     N.C.    F5
   T          T          T          T
   |-------------9:8-------------|  |-------------9:8-------------|
   S  S  S    S  S    S  S    S  S  S  S  S    S  S    S  S    S  S
|-22p16h19h==22p16h==19h22p==16h19----------------------------------|
|----------------------------------21p15h18h==21p15h==18h21p==15h18-|
|-------------------------------------------------------------------|
|-------------------------------------------------------------------|
|-------------------------------------------------------------------|
|-------------------------------------------------------------------|
|
|  T          T          T          T
|  |-------------9:8-------------|  |-------------9:8-------------|
|  S  S  S    S  S    S  S    S  S  S  S  S    S  S    S  S    S  S
|-16p10h13h==16p10h==13h16p==10h13----------------------------------|
|----------------------------------15p=9h12h==15p=9h==12h15p===6h=9-|
|-------------------------------------------------------------------|
|-------------------------------------------------------------------|
|-------------------------------------------------------------------|
|-------------------------------------------------------------------|
|
|  PM----------------------------------------------------------------
|  E       E       E       E        E       E       E       E
|-------------------------------------------------------------------|
|-------------------------------------------------------------------|
|-------------------------------------------------------------------|
|-------------------------------------------------------------------|
|----------3---------------3----------------3---------------3-------|
|--0-------1-------0-------1--------0-------1-------0-------1-------|


  N.C.     F5       N.C.     F5       N.C.     F5       G5
                                       |-----3-----|     |--3--|
   S     S  S  S     S     S  S  S     E     E     E     E  E  E
|-20----19-18-17----20----19-18-17--------------------------------|
|-------------------------------------20----19----17----20-19-----|
|-------------------------------------------------------------17--|
|-----------------------------------------------------------------|
|-----------------------------------------------------------------|
|-----------------------------------------------------------------|
|
|                             |---3----|  |-----3-----|
|  S  S     S  S  S  S  S  S  E     E  E  E     E     E
|-17-16----13-12-17-16-13-13--------------------------------------|
|----------------------------17----15-13-17----15----13-----------|
|-----------------------------------------------------------------|
|-----------------------------------------------------------------|
|-----------------------------------------------------------------|
|-----------------------------------------------------------------|
|
|----------------------------------------------|
|  E        E        E        E        E        E        Q
|-----------------------------------------------------------------|
|-----------------------------------------------------------------|
|-----------------------------------------------------------------|
|-----------------------------------------------------------------|
|-----------3-----------------3-----------------3--------5--------|
|--0--------1--------0--------1--------0--------1--------3--------|


 Breakdown 2
  N.C.
   W                                  +W
|----------------------------------|------------------------------------|
|----------------------------------|------------------------------------|
|-16-------------------------------|-(16)-------------------------------|
|----------------------------------|------------------------------------|
|----------------------------------|------------------------------------|
|----------------------------------|------------------------------------|
|
|  W                                  +W
|----------------------------------|------------------------------------|
|----------------------------------|------------------------------------|
|-16-------------------------------|-(16)-------------------------------|
|----------------------------------|------------------------------------|
|----------------------------------|------------------------------------|
|----------------------------------|------------------------------------|
|
|  PM--|   PM--|   PM--|   PM--|       PM---|   PM--|   PM--|   PM--|
|  S S S S S S S S S S S S S S S S     S  S S S S S S S S S S S S S S S
|----------------------------------|------------------------------------|
|----------------------------------|------------------------------------|
|----------------------------------|------------------------------------|
|----------------------------------|------------------------------------|
|----------------------------------|------------------------------------|
|--0-0-0---0-0-0---0-0-0---0-0-0---|---0--0-0---0-0-0---0-0-0---0-0-0---|


                                       Db5EbbDb5Ab5BbbGb5Abb5
   +W
|------------------------------------|----------------------|
|------------------------------------|----------------------|
|-(16)-------------------------------|----------------------|
|------------------------------------|----------------------|
|------------------------------------|----------------------|
|------------------------------------|----------------------|
|
|  +W
|------------------------------------|----------------------|
|------------------------------------|----------------------|
|-(16)-------------------------------|----------------------|
|------------------------------------|----------------------|
|------------------------------------|----------------------|
|------------------------------------|----------------------|
|
|   PM---|   PM--|   PM--|   PM--|              PM-------|
|   S  S S S S S S S S S S S S S S S   E  E  Q  E  E  E  E
|------------------------------------|----------------------|
|------------------------------------|----------------------|
|------------------------------------|-7s=8s=7--------------|
|------------------------------------|-6s=7s=6--------------|
|------------------------------------|-5s=6s=5--6--7--4--5--|
|---0--0-0---0-0-0---0-0-0---0-0-0---|----------5--6--3--4--|


  N.C.
  Gtrs I, II
  PM--|   PM--|   PM--|   PM--|     PM--|   PM--|   PM--|   PM--|
  S S S S S S S S S S S S S S S S   S S S S S S S S S S S S S S S S
|---------------------------------|---------------------------------|
|---------------------------------|---------------------------------|
|---------------------------------|---------------------------------|
|---------------------------------|---------------------------------|
|---------------------------------|---------------------------------|
|-0-0-0---0-0-0---0-0-0---0-0-0---|-0-0-0---0-0-0---0-0-0---0-0-0---|


                                    Db5EbbDb5Ab5BbbGb5Abb5
  PM--|   PM--|   PM--|   PM--|              PM-------|
  S S S S S S S S S S S S S S S S   E  E  Q  E  E  E  E
|---------------------------------|----------------------|
|---------------------------------|----------------------|
|---------------------------------|-7s=8s=7--------------|
|---------------------------------|-6s=7s=6--------------|
|---------------------------------|-5s=6s=5--6--7--4--5--|
|-0-0-0---0-0-0---0-0-0---0-0-0---|----------5--6--3--4--|


 Guitar Solo 2 (Heafy)
  B5/F#F5    N.F5N.C. F5    N.F5  N.C. F5N.C.  F5N.C.F5G5
  Gtr I
   \4____/        \1____/          \3______/           \1.5
   E    +Q.       E    +Q.         Q      +Q      Q    Q
|-------------------------------|----------------------------|
|----------------<7>--(<7>)-----|-<5>----(<5>)---------------|
|-<2>--(<2>)--------------------|----------------<3>---------|
|-------------------------------|----------------------------|
|-------------------------------|----------------------0-----|
|-------------------------------|----------------------------|
|
| Gtr II
|  PM------------------------------------------------|
|  E     E   E E  E     E   E E    E   E   E   E  E  E Q
|-------------------------------|----------------------------|
|-------------------------------|----------------------------|
|-------------------------------|----------------------------|
|-------------------------------|----------------------------|
|--------3-----3--------3-----3-|------3-------3-----3-5-----|
|--0-----1---0-1--0-----1---0-1-|--0---1---0---1--0--1-3-----|


  N.C.F5N.F5N.F5N.F5  N.CF5N.C.F5N.F5G5
  \6___________________/
                       ~~~~~~~~
  W                    Q   +H.
|-------------------|-------------------|
|-------------------|-------------------|
|-------------------|-------------------|
|-0-----------------|-h2---(2)----------|
|-------------------|-------------------|
|-------------------|-------------------|
|
| PM-------------------------------|
| E   E E E E E E E    E E  E  E E E Q
|-------------------|-------------------|
|-------------------|-------------------|
|-------------------|-------------------|
|-------------------|-------------------|
|-----3---3---3---3-|----3-----3---3-5--|
|-0---1-0-1-0-1-0-1-|--0-1--0--1-0-1-3--|


  N.C.     F5      N.C.    F5      N.C.     F5      N.C.    F5
   |-------------9:8-------------|  |-------------9:8-------------|
   S  S  S    S  S    S  S    S  S  S  S  S    S  S    S  S    S  S
|-------------------------------------------------------------------|
|-------------------------------------------------------------------|
|-------------------------------------------------------------------|
|-------------------------------------------------------------------|
|-----------------------12---15-18-12-15-18-------------------------|
|-12-15-18---12-15---18-----------------------12-15---18-12---15-18-|
|
|  PM----------------------------------------------------------------
|  E       E       E       E        E       E       E       E
|-------------------------------------------------------------------|
|-------------------------------------------------------------------|
|-------------------------------------------------------------------|
|-------------------------------------------------------------------|
|----------3---------------3----------------3---------------3-------|
|--0-------1-------0-------1--------0-------1-------0-------1-------|


  N.C.     F5      N.C.    F5      N.C.     F5      G5
   |-------------9:8-------------|  |------------9:8------------|
   S  S  S    S  S    S  S    S  S  S  S  S    S  S    S  S  S  S
|-------------------------------------------------------------------|
|-------------------------------------------------------------------|
|-------------------------------------------------------------------|
|-----------------------12---15-18-12-15-18-------------------------|
|-12-15-18---12-15---18-----------------------12-15---18-12-15-18---|
|-------------------------------------------------------------------|
|
|-------------------------------------------|
|  E       E       E       E        E       E       Q
|-------------------------------------------------------------------|
|-------------------------------------------------------------------|
|-------------------------------------------------------------------|
|-------------------------------------------------------------------|
|----------3---------------3----------------3-------5---------------|
|--0-------1-------0-------1--------0-------1-------3---------------|


  N.C.     F5      N.C.    F5      N.C.     F5      N.C.    F5
   |-------------9:8-------------|  |-------------9:8-------------|
   S  S  S    S  S    S  S    S  S  S  S  S    S  S    S  S    S  S
|-------------------------------------------------------------------|
|-------------------------------------------------------------------|
|-----------------------12---15-18-12-15-18--------------12---15----|
|-12-15-18---12-15---18-----------------------12-15---18---------18-|
|-------------------------------------------------------------------|
|-------------------------------------------------------------------|
|
|  PM----------------------------------------------------------------
|  E       E       E       E        E       E       E       E
|-------------------------------------------------------------------|
|-------------------------------------------------------------------|
|-------------------------------------------------------------------|
|-------------------------------------------------------------------|
|----------3---------------3----------------3---------------3-------|
|--0-------1-------0-------1--------0-------1-------0-------1-------|


  N.C.     F5      N.C.    F5      N.C.     F5      G5
   |-------------9:8-------------|  |------------9:8------------|
   S  S  S    S  S    S  S    S  S  S  S  S    S  S    S  S  S  S
|-------------------------------------------------------------------|
|---------------------------------------------12-15---18-12-15-18---|
|-----------------------12---15-18-12-15-18-------------------------|
|-12-15-18---12-15---18---------------------------------------------|
|-------------------------------------------------------------------|
|-------------------------------------------------------------------|
|
|-------------------------------------------|
|  E       E       E       E        E       E       Q
|-------------------------------------------------------------------|
|-------------------------------------------------------------------|
|-------------------------------------------------------------------|
|-------------------------------------------------------------------|
|----------3---------------3----------------3-------5---------------|
|--0-------1-------0-------1--------0-------1-------3---------------|


 Recapitulation
  F5                                                               G5
  Gtr I
    /6__________|
                ~~~~
    Q          +H.                         W
|----------------------------------------|-----------------------------|
|----------------------------------------|-----------------------------|
|-<14>--------(14)-----------------------|-----------------------------|
|----------------------------------------|-----------------------------|
|----------------------------------------|-----------------------------|
|----------------------------------------|-----------------------------|
|
|         PM-------|   PM--------------|
|   S   S S S   S  S S S S S S S S S S S   S S S S S S S S S S S S Q
|----------------------------------------|-----------------------------|
|----------------------------------------|-----------------------------|
|----------------------------------------|-----------------------------|
|--------------------3-------------------|-------------------------5---|
|---5p==2-2-2---2--2---2-2-2-2-2-2-2-2-2-|-5p2-2-2-2-2-3p2-2-2-2-2-3---|
|----------------------------------------|-----------------------------|


    B5A5B5C5/G  B5/F#       C5/G B5A5B5D5/A  B5/F#       Eb5/Bb
                       2/4      4/4                 2/4
    Gtrs I, II
      PM|         PM------|        PM|         PM------|
    E E E E +E  E E E   E E Q    E E E E +E  E E E   E E Q
||--------------------|--------|-------------------|-------|
||o-------------------|--------|-------------------|-------|
||--------------------|--------|-------------------|-------|
||--4---4-5-(5)-4-----|-----5--|-4---4-7-(7)-4-----|-----8-|
||o-2-0-2-3-(3)-2-2-2-|-2-2-3--|-2-0-2-5-(5)-2-2-2-|-2-2-6-|
||--2-0-2-3-(3)-2-2-2-|-2-2-3--|-2-0-2-5-(5)-2-2-2-|-2-2-6-|


  B5A5B5C5/G  B5/F#       C5/G B5A5B5D5/A  B5/F#       Eb5/Bb
 4/4                 2/4      4/4                 2/4
    PM|         PM------|        PM|         PM------|
  E E E E +E  E E E   E E Q    E E E E +E  E E E   E E Q
|-------------------|--------|-------------------|---------||
|-------------------|--------|-------------------|--------o||
|-------------------|--------|-------------------|---------||
|-4---4-5-(5)-4-----|-----5--|-4---4-7-(7)-4-----|-----8---||
|-2-0-2-3-(3)-2-2-2-|-2-2-3--|-2-0-2-5-(5)-2-2-2-|-2-2-6--o||
|-2-0-2-3-(3)-2-2-2-|-2-2-3--|-2-0-2-5-(5)-2-2-2-|-2-2-6---||


 Pre-Chorus 3
  Bb5
     PM      PM     PM------------|
  Q  E E +E  E Q    E E E E E E E E
|-----------------|-----------------|
|-----------------|-----------------|
|-----------------|-----------------|
|-3--3-2-(2)-2-3--|-3-3-3-3-3-3-3-3-|
|-1--1-1-(1)-1-1--|-1-1-1-1-1-1-1-1-|
|-----------------|-----------------|


   Chorus 3
    C5/G                                  A5
    Gtr I
       PM      PM      PM-|   PM    PM|      PM      PM      PM-|   PM      PM|
    Q  E E +E  E Q     E  E E E E E E E   Q  E E +E  E Q     E  E E E E  E  E E
||------------------|-------------------|-----------------|--------------------|
||o-----------------|-------------------|-----------------|--------------------|
||------------------|-------------------|-2----2-(2)------|--------------------|
||--5--5-3-(3)-3-5--|--5--5-5---3-5-5-5-|-3--3-2-(2)-2-3--|--3--3-3---3p=2--2-2|
||o-3--3-3-(3)-3-3--|--3--3-3-3-3-3-3-3-|-0--0-0-(0)-0-0--|--0--0-0-0-0-(0)-0-0|
||------------------|-------------------|-----------------|--------------------|
|
|   Gtr II
|   W                 +W                  W                 +W
||------------------|-------------------|-----------------|--------------------|
||o-----------------|-------------------|-----------------|--------------------|
||------------------|-------------------|-2---------------|-(2)----------------|
||--5---------------|-(5)---------------|-2---------------|-(2)----------------|
||o-3---------------|-(3)---------------|-0---------------|-(0)----------------|
||--3---------------|-(3)---------------|-----------------|--------------------|


                                  1.                                     2.
  Db5         C5                   Bb5
        PM|               PM|         PM      PM      PM--------------|
  Q  Q  E E E E   +Q   Q  E E Q    Q  E E +E  E Q     E  E E E E E E  E
|---------------|----------------|-----------------|--------------------|--||
|---------------|----------------|-----------------|--------------------|-o||
|---------------|----------------|-----------------|--------------------|--||
|-7--7--7-7-7s5-|-(5)--5--5-5-5--|-3--3-2-(2)-2-3--|--3--3-3-3-3-3-3--3-|--||
|-5--5--5-5-5s3-|-(3)--3--3-3-3--|-1--1-1-(1)-1-1--|--1--1-1-1-1-1-1--1-|-o||
|---------------|----------------|-----------------|--------------------|--||
|
|       PM|               PM|
| H     E E E E   +H      E E Q    W                 +W
|---------------|----------------|-----------------|--------------------|--||
|---------------|----------------|-----------------|--------------------|-o||
|-7---------7s5-|-(5)---------5--|-3---------------|-(3)----------------|--||
|-7-----7-7-7s5-|-(5)-----5-5-5--|-3---------------|-(3)----------------|--||
|-5-----5-5-5s3-|-(3)-----3-3-3--|-1---------------|-(1)----------------|-o||
|---------------|----------------|-----------------|--------------------|--||


 Outro
  Half-time Q=104
  Bb5/F       C5/G               A5                 D5/A        C5/G  Bb5/F
  Gtrs I, II
    PM----|            PM----|            PM----|           PM|
  Q E E E E E E   +Q   E E E E E E   +Q   E E E E E E   +Q. S S Q   E E
|---------------|------------------|------------------|------------------|
|---------------|------------------|------------------|------------------|
|---------------|----------------2-|-(2)----------2---|------------------|
|-3---------3-5-|-(5)----------5-2-|-(2)--2-2-2-2-2-7-|-(7)-----5---5-3--|
|-1-1-1-1-1-1-3-|-(3)--3-3-3-3-3-0-|-(0)--0-0-0-0-0-5-|-(5)-5-5-3---3-1--|
|-1-1-1-1-1-1-3-|-(3)--3-3-3-3-3---|----------------5-|-(5)-5-5-3---3-1--|


  Bb5/F        C5/G               A5               D5/A             Bb5/F
     PM----|            PM----|          PM----|           PM|
  Q  E E E E E E   +Q   E E E E E E   Q  E E E E E E   +Q. S S Q  E E   W
|----------------|------------------|----------------|----------------|------*|
|----------------|------------------|----------------|----------------|------*|
|----------------|----------------2-|-2----------2---|----------------|------*|
|-3----------3-5-|-(5)----------5-2-|-2--2-2-2-2-2-7-|-(7)-----5--5-3-|-3----*|
|-1--1-1-1-1-1-3-|-(3)--3-3-3-3-3-0-|-0--0-0-0-0-0-5-|-(5)-5-5-3--3-1-|-1----*|
|-1--1-1-1-1-1-3-|-(3)--3-3-3-3-3---|--------------5-|-(5)-5-5-3--3-1-|-1----*|


__________________________________________________________________________________________
9. THIS WORLD CAN'T TEAR US APART 3:30 - omposed by Matt Heafy
__________________________________________________________________________________________

intro corey 2x
|------------------------------------------------|
|------------------------------------------------|
|-------4~-----------------4~--------------------|
|-2-2-1-----2-2-1----2-2-1-----2-2-1-1-6-6-4-4---|
|-----------------2------------------------------|
|------------------------------------------------|
|------------------------------------------------|
Matt 2x
|------------------|------------------|-----------------|-----------------|
|------------------|------------------|-----------------|-----------------|
|------------------|------------------|-----------------|-----------------|
|------------------|------------------|-7-7-7-7-7-7-7-7-|-----------------|
|-4-4-4-4-4-4-4-4--|-2-2-2-2-2-2-2-2--|-7-7-7-7-7-7-7-7-|-----------------|
|-4-4-4-4-4-4-4-4--|-2-2-2-2-2-2-2-2--|-5-5-5-5-5-5-5-5-|-2-2-2-2---4-----|
|-2-2-2-2-2-2-2-2--|-0-0-0-0-0-0-0-0--|-----------------|-0-0-0-0-5---7-4-|


Verse
Matt and Corey
|-------------------|-------------------|-------------------|
|-------------------|-------------------|-------------------|
|-------------------|-------------------|-------------------|
|-------------------|-------------------|-------------------|
|-------------------|-----------------7-|---7-------7-7-7---|
|-4-4-------4-4-4-2-|---2-------2-2-2-5-|---5-------5-5-5-2-|
|-2-2-------2-2-2-0-|---0-------0-0-0---|-----------------0-|

|-----------------------|-------------------------------|
|-----------------------|-------------------------------|
|-----------------------|-------------------------------|
|-----------------------|-------------------------------|
|-----------------------|-------4-4-4-4-4-4-4-4---------|
|---2----------4----2---|-4--4------------------4-4-4-4-|
|---0--0-0-0-0-5----4---|-2--2------------------2-2-2-4-|

|--------------------------------|--------------------------------|
|--------------------------------|--------------------------------|
|--------------------------------|--------------------------------|
|--------------------------------|--------------------------------|
|------------------------------7-|-----7------------------7-7-7---|
|-----4--4-4-4-4-4-4-4-4-4-4-4-5-|-----5--5-5-5-5-5-5-5-5-5-5-5-4-|
|-----4------------------4-4-4---|------------------------------4-|

|------------------------|
|------------------------|
|------------------------|
|------------------------|
|------------------------|
|-----4----------4---2---|
|-----4--0-0-0-0-5---4---|

Pre Chorus 2x
Corey
|------------------------|------------------------|------------------------|
|------------------------|------------------------|------------------------|
|--6--6----------8---9---|--6--6----------8---9---|--6--6----------8---9---|
|--x--x----------x---x---|--x--x----------x---x---|--x--x----------x---x---|
|--4--4--4-4-4-4-6---7---|--4--4--6-6-6-6-6---7---|--4--4--4-4-4-4-6---7---|
|------------------------|------------------------|------------------------|
|------------------------|------------------------|------------------------|

|----------------|
|----------------|
|--11-11-13--13--|
|--x--x---x---x--|
|--9--9--11--11--|
|----------------|
|----------------|

Pre chorus 2 x
Matt
|-----------------------------|-------------------------------|
|-----------------------------|-------------------------------|
|-----------------------------|-------------------------------|
|-----------------------------|-------------------------------|
|-------4-4-4-4-4-4-4---------|-------6-6-6-6-6-6-6-6---------|
|-4--4----------------4-4-4-6-|----6------------------6-6-6-7-|
|-2--2----------------2-2-2-4-|----4------------------4-4-4-5-|

|-------------------------------|-------------------|
|-------------------------------|-------------------|
|-------------------------------|-11-11---13---13---|
|-------------------------------|--x--x----x----x---|
|-------7-7-7-7-7-7-7-7---------|--9--9---11---11---|
|----7------------------7-7-7-4-|-------------------|
|----5------------------5-5-5-4-|-------------------|

Chorus same as intro

Bridge 2x
Matt and Corey
|---------------------------------|---------------------------------|
|---------------------------------|---------------------------------|
|---------------------------------|---------------------------------|
|---------------------------------|---------------------------------|
|---------------------------------|---------------------------------|
|---------------------------------|---------------------------------|
|-2-2-2-2-2-2-0-2-4-4-4-4-4-4-2-4-|-5-5-5-5-5-5-4-5-7-7-7-7-9-9-9-9-|

|---------------------------------|---------------------------------|
|---------------------------------|---------------------------------|
|---------------------------------|---------------------------------|
|---------------------------------|-----------------6-6-6-6-4-4-4-4-|
|---------------------------------|-4-4-4-4-4-4-7-7-----------------|
|-5-5-5-5-5-5-4-5-7-7-7-7-7-7-5-7-|---------------------------------|
|---------------------------------|---------------------------------|

Corey solo
|-----------------------------------------------------------------------|
|-----------------------------------------------------------------------|
|-----------------------------------------------------11-13-14-11-13-14-|
|-----------------------------------11-13-14-11-13-14-------------------|
|-----------------11-13-14-11-13-14-------------------------------------|
|-9-11-12-9-11-12-------------------------------------------------------|
|-----------------------------------------------------------------------|

|-------------------------------------------------------12-14-16-14-16-17-|
|-------------------------------------12-14-16-12-14-16-------------------|
|-------------------11-13-14-11-13-14-------------------------------------|
|-11-13-14-11-13-14-------------------------------------------------------|
|-------------------------------------------------------------------------|
|-------------------------------------------------------------------------|
|-------------------------------------------------------------------------|

|-17-16-14-17-16-14-------------------------------------------------------|
|-------------------17-16-14-17-16-14-------------------------------------|
|-------------------------------------16-14-13-16-14-13-------------------|
|-------------------------------------------------------16-14-13-16-14-13-|
|-------------------------------------------------------------------------|
|-------------------------------------------------------------------------|
|-------------------------------------------------------------------------|

|-------------------------------------------------------------------------|
|-------------------------------------------------------------------------|
|-16-14-13-16-14-13-------------------------------------------------------|
|-------------------16-14-13-16-14-13-------------------------------------|
|-------------------------------------14-12-11-14-12-11-------------------|
|-------------------------------------------------------14-12-11-14-12-11-|
|-------------------------------------------------------------------------|

Matt Solo
|-----------------------------------|-----------16--------------12-19-14---|
|--------14----------------17-------|---------16--16----------12--------16-|
|---------x--------------16--16-----|-------13------13------13-----------16|
|-------11-11----------14------14---|-----13----------13--13---------------|
|-----11-----11--------x--------x---|---14--------------14-----------------|
|---12---------12-12-16----------16-|-16-----------------------------------|
|-14--------------------------------|--------------------------------------|

|---------16-21-16------------16-21-16-14---|-14fb---16-19-19fb--19fb------|
|-----------------17---------------------14-|------------------------------|
|-------18----------18------18--------------|------------------------------|
|-----18------------------18----------------|------------------------------|
|---19------------------19------------------|------------------------------|
|-21------------------21--------------------|------------------------------|
|-------------------------------------------|------------------------------|

Bridge
Corey
|------------------|-------------------|-----------------|---------------|
|------------------|-------------------|-----------------|---------------|
|------------------|-------------------|-----------------|---------------|
|------------------|-------------------|-----------------|---------------|
|-------6---4------|-------4---4h6p4---|-7-----7---7---7-|-9-------------|
|-------4---2---0--|-------2---2h4p2-0-|-5-5-5-5-5-5-5-5-|-7--------4----|
|-2-2-2---2---2----|-0-0-0---0---------|-----------------|-0-0-0-0-5-7-4-|

Key change chorus (slow one)2x

|-----------------|-----------------|-----------------|-----------------|
|-----------------|-----------------|-----------------|-----------------|
|-----------------|-----------------|-7-7-7-7-6-6-6-6-|-4-4-4-4-4-4-4-4-|
|-4-4-4-4-4-4-4-4-|-2-2-2-2-2-2-2-2-|-x-x-x-x-x-x-x-x-|-x-x-x-x-x-x-x-x-|
|-4-4-4-4-4-4-4-4-|-2-2-2-2-2-2-2-2-|-5-5-5-5-4-4-4-4-|-2-2-2-2-2-2-2-2-|
|-2-2-2-2-2-2-2-2-|-0-0-0-0-0-0-0-0-|-----------------|-----------------|
|-----------------|-----------------|-----------------|-----------------|

then chorus
then key change chorus (jsut paly the lead part on the string above
Bridge
outro solo Corey (bridge is backing)
|-------------------------------------------------|
|------9-12-9------9-12-9------9-12-9------9-12-9-|
|-11fb--------11fb--------11fb--------11fb--------|
|-------------------------------------------------|
|-------------------------------------------------|
|-------------------------------------------------|
|-------------------------------------------------|

|-------------------9-11---11qb--11-9-11-9------------------|
|-x---------10-12-14----------------------12-14-12----------|
|---9-11-13---------------------------------------13-14-13--|
|-----------------------------------------------------------|
|-----------------------------------------------------------|
|-----------------------------------------------------------|
|-----------------------------------------------------------|

|--------12-------|------------------------|
|-12fb------12fb--|----------12-10-9~~~~---|
|-----------------|------------------------|
|-----------------|------------------------|
|-----------------|------------------------|
|-----------------|------------------------|
|-----------------|------------------------|

|-12-9-------12--14--12--14----14-----14---|
|-------10-14--14--14--14--16----16-----16-|
|-----13---------------------16-----16-----|
|------------------------------------------|
|------------------------------------------|
|------------------------------------------|
|------------------------------------------|

|-16----16----16---16---------------------16-|
|---17----17----17---17-----------------17---|
|-----18----18---------18-------------18-----|
|------------------------18---------18-------|
|--------------------------16-x-x-16---------|
|--------------------------------------------|
|--------------------------------------------|

|-21--------21-----21--19----19---|-21--------21-----21---21-----------|
|---22p19-19--22p19--22--21----21-|---22-19-22--22-19--22---22-19---19-|
|--------------------------21-----|-----------------------------18-18--|
|---------------------------------|------------------------------19----|
|---------------------------------|------------------------------------|
|---------------------------------|------------------------------------|
|---------------------------------|------------------------------------|

-----------------|-19hb-fb(21)-------|------------------------|
----------19--22-|-------------------|------------------------|
----18-----------|-------------------|------------------------|
-19----19--------|-------------------|------------------------|
-----------------|-------------------|------------------------|
-----------------|-----------------9-|-7-9-9-9-9-9-9-9--------|
-----------------|-------------------|-----------------2\-----|
_____________________________________________________________________________________
10. TREAD THE FLOODS 3:33 - Composed by Corey Beaulieu
_____________________________________________________________________________________

Intro
Corey
|--------------------------------------------------------------------------------------|
|--------------------------------------------------------------------11------10--------|
|-12-0-0-0-7-0-0-0-8-0-0-0-10-0-0-0-7h8p7------12-0-0-0-7-0-0-0-8--0---8-0-0----7-0-0--|
|-----------------------------------------10-8-----------------------------------------|
|--------------------------------------------------------------------------------------|
|--------------------------------------------------------------------------------------|
|
|Matt
|--------------------------------------------------------------------------------------|
|--------------------------------------------------------------------------------------|
|--------------------------------------------------------------------------------------|
|-5------------------------------------------------------------------------------------|
|-5-------------------------------------------8----------------------------------------|
|-3-------------------------------------------5----------------------------------------|

Corey
|-------------------------------------------------------------------11-10-8--------------------|
|--------------------------------------------------------------------------11-10-8-------------|
|-12-0-0-0-7-0-0-0-8-0-0-0-10-0-0-0-7h8p7------12-0-0-0-7-0-0-0-8-0---------------10-8-7-------|
|-----------------------------------------10-8------------------------------------------10-8-7-|
|----------------------------------------------------------------------------------------------|
|----------------------------------------------------------------------------------------------|
|
|Matt
|----------------------------------------------------------------------------------------------|
|----------------------------------------------------------------------------------------------|
|----------------------------------------------------------------------------------------------|
|----------------------------------------------------------------------------------------------|
|-8-------------------------------------------3---------------------8-------------8------------|
|-6-------------------------------------------1---------------------6-------------5------------|

Do on second time
Corey
|---------------------------|
|---------------------------|
|-10-8-7--------------------|
|-------10-8-7--------------|
|-------------10-8-6--------|
|-------------------10-8-6--|
|
|Matt
|---------------------------|
|---------------------------|
|---------------------------|
|---------------------------|
|-8-------------------------|
|-5-------------------------|

Verse
Both guitars                                (1                 (2   trem pick whole bar
|------------------------------------------|------------------|----------------------------|
|------------------------------------------|------------------|----------------------10-13-|
|------------------------------------------|------------------|----------------------------|
|-5------------------10-6-8-5--------------|------------------|-7--6--10--9--10--12--------|
|-5------------------10-6-8-5--------------|-----6------------|----------------------------|
|-3--3-3-3-3-3-3-3-3--8-4-6-3--3-3-3-3-3-3-|-3-4---4-3-1-3-4--|----------------------------|

Pre Chorus
|---------------------------------------------------|
|---------------------------------------------------|
|---------------------------------------------------|
|------------------10-----------------------10------|
|---------------------------------------------------|
|-5-8-5-8-8-11-8-11--8-11-8-5-8-5-8--5-8-5-8--8-5-8-|

|-------------------------------------------------|
|-------------------------------------------------|
|-------------------------------------------------|
|-------------------------------------------------|
|-------------------------18----------------------|
|-11-14-11-14-17-20-17-20----17-20-17-11-14-11-14-|

|-------------------------|
|-------------------------|
|-------------------------|
|-------------------------|
|-------------18----------|
|-11-14-11-14----14-11-14-|

Corey
|-----------------------15-18-15-18-21~~~--|
|------------13-16-13-16-------------------|
|-11-14-11-14------------------------------|
|------------------------------------------|
|------------------------------------------|
|------------------------------------------|
|
|Matt
|-----------------------------------18~~~--|
|-----------------------17-20-17-20--------|
|------------15-18-15-18-------------------|
|-14-17-14-17------------------------------|
|------------------------------------------|
|------------------------------------------|
 Then Verse then Pre Chorus
Chorus is the same as intro

Solo backing
|----------------------|-------------------------|
|----------------------|-------------------------|
|----------------------|-------------------------|
|----------------------|-------------------------|
|-5------6-------------|---------------5--6--5---|
|-3--3-3-3--3-3-3--3-3-|-3--3-3-3--3-3-3--3--3---|

|----------------------|-------------------------|
|----------------------|-------------------------|
|----------------------|-------------------------|
|-8-----10-------------|---------------8-10--8---|
|-6--6-6-6--6-6-6--6-6-|-6--6-6-6--6-6-6--6--6---|
|----------------------|-------------------------|

|----------------------|-------------------------|
|----------------------|-------------------------|
|----------------------|-------------------------|
|----------------------|-------------------------|
|-5------6-------------|---------------5--6--5---|
|-3--3-3-3--3-3-3--3-3-|-3--3-3-3--3-3-3--3--3---|

|----------------------|-------------------------|
|----------------------|-------------------------|
|----------------------|-8---5-----7---3-----5---|
|-8------10------------|-------------------------|
|-6--6-6-6--6-6-6--6-6-|-6---3-----5---1-----3---|
|----------------------|-------------------------|

|----------------------|-------------------------|
|----------------------|-------------------------|
|----------------------|-------------------------|
|----------------------|-------------------------|
|-5------6-------------|-------------------------|
|-3--3-3-3--3-3-3--3-3-|-3--3-3-3--3-3-3--3--3---|

|----------------------|-------------------------|
|----------------------|-------------------------|
|----------------------|-------------------------|
|-8------10------------|---------------8--10-8---|
|-6--6-6-6--6-6-6--6-6-|-6--6-6-6--6-6-6--6--6---|
|----------------------|-------------------------|

|----------------------|-------------------------|
|----------------------|-------------------------|
|----------------------|-------------------------|
|----------------------|-------------------------|
|-5------6-------------|---------------5--6--5---|
|-3--3-3-3--3-3-3--3-3-|-3--3-3-3--3-3-3--3--3---|

|----------------------|-------------------------|
|----------------------|-------------------------|
|----------------------|-8---5-----7---3-----5---|
|-8------------10------|-------------------------|
|-6--6-6-6--6-6-6--6-6-|-6---3-----5---1-----3---|
|----------------------|-------------------------|

|----------------------|-------------------------|
|----------------------|-------------------------|
|----------------------|-------------------------|
|----------------------|-------------------------|
|-5------6-------------|-------------------------|
|-3--3-3-3--3-3-3--3-3-|-3--3-3-3--3-3-3--3--3---|

|----------------------|
|----------------------|
|----------------------|
|-8-----10-------------|
|-6--6-6-6--6-6-6--6-6-|
|----------------------|

Solo
Corey
|-11-11-----11-11-10-10-----10-10-8-8-----|
|-------8-8-------------8-8-----------8-8-|
|-----------------------------------------|
|-----------------------------------------|
|-----------------------------------------|
|-----------------------------------------|

|-8-8-----8-8-6-6-----6-6-5-5-----|
|-----6-6---------6-6---------6-6-|
|---------------------------------|
|---------------------------------|
|---------------------------------|
|---------------------------------|

|-6-6-----6-6-5-5-----6-5---------|
|-----6-6---------6-6-----6-6fb-r-|
|---------------------------------|
|---------------------------------|
|---------------------------------|
|---------------------------------|

|---------------------------------|
|---------------------------------|
|---------------------------------|
|---------------------------------|
|------3-5-6-5(tr6)---------------|
|-3-5-6---------------------------|

|---------------------------------|
|---------------------------------|
|-------5-7-8-7----5----7---------|
|-5-7-8---------------------------|
|---------------------------------|
|---------------------------------|

|---------------------------------|
|-8----6--------------------------|
|-----------8----7----------------|
|---------------------------------|
|---------------------------------|
|---------------------------------|

|---------------------------------|
|---------------------------------|
|--8-7-8-5-8-7-8---8-7-8-5-8-7-8--|
|-5--------------5----------------|
|---------------------------------|
|---------------------------------|

|---------------------------------|
|-----------------8-6-----6-------|
|---8-7-8-5-8-7-8-----8-7---8-7-5-|
|-5-------------------------------|
|---------------------------------|
|---------------------------------|

|---------------------------------|
|---------------------------------|
|---8-7-8-5-8-7-8---8-7-8-5-8-7-8-|
|-5---------------5---------------|
|---------------------------------|
|---------------------------------|

|---------------------------------|
|---------------------------------|
|--------7-8-10---------8-10-12---|
|-7-8-10--------8-10-12-----------|
|---------------------------------|
|---------------------------------|

|---------------------------------|
|---------------------------------|
|---------12-14-15--------14-15-17|
|-12-13-15--------13-15-17--------|
|---------------------------------|
|---------------------------------|

|---------------------------------------------|
|---16-15-16-13-16-15-16--16-15-16-13-16-15-16|
|-12--------------------12--------------------|
|---------------------------------------------|
|---------------------------------------------|
|---------------------------------------------|

|-----------------------15-13------13---------|
|---16-15-16-13-16-15-16-----16-15----16-15-13|
|-12------------------------------------------|
|---------------------------------------------|
|---------------------------------------------|
|---------------------------------------------|

|---------------------------------------------|
|---16-15-16-13-16-15-16--16-15-16-13-16-15-16|
|-12--------------------12--------------------|
|---------------------------------------------|
|---------------------------------------------|
|---------------------------------------------|

|----------------------------------------------|
|-15-15-16-16-13-13-15-15-11-11-13-13-10-------|
|----------------------------------------------|
|----------------------------------------------|
|----------------------------------------------|
|----------------------------------------------|

|---------------------------------|
|-8--10--11--15--13--11--10--11---|
|---------------------------------|
|-5---7---8--12--10---8---7---8---|
|---------------------------------|
|---------------------------------|

|---------------------------------|
|-8--10--11--15--13--15--18--16-15|
|---------------------------------|
|-5---7---8--12--10--12--15--13-12|
|---------------------------------|
|---------------------------------|

Riff after Solo (drum bit)
|-----------------------|----------------------|
|-----------------------|----------------------|
|-8--5-----7--3-----5---|-8--5-----7--3--------|
|-----------------------|-------------------5--|
|-6--3-----5--1-----3---|-6--3-----5--1--------|
|-----------------------|-------------------3--|


Then Verse, Pre chorus, Verse, Pre chorus and Chorus.
_________________________________________________________________________
11. CONTEMPT BREEDS CONTAMINATION 4:28 - Composed by Matt Heafy
_________________________________________________________________________

intro
|--------------------------------------------------------------------------------------------------------------------|
|--------------------------------------------------------------------------------------------------------------------|
|--------------------------------------------------------------------------------------------------------------------|
|------------------------------------4-----------3------------------------------------------------9-----------8------|
|---------------------------------2-5--5-2---1-4---4-1-----2-3-2-------2-3-2-------1-2-1-----7-10--10-7---6-9---9-6--|
|----2-3-2-----2-3-2-----1-2-1---------------------------3-------3---3-------3---2-------2---------------------------|
|-0-3-----3-0-3-----3-0-2-----2-5----------5-----------0-----------0-----------0-----------5------------5------------|

|------------------------------------------------------------------------------------------------------|
|------------------------------------------------------------------------------------------------------|
|----------------------------------------------------------------------1-4-1---------------------------|
|-------------------------------------------0-3-0------------------0-3-------3-0-----------------------|
|---------2-5-2---------------------------2-------2--------------2---------------2---------------0-2-0-|
|-----1-4-------4-1-------------------1-4----------4-1-------1-4-------------------4-1---------1-------|
|-0-3---------------3-0-3-3-1-0-1-0-3------------------3-0-3---------------------------3-0-3-0---------|

pre verse
|-----------------------------------|
|-----------------------------------|
|-----------------------------------|
|-----------------------------------|
|-----------------------------------|
|-3-3-3-3-3-0-0-0-0-0--0--3-3-3-3-3-|
|-1-1-1-1-1-2-2-2-2-2--2--1-1-1-1-1-|

verse
|----------------------------------------------------------------------------------------------------------|
|----------------------------------------------------------------------------------------------------------|
|----------------------------------------------------------------------------------------------------------|
|----------------------------------------------------------------------------------------------------------|
|----------------------------------------------------------------------------------------------------------|
|---------5-----5-4-------5------------------------------------4-----4-3-------4---------------------------|
|-3-3-3-3---3-3-----3-3-3---3-3-3-3--2222-0-2-3-2-0-2--2-2-2-2---2-2-----2-2-2---2-2-2-2--1111-0-1-2-1-0-1-|

sorry guys thats all i got
_________________________________________________________________________________
12. THE RISING 3:45 - Composed my Paolo Gregoletto and Matt Heafy
_________________________________________________________________________________

Intro
|-------------------------------------------|
|-------------------------------------------|
|-7--5-----5--------------------------------|
|-------7-----7--5-----5--7--5-----5--------|
|-------------------8-----------8-----8-----|
|-------------------------------------------|
|
|
|-------------------------------------------|
|-------------------------------------------|
|-------------------------------------------|
|-------------------------------------------|
|-5--3--0--3--0-----------0-----------------|
|----------------3--1--3-----3--1--3--1-----|

|----------------------------|----------------------------|
|----------------------------|----------------------------|
|-7--7-7-----5-7-----------7-|----7-7-----5-7-----------7-|
|-7--7-7-----5-7-----------7-|----7-7-----5-7-----------7-|
|-5--5-5-5-5-3-5-5-5-5-5-5-5-|----5-5-5-5-3-5-5-5-5-5-5-5-|
|----------------------------|----------------------------|
|
|
|----------------------------|----------------------------|
|------6-------6---------5---|----------------------------|
|------7-------7---------5---|--------------10-----12-----|
|-0----------0---------0-----|-0---0--0--/10---/10--------|
|----------------------------|----------------------------|
|----------------------------|----------------------------|

Intro Solo
|-15(17)--15(17)---15(17)r--13/15\13---15-13-----13-15(17)r--|
|-----------------------------------13------13-15------------|
|------------------------------------------------------------|
|------------------------------------------------------------|
|------------------------------------------------------------|
|------------------------------------------------------------|

|-------------------------------------|
|-------------------------------------|
|-------10-12-12(14)-12-10------------|
|-10-12-------------------12-10-12\\--|
|-------------------------------------|
|-------------------------------------|

Verse ..Bass for first two bars

verse riff is same as the top intro riff and one guitar
holds the d chord over the top. but here are the fills at
the tail of the riff
|---------------|   |-------------------------------|
|---------------|   |-------------------------------|
|-7-5-----------|   |-7-5---5-----------------------|
|-----7-5-------|and|-----7---7-5---5-7-5---5-------|
|---------8-5-3-|   |-------------8-------8---8~~~--|
|---------------|   |-------------------------------|

Chorus
i couldn't be bothered tabbing the rythm for them both
together so i'll just give you the two riffs that are played
over each other
|-----------------------------------------------------|
|-----------------------------------------------------|
|-7--7--7--7-7--7--7--7------------------7--7--7-7----|
|-8--5--7--5-8--5--7--7-10--10-10-10-10--7--7--7-7-10-|
|-5--5--5--5-5--5--5--5-10--10-10-10-10--5--5--5-5-10-|
|-----------------------8---8--8--8--8-------------8--|

|--------------------------------------------------------------------|
|--------------------------------------------------------------------|
|-7-7-7-7-7-7-7-7-7-7-7-7-12-12-1010-5-5-5-5-5-5-5-5-7-7-7-7-7-7-7-5-|
|--------------------------------------------------------------------|
|-5-5-5-5-5-5-5-5-5-5-5-5-10-10-8-8--3-3-3-3-3-3-3-3-5-5-5-5-5-5-5-3-|
|--------------------------------------------------------------------|

Second solo
|----------------------------|--------------13-15(17)15-|
|-------13(15)~~~~~--12--10--|-------13(15)-------------|
|-10-12--------------12--10--|-10-12--------------------|
|----------------------------|--------------------------|
|----------------------------|--------------------------|
|----------------------------|--------------------------|

|-13--12h13p12--12-13-15-17-18-20-22-20-22(24)--|
|-------------15--------------------------------|
|-----------------------------------------------|
|-----------------------------------------------|
|-----------------------------------------------|
|-----------------------------------------------|

Verse, Chorus
Breakdown
|---------------------------------|
|--------------5---6--------------|
|-7-7------7-----------7----------|
|-7-7-----------------------------|
|-5-5-5-5----5---5---5---5-5-5-5--|
|---------------------------------|

Solo

|-15b--------17~~~~~---|
|----------------------|
|----------------------|
|----------------------|
|----------------------|
|----------------------|

|------------------------------------------|
|-18-20-18--18-20-18--17-18-17--17-18-17---|
|---------19--------19--------17--------17-|
|------------------------------------------|
|------------------------------------------|
|------------------------------------------|

|------------------------------------------|
|-15-17-15--15-17-15--14-15-14--14-15-14---|
|---------17--------17--------15--------15-|
|------------------------------------------|
|------------------------------------------|
|------------------------------------------|

|----------------------------|
|-6--6--x-6-x-6--6--x-6-5-6--|
|-5--5--5-5-5-5--5--5-5-5-5--|
|----------------------------|
|----------------------------|
|----------------------------|

|----------------------------------------|
|----------------------------------------|
|----------------------------------------|
|-15--14--12-----12----------------------|
|---17--15--15-13--15-13-12-13--13-15-17-|
|-----------------------------15---------|

|---------------------------------------|
|---------------------------------------|
|---------------------------------------|
|-----------------------------17-19~~~--|
|------------------19-20-19-21----------|
|-15-17-18-20-22-24---------------------|

|------------------------------|-10--13-10--13-10--13-10-|
|-10--8-10-8----10--8-10-8-----|-------------------------|
|------------10------------10--|-------------------------|
|------------------------------|-------------------------|
|------------------------------|-------------------------|
|------------------------------|-------------------------|

|-10-12-13-10-12-13-10-12-13-10-12-13-10-12-13-10-12-13-|
|-------------------------------------------------------|
|-------------------------------------------------------|
|-------------------------------------------------------|
|-------------------------------------------------------|
|-------------------------------------------------------|

|-10-17-15-13----------------------------8-10-|
|------------17-15-13---------------10-11-----|
|--------------------15-14-----10-12----------|
|-------------------------12-14---------------|
|---------------------------------------------|
|---------------------------------------------|

|-13-13---15-15---17-17---20-20--22-20--22--|
|-15-15---17-17---18-18---22-22-------------|
|-------------------------------------------|
|-------------------------------------------|
|-------------------------------------------|
|-------------------------------------------|

Backing is breakdown riff except for last bar
|----------------------------------------|
|----------------------------------------|
|----------------------------------------|
|----------------------------------------|
|-0--0-----3--3-----5--5-----5--5--3--5--|
|----------------------------------------|

Chorus again
______________________________________________________________
13. THE CRUSADE 8:19 - Composed by Matt Heafy
______________________________________________________________

Intro - Part 1 "the opens" play through twice

|----------------------------------------------------------------|
|----------------------------------------------------------------|
|----------------------------------------------------------------|
|----------------------------------------------------------------|
|----------------------------------------------------------------|
|-12-0-0-12-0-0-12-0-0-10-0-0-13-0-12-0-8-0-10-0-12-0-7-0-8-0-10-|
|----------------------------------------------------------------|
|
|
|----------------------------------------------------------------|
|----------------------------------------------------------------|
|----------------------------------------------------------------|
|-2--------------------------------------------------------------|
|-2--------------------------------------------------------------|
|-0--------------------------------------------------------------|
|----------------------------------------------------------------|

|-----------------------------------------------------------------------|
|-----------------------------------------------------------------------|
|-----------------------------------------------------------------------|
|-----------------------------------------------------------------------|
|-----------------------------------------------------------------------|
|-12-0-0-12-0-0-12-0-0-10-0-0-13-0-12-0-17-0-16-0-13-0-16-0-13-0-12-4~~-|
|-----------------------------------------------------------------------|
|
|
|-----------------------------------------------------------------------|
|-----------------------------------------------------------------------|
|-----------------------------------------------------------------------|
|-2---------------------------------------------------------------------|
|-2---------------------------------------------------------------------|
|-0------------------------------------------------------------------1--|
|-----------------------------------------------------------------------|


|----------------------------------------------------------------|
|----------------------------------------------------------------|
|----------------------------------------------------------------|
|----------------------------------------------------------------|
|----------------------------------------------------------------|
|-12-0-0-12-0-0-12-0-0-10-0-0-13-0-12-0-8-0-10-0-12-0-7-0-8-0-10-|
|----------------------------------------------------------------|
|
|
|----------------------------------------------------------------|
|----------------------------------------------------------------|
|----------------------------------------------------------------|
|-2--------------------------------------------------------------|
|-2--------------------------------------------------------------|
|-0--------------------------------------------------------------|
|----------------------------------------------------------------|

|--------------------------------------------------------|
|--------------------------------------------------------|
|--------------------------------------------------------|
|---------------------------------------3--6--7v--9--10--|
|--------------------------------------------------------|
|-12-0-0-12-0-0-12-0-0-10-0-0-13-0-12-0-1--4--5v--7--8---|
|--------------------------------------------------------|
|
|
|--------------------------------------------------------|
|--------------------------------------------------------|
|--------------------------------------------------------|
|-(2)-----------------------------------3--6--7v--9--10--|
|-(2)----------------------------------------------------|
|-(0)-----------------------------------1--4--5v--7--8---|
|--------------------------------------------------------|

Both guitars - 2x
|------------------------------------------------------------------------------------------------------------|
|------------------------------------------------------------------------------------------------------------|
|------------------------------------------------------------------------------------------------------------|
|------------------------------------------------------------------------------------------------------------|
|------------------------------------------------------------------------------------------------------------|
|-20-0-0-20-0-0-20-0-19-0-0-19-0-0-19-0-17-0-19-0-20-0-17-0-16-17-0-0-17-0-16-0-0-16-0-0-16-0-13-0-16-0-17-0-|
|------------------------------------------------------------------------------------------------------------|

Both guitars - 2x
|---------------------------------------------------------|
|---------------------------------------------------------|
|---------------------------------------------------------|
|---------------------------------------------------------|
|---------------------------------------------------------|
|-1-1-1-1-1-1-1-1-4-4-4-4-4-4-4-4-8-7-5-8-7-5-7-5-4-7-5-4-|
|---------------------------------------------------------|

 Matt
|------------------------------------------------------0-0-0-0-0-0-12\-|
|----------------------------------------------------------------------|
|----------------------------------------------------------------------|
|----------------------------------------------------------------------|
|----------------------------------------------------------------------|
|-1-1-1-1-1-1-1-1-4-4-4-4-4-4-4-4-12-12-12-12-0-0-0-0------------------|
|----------------------------------------------------------------------|
|
|Corey
|----------------------------------------------------------------------|
|----------------------------------------------------------------------|
|----------------------------------------------------------------------|
|----------------------------------------------------------------------|
|----------------------------------------------------------------------|
|-1-1-1-1-1-1-1-1-4-4-4-4-4-4-4-4-0-0-0-0-0-0-0-0-0-0-0-0-0-0-0-0-0-0--|
|----------------------------------------------------------------------|

PART TWO - "The Stretches" play through twice

Both guitars  play seven times on first run then on second run play 5 times
|------------------------------------------------------------------------------------------------|
|------------------------------------------------------------------------------------------------|
|-2---2-2----2---2---2-2---4---4-4---4---4---4-4---5---5-5---5---5---5-5---4---4-4---4---1---1---|
|-2---2-2----2---2---2-2---2---2-2---2---2---2-2---2---2-2---2---2---2-2---2---2-2---2---2---2---|
|---0-----0----0---0-----0-----------------------------------------------------------------------|
|----------------------------4-----4---4---4-----4---1-----1---1---1-----1---0-----0---0---0---0-|
|------------------------------------------------------------------------------------------------|

|-------------------------------------------------------------|
|-------------------------------------------------------------|
|-2-----------------------------------------------1-----------|
|---3p2-3p2-----------------------------------------2p0-2p0---|
|-----------3-----------------------------------------------2-|
|-------------5-5-5-5-5-5-5-5-5-5-5-5-5-5-5-5-5-5-------------|
|-------------------------------------------------------------|

|----------------------------------------------------------------------------------|
|-------------------------------------------------10-10-10-12----------13-13-13-12-|
|-------------------------12-12-12-------------------------------------------------|
|-------7-7-7-9-9-9----------------10-10-10----------------------------------------|
|-------------------7-7-7-------------------8-8-8-------------10-10-10-------------|
|-4-4-4----------------------------------------------------------------------------|
|----------------------------------------------------------------------------------|
|
|Corey
|----------------------------------------------------------------------------------|
|----------------------------------------------------------------------------------|
|----------------------------------------------------------------------------------|
|-6-----------------2----------------------3------------------5--------------------|
|-6-----------------2----------------------3------------------5--------------------|
|-4-----------------0----------------------1------------------3--------------------|
|----------------------------------------------------------------------------------|

|---------8-----7---------------------8-----7-------------|
|---------------------------------------------------------|
|---------------------------------------------------------|
|-5/7-7-7---7-7---7-7-7-7-5/7-7-7-7-7---7-7---7-7-7-7-7-7-|
|---------------------------------------------------------|
|---------------------------------------------------------|
|---------------------------------------------------------|

|------------15-----13-----------------------------15-----13------------------|
|-----------------------------------------------------------------------------|
|-----------------------------------------------------------------------------|
|-10/12-12-12--12-12--12-12-12-12-10/12-12-12-12-12--12-12--12-12-12-12-12-12-|
|-----------------------------------------------------------------------------|
|-----------------------------------------------------------------------------|
|-----------------------------------------------------------------------------|

|-------12-----10-------------------10-----8------------|
|-------------------------------------------------------|
|-9-9-9----9-9----9-9-9-9-7-7-7-7-7----7-7---5-5-5-5-5--|
|-------------------------------------------------------|
|-------------------------------------------------------|
|-------------------------------------------------------|
|-------------------------------------------------------|

|-8-----7-----------7-----5-----4\--|
|-----------------------------------|
|---5-5---5-5-4-4-4---4-4---4-4-----|
|-----------------------------------|
|-----------------------------------|
|-----------------------------------|
|-----------------------------------|

On this part its dueted at the same time but because the top bar has
double digits i cant make them both fit on top of each other evenly

|-8p0-8h10h12p10p8p0-10p0-10h12h13p12p10p0-12p0-12h13h15p13p12p0-|
|----------------------------------------------------------------|
|----------------------------------------------------------------|
|----------------------------------------------------------------|
|----------------------------------------------------------------|
|----------------------------------------------------------------|
|----------------------------------------------------------------|
|
|Corey
|-5p0-5h7h8p7p5p0-7p0-7h8h10p8p7p0-8p0-8h10h12p10p8p0------------|
|----------------------------------------------------------------|
|----------------------------------------------------------------|
|----------------------------------------------------------------|
|----------------------------------------------------------------|
|----------------------------------------------------------------|
|----------------------------------------------------------------|

|-13---13------13----12---|-----12------10-10------|-8----8-8----8---7-|
|-10---10------10----10---|-----10------10-10------|-10---1010---10--9-|
|-10---10------10----10---|-----10------10-10------|-9----9-9----9---9-|
|---------0-------0-------|-------------------0-0--|-------------------|
|-------------------------|------------------------|-------------------|
|-------------------------|------------------------|-------------------|
|-------------------------|------------------------|-------------------|

|----7----\---------------|
|----9----\---------------|
|----9----\---------------|
|-------------------------|
|-------------------------|
|------------7--7--7------|
|-------------------------|

PART 3 "The Taps"

In this part Matt taps for the whole time
I'll tab out matts line seperately to Coreys
rythm.

Matt
|--------------------------------------|-------------------------------------|
|-t12p0h7h8t15p0h7t14p5p0h7h8t17p0h2h3-|-t12p0h7h8t15p0h7t14p5p0h7h8-5h7-0h3-|
|--------------------------------------|-------------------------------------|
|--------------------------------------|-------------------------------------|
|--------------------------------------|-------------------------------------|
|--------------------------------------|-------------------------------------|
|--------------------------------------|-------------------------------------|

The next part of tapping is the same as above except on the A string.
This is the duet part
|-------------------------------------------|--------------------------------------------|
|-t15p0h10h12t19p0h10t17p5p0h10h12t20p0h5h7-|-t15p0h10h12t19p0h10t17p5p0h10h12-8h10p-0h7-|
|-------------------------------------------|--------------------------------------------|
|-------------------------------------------|--------------------------------------------|
|-------------------------------------------|--------------------------------------------|
|-------------------------------------------|--------------------------------------------|
|-------------------------------------------|--------------------------------------------|

same thing applies for the lower part

this is coreys backing
BAR 1
|-----------------------------------------------|
|-----------------------------------------------|
|-----------------------------------------------|
|-----------------------------------------------|
|-----------------------------------------------|
|-----------------------------------------------|
|-12-12-12-12-12-12-12-12--12-12-12-12-12-12-12-|

BAR 2
|-----------------------------------------------|
|-----------------------------------------------|
|-----------------------------------------------|
|-----------------------------------------------|
|-----------------------------------------------|
|-----------------------------------------------|
|-12-12-12-12-12-12-12-12--12-12-12-12-12-12-12-|

BAR 3
|--------------------------------|
|--------------------------------|
|--------------------------------|
|--------------------------------|
|--------------------------------|
|--------------------------------|
|-7-7-7-7-7-7-7-7--7-7-7-7-7-7-7-|

BAR 4
|--------------------------------|
|--------------------------------|
|--------------------------------|
|--------------------------------|
|--------------------------------|
|------------------------2-2-2-2-|
|-0-0-0-0-0-0-0--0-0-0-0-0-0-0-0-|

BAR 5
|---------------------------------|
|---------------------------------|
|---------------------------------|
|---------------------------------|
|---------------------------------|
|---------------------------------|
|-0-0-0-0-0-0-0-2-2-2-2-2-2-2-2-3-|

BAR 6
|---------------------------------|
|---------------------------------|
|---------------------------------|
|---------------------------------|
|---------------------------------|
|---------------------------------|
|-3-3-3-3-3-3-3-5-5-5-5-5-5-5-5-5-|

BAR 7
|---------------------------------|
|---------------------------------|
|---------------------------------|
|---------------------------------|
|---------------------------------|
|---------------------------------|
|-7-7-7-7-7-7-7-7-8-8-8-8-8-8-8-8-|

BAR 8
|-------------------------------------------------|
|-------------------------------------------------|
|-------------------------------------------------|
|-------------------------------------------------|
|-------------------------------------------------|
|-------------------------------------------------|
|-11-11-11-11-11-11-11-11-12-12-12-12-12-12-12-12-|

BAR 9
|---------------------------------|
|---------------------------------|
|---------------------------------|
|---------------------------------|
|-2-2-2-2-2-2-2-2-4-4-4-4-4-4-4-4-|
|---------------------------------|
|---------------------------------|

BAR 10
|---------------------------------|
|---------------------------------|
|---------------------------------|
|---------------------------------|
|-5-5-5-5-5-5-5-5-7-7-7-7-9-9-9-9-|
|---------------------------------|
|---------------------------------|

BAR 11
|-------------------------------------------------|
|-------------------------------------------------|
|-------------------------------------------------|
|-------------------------------------------------|
|-10-10-10-10-10-10-10-10-13-13-13-13-13-13-13-13-|
|-------------------------------------------------|
|-------------------------------------------------|

BAR 12
|---------------------------------|
|---------------------------------|
|---------------------------------|
|---------------------------------|
|---------------------------------|
|-------------------------2-2-2-2-|
|-0-0-0-0-0-0-0-0-0-0-0-0-0-0-0-0-|

BAR 13/ From here on it repeats it self
here are the two basic ideas of the riffs
the rythm is fairly basic so you can figure
that out your self
|---------------------------------|
|---------------------------------|
|---------------------------------|
|-2-2-------2-2----2-2----2-2-----|
|-0-0-------0-0----0-0----0-0-----|
|---------------------------------|
|---------------------------------|

|---------------------------------|
|---------------------------------|
|---------------------------------|
|---------------------------------|
|---------------------------------|
|-2-2-------2-2----2-2----2-2-----|
|-0-0-------0-0----0-0----0-0-----|

PART 4 "Clean guitars and Bass solo"

Clean guitar 8x
|------------------------------------------------------------|
|------------------------------------------------------------|
|---------------------------------------------1--------5-----|
|----------7----------6-------------7------------------------|
|-----11-----11---------4------11-----11---------------------|
|--------9------9-----------------9------9-------------------|
|-7---------------3--------0---------------2----2---6----6---|

PART 5 "Guitar solo 1"

Ok so the first guitar solo is one that uses alot
of tremolo bar so im just going to tab out the notes

Matt
|---------------------------------------|
|---------------------------------------|
|-11---7---6---4---6---7---11---14--13--|
|---------------------------------------|
|---------------------------------------|
|---------------------------------------|
|---------------------------------------|

|------------------------17-----16---|
|------15-----17----14h15--14h15-----|
|-13h14--13h14-----------------------|
|------------------------------------|
|------------------------------------|
|------------------------------------|
|------------------------------------|

|-------14h17-14h17-----------14h17-14h17--------------17p14h17-|
|-14h15------------14h17-14h17-----------14h17-14h17p14---------|
|---------------------------------------------------------------|
|---------------------------------------------------------------|
|---------------------------------------------------------------|
|---------------------------------------------------------------|
|---------------------------------------------------------------|

|------------14h17-14h17-----------14h17--|
|-14h17-14h17-----------14h17-14h17-------|
|-----------------------------------------|
|-----------------------------------------|
|-----------------------------------------|
|-----------------------------------------|
|-----------------------------------------|

Now in this next part what he does is tap
the note then slides up to the same note quickly
|-----------------------|
|-----------------------|
|---------------t13/13--|
|--------t14/14---------|
|-t11/11----------------|
|-----------------------|
|-----------------------|

                                |--------------------------| Two guitars arr. for one
|--------------------------------5-7-9---------------------|
|------------------------------------10--------------------|
|--------------------------------6-7-----------------------|
|----------------------------------------------------------|
|-------11----------4----------------------------5---------|
|---9------9--------------------------------4--7---7--4----|
|-7---7------7--3-----3--000-0-0--------6------------------|
                                |-|two guitars arr. for one
|--------------------------------------------------------|
|--------------------------------------------------------|
|--------------------------------------------------------|
|--------------------------------------------------------|
|-------11----------4------------2---------------5-------|
|---9------9---------------------4-5-7------4--7---7--4--|
|-7---7------7--3-----3--000-0-0--------6----------------|

PART 6 "The Happy Sweeps"

This riff is also the backing for the sweeps
|-----------------------------------------------|
|-5-------7------------------------------5-7-5--|
|-7-------7------------------------------7-7-7--|
|-0---0-0-0--0-0-0-0-0-0-0-0-0-0-0-0-0-0-0-0-0--|
|-----------------------------------------------|
|-----------------------------------------------|
|-----------------------------------------------|

|-----------------------------------------------|
|-6-------5------------------------------5-6-5--|
|-7-------7------------------------------7-7-7--|
|-8---8-8-8--8-8-8-8-8-8-8-8-8-8-8-8-8-8-8-8-8--|
|-----------------------------------------------|
|-----------------------------------------------|
|-----------------------------------------------|

|-----------------------------------------------|
|-5-------7------------------------------5-7-5--|
|-7-------7------------------------------7-7-7--|
|-0---0-0-0--0-0-0-0-0-0-0-0-0-0-0-0-0-0-0-0-0--|
|-----------------------------------------------|
|-----------------------------------------------|
|-----------------------------------------------|

|-----------------------------------------------|
|-6-------5----------------8--------------7---8-|
|-7-------7----------------9--------------9---9-|
|-8---8-8-8-8-8-8-8-8-8-8-10-10-10-10-10-10--10-|
|-----------------------------------------------|
|-----------------------------------------------|
|-----------------------------------------------|

Arpeggios - Corey
|-14-----17p14------14-17p14------14-17p14--17p14--------------------14-|
|-------------15--15--------15--15--------15-----15----------------15---|
|---------------14------------14-------------------14------------14-----|
|----------------------------------------------------16--------16-------|
|------------------------------------------------------17-14h17---------|
|-----------------------------------------------------------------------|
|-----------------------------------------------------------------------|

|-13p10------10-13p10------10-13p10--13p10--------------------10--|
|------11--11--------11--11--------11-----11----------------11----|
|--------10------------10-------------------10------------10------|
|---------------------------------------------12--------12--------|
|-----------------------------------------------13-10h13----------|
|-----------------------------------------------------------------|
|-----------------------------------------------------------------|

|-14-17p14------14-17p14------14-17p14--17p14--------------------14-|
|---------15--15--------15--15--------15-----15----------------15---|
|-----------14------------14-------------------14------------14-----|
|------------------------------------------------16--------16-------|
|--------------------------------------------------17-14h17---------|
|-------------------------------------------------------------------|
|-------------------------------------------------------------------|

|-13p10--------------------10-15p12--------------------12--|
|------11----------------11--------13----------------13----|
|--------10------------10------------12------------12------|
|----------12--------12----------------14--------14--------|
|------------13-10h13--------------------15-12h15----------|
|----------------------------------------------------------|
|----------------------------------------------------------|

Arpeggios - Matt
|-17p14------14-17p14--------------------------14-17p14--17p14---|
|------15--15--------15----15----------------15--------15-----15-|
|--------14------------14----14------------14--------------------|
|------------------------16----16--------16----------------------|
|--------------------------------17-14h17------------------------|
|----------------------------------------------------------------|
|----------------------------------------------------------------|

|-18p15-------15-18p15----------------------------------------------------|
|------17--17---------17--17-13-17p13------13-18p13------13-17p13---------|
|--------17-------------17-----------14--14--------14--14--------14--14\--|
|--------------------------------------15------------15------------15-----|
|-------------------------------------------------------------------------|
|-------------------------------------------------------------------------|
|-------------------------------------------------------------------------|

PART 7 "The Final Solo"

Part 1

Matt
|-12-0-0-12-0-0-12-0-0-10-0-0-13-0-12-0-8-0-1-0-12-0-7-0-8-0-10-0-5-0-7-0-|
|-------------------------------------------------------------------------|
|-------------------------------------------------------------------------|
|-------------------------------------------------------------------------|
|-------------------------------------------------------------------------|
|-------------------------------------------------------------------------|
|-------------------------------------------------------------------------|
|
|Corey
|-------------------------------------------------------------------------|
|-------------------------------------------------------------------------|
|-------------------------------------------------------------------------|
|-------------------------------------------------------------------------|
|-7-7-7-7-7-7-7-7----7-7-7-7-7-7-7----7-7-7-7-7-7-7-7----7-7-7-7-7-7-7----|
|-------------------------------------------------------------------------|
|-------------------------------------------------------------------------|

Matt                                                                  tr.
|-12-0-0-12-0-0-12-0-0-10-0-0-13-0-12-0-17-0-16-0-13-0-16-0-13-0-12-0-4(5)|
|-------------------------------------------------------------------------|
|-------------------------------------------------------------------------|
|-------------------------------------------------------------------------|
|-------------------------------------------------------------------------|
|-------------------------------------------------------------------------|
|-------------------------------------------------------------------------|
|
|Corey
|-------------------------------------------------------------------------|
|-------------------------------------------------------------------------|
|-------------------------------------------------------------------------|
|-------------------------------------------------------------------------|
|-7-7-7-7-7-7-7-7----7-7-7-7-7-7-7----7-7-7-7-7-7-7-7----7-7-7-7-7-7-7----|
|-------------------------------------------------------------------------|
|-------------------------------------------------------------------------|

Part 2
 Matt
|-20-0-0-20-0-0-20-0-19-0-0-19-0-0-19-0-|
|---------------------------------------|
|---------------------------------------|
|---------------------------------------|
|---------------------------------------|
|---------------------------------------|
|---------------------------------------|

|-t22p20p19t22p20p19-t20p19p17t20p19p17-t19p17p16t19p17p16-t17p16p13t17p16p13-|
|-----------------------------------------------------------------------------|
|-----------------------------------------------------------------------------|
|-----------------------------------------------------------------------------|
|-----------------------------------------------------------------------------|
|-----------------------------------------------------------------------------|
|-----------------------------------------------------------------------------|

|-17-0-0-17-0-0-17-0-16-0-0-16-0-0-16-0-|
|---------------------------------------|
|---------------------------------------|
|---------------------------------------|
|---------------------------------------|
|---------------------------------------|
|---------------------------------------|

|-t19p17p16t19p17p16-t17p16p13t17p16p13-t16p13p12t16p13p12-t13p12p10t13p12p10-|
|-----------------------------------------------------------------------------|
|-----------------------------------------------------------------------------|
|-----------------------------------------------------------------------------|
|-----------------------------------------------------------------------------|
|-----------------------------------------------------------------------------|
|-----------------------------------------------------------------------------|

Then the outro is Part 3 fading out.
_________________________________________________________________________________
comments
print report bad tab
20 comments total. Showing first comments.
0 reply
PLOP wrote on May 8 2007, 12:49 pm

Its mainly good, a few mistakes... and I'm sorry to say I don't have the time to point them out. But good effort, thanks alot!

-2 reply
rcw110131 wrote on May 8 2007, 02:55 pm

If you're gonna copy other tabs and just compile them into an album tab, at least give credit to those who actually put in the effort *******.

0 reply
anthony4326 wrote on May 8 2007, 06:25 pm

damn. thank you for having the ignition and the unrepentant and the rising solo! wooo!

I want to post or [tab]
guest
You may want to rate the tab now too:
select rating
Please do not post tabs as comments. Select "correction" instead!