Oops, an error
Loading. Please wait.

Crusade Tab

ver2
ver2
More versions @911Tabs.com
8,752 views 12 this week
13 commentsread comments
1 2 3 4 5
accurate
x 11
add to favorites launch autoscroll
font size
0
reset
Autoscroll
+/-
esc
set tempo
stop
Contributor
WARNING: You are trying to view
                                    content from Ultimate-Guitar.com
                                    in an unauthorized application,
                                    which is prohibited.

                                    Please use an official Ultimate
                                    Guitar Tabs application for iPhone,
                                    iPad or Android to access legitimate
                                    chords, guitar, bass, and drum tabs
                                    from Ultimate-Guitar.com database.

                                    Type "ultimate guitar tabs" in Apple
                                    App Store's or Android Market's
                                    search to find the application.
       S S S  S S S  S S S S  S S  S S  S S  
E||-----------------------------------------|
B||-----------------------------------------|
G||*----------------------------------------|
D||*----------------------------------------|
A||-----------------------------------------|
E||---12-0-0-12-0-0-12-0-0-0-10-0-13-0-12-0-|


  S S  S S  S S S S S S  S S  S S S  S    S S  S S S S  S S  S S  S S  
---------------------------------------|------------------------------|
---------------------------------------|------------------------------|
---------------------------------------|------------------------------|
---------------------------------------|------------------------------|
---------------------------------------|------------------------------|
--8-0-10-0-12-0-7-0-8-0-10-0-12-0-0-12-|--0-0-12-0-0-0-10-0-13-0-12-0-|


   S S  S S  S S  S S  S S  S S  Q         Q    Q    Q    Q     Q     
---------------------------------------||----------------------------|
---------------------------------------||----------------------------|
--------------------------------------*||----------------------------|
--------------------------------------*||--3----6----7----9----10----|
---------------------------------------||----------------------------|
--17-0-16-0-13-0-16-0-12-0-13-0-16-----||--1----4----5----7-----8----|


     S S S  S S S  S S  S S S  S S S  S S  S S  S S  S S  
|--------------------------------------------------------|
|--------------------------------------------------------|
|*-------------------------------------------------------|
|*-------------------------------------------------------|
|--------------------------------------------------------|
|---20-0-0-20-0-0-20-0-19-0-0-19-0-0-19-0-17-0-19-0-20-0-|


   S S S  S S S  S S  S S S  S S S  S S  S S  S S  S S    
--------------------------------------------------------||
--------------------------------------------------------||
-------------------------------------------------------*||
-------------------------------------------------------*||
--------------------------------------------------------||
--17-0-0-17-0-0-17-0-16-0-0-16-0-0-16-0-13-0-16-0-17-0--||


   PM PM PM PM PM PM PM PM PM PM PM PM PM PM PM PM  
   S  S  S  S  S  S  S  S  S  S  S  S  S  S  S  S   
---------------------------------------------------|
---------------------------------------------------|
*--------------------------------------------------|
*--------------------------------------------------|
---------------------------------------------------|
---1--1--1--1--1--1--1--1--4--4--4--4--4--4--4--4--|


  PM PM PM PM PM PM PM PM PM PM PM PM  
  S  S  S  S  S  S  S  S  S  S  S  S   
--------------------------------------|
--------------------------------------|
--------------------------------------|
--------------------------------------|
--------------------------------------|
--8--7--5--8--7--5--7--5--4--7--5--4--|


  PM PM PM PM PM PM PM PM PM PM PM PM PM PM PM PM  
  S  S  S  S  S  S  S  S  S  S  S  S  S  S  S  S   
--------------------------------------------------|
--------------------------------------------------|
--------------------------------------------------|
--------------------------------------------------|
--------------------------------------------------|
--1--1--1--1--1--1--1--1--4--4--4--4--4--4--4--4--|


  PM PM PM PM PM PM PM PM                            
  S  S  S  S  S  S  S  S   S  S  S  S  S  S  S  S    
---------------------------------------------------||
--------------------------------------17-17-17-17--||
--------------------------16-16-16-16-16-16-16-16-*||
--------------------------14-14-14-14-------------*||
---------------------------------------------------||
--0--0--0--0--0--0--0--0---------------------------||


    S S S  S S S  S S S S  S S  S S  S S  
-----------------------------------------|
-----------------------------------------|
*----------------------------------------|
*----------------------------------------|
-----------------------------------------|
---12-0-0-12-0-0-12-0-0-0-10-0-13-0-12-0-|


  S S  S S  S S S S S S  S S  S S S  S    S S  S S S S  S S  S S  S S  
---------------------------------------|------------------------------|
---------------------------------------|------------------------------|
---------------------------------------|------------------------------|
---------------------------------------|------------------------------|
---------------------------------------|------------------------------|
--8-0-10-0-12-0-7-0-8-0-10-0-12-0-0-12-|--0-0-12-0-0-0-10-0-13-0-12-0-|


   S S  S S  S S  S S  S S  S S  Q         Q    Q    Q    Q     Q     
---------------------------------------||----------------------------|
---------------------------------------||----------------------------|
--------------------------------------*||----------------------------|
--------------------------------------*||--3----6----7----9----10----|
---------------------------------------||----------------------------|
--17-0-16-0-13-0-16-0-12-0-13-0-16-----||--1----4----5----7-----8----|


     S S S  S S S  S S  S S S  S S S  S S  S S  S S  S S  
|--------------------------------------------------------|
|--------------------------------------------------------|
|*-------------------------------------------------------|
|*-------------------------------------------------------|
|--------------------------------------------------------|
|---20-0-0-20-0-0-20-0-19-0-0-19-0-0-19-0-17-0-19-0-20-0-|


   S S S  S S S  S S  S S S  S S S  S S  S S  S S  S S    
--------------------------------------------------------||
--------------------------------------------------------||
-------------------------------------------------------*||
-------------------------------------------------------*||
--------------------------------------------------------||
--17-0-0-17-0-0-17-0-16-0-0-16-0-0-16-0-13-0-16-0-17-0--||


   PM PM PM PM PM PM PM PM PM PM PM PM PM PM PM PM  
   S  S  S  S  S  S  S  S  S  S  S  S  S  S  S  S   
---------------------------------------------------|
---------------------------------------------------|
*--------------------------------------------------|
*--------------------------------------------------|
---------------------------------------------------|
---1--1--1--1--1--1--1--1--4--4--4--4--4--4--4--4--|


  PM PM PM PM PM PM PM PM PM PM PM PM  
  S  S  S  S  S  S  S  S  S  S  S  S   
--------------------------------------|
--------------------------------------|
--------------------------------------|
--------------------------------------|
--------------------------------------|
--8--7--5--8--7--5--7--5--4--7--5--4--|


  PM PM PM PM PM PM PM PM PM PM PM PM PM PM PM PM  
  S  S  S  S  S  S  S  S  S  S  S  S  S  S  S  S   
--------------------------------------------------|
--------------------------------------------------|
--------------------------------------------------|
--------------------------------------------------|
--------------------------------------------------|
--1--1--1--1--1--1--1--1--4--4--4--4--4--4--4--4--|


  PM PM PM PM PM PM PM PM                            
  S  S  S  S  S  S  S  S   S  S  S  S  S  S  S  S    
---------------------------------------------------||
--------------------------------------17-17-17-17--||
--------------------------16-16-16-16-16-16-16-16-*||
--------------------------14-14-14-14-------------*||
---------------------------------------------------||
--0--0--0--0--0--0--0--0---------------------------||


      PM       PM    PM    PM       PM       PM       PM    PM    PM       PM  
   E  E  E  E  E  E  E  E  E  E  E  E     E  E  E  E  E  E  E  E  E  E  E  E   
---------------------------------------|--------------------------------------|
---------------------------------------|--------------------------------------|
*--2-----2--2-----2-----2-----2--2-----|--4-----4--4-----4-----4-----4--4-----|
*--2-----2--2-----2-----2-----2--2-----|--2-----2--2-----2-----2-----2--2-----|
------0--------0-----0-----0--------0--|--------------------------------------|
---------------------------------------|-----4--------4-----4-----4--------4--|


     PM       PM    PM    PM       PM       PM       PM    PM    PM       
  E  E  E  E  E  E  E  E  E  E  E  E     E  E  E  E  E  E  E  E  E  E   7x
--------------------------------------|---------------------------------||
--------------------------------------|---------------------------------||
--5-----5--5-----5-----5-----5--5-----|--4-----4--4-----4-----1-----1--*||
--3-----3--3-----3-----3-----3--3-----|--2-----2--2-----2-----2-----2--*||
--------------------------------------|---------------------------------||
-----1--------1-----1-----1--------1--|-----0--------0-----0-----0------||


                    PM PM PM PM PM PM PM PM PM  
  |--3--|  |--3--|  |--3--|  |--3--|  |--3--|   
  E  E  E  E  E  E  E  E  E  E  E  E  E  E  E   
-----------------------------------------------|
-----------------------------------------------|
-----------------------------------------------|
--7--5--3--------------------------------------|
-----------7--5--3-----------------------------|
--------------------5--5--5--5--5--5--5--5--5--|


  PM PM PM PM PM PM PM PM PM                    
  |--3--|  |--3--|  |--3--|  |--3--|  |--3--|   
  E  E  E  E  E  E  E  E  E  E  E  E  E  E  E   
-----------------------------------------------|
-----------------------------------------------|
-----------------------------------------------|
-----------------------------------------------|
-----------------------------8--7--5-----------|
--5--5--5--5--5--5--5--5--5-----------8--7--5--|


  PM PM PM                   PM PM PM    
  S  S  S  S S S S S S S S S S  S  S  S  
----------------------------------------|
----------------------------------------|
----------------------------------------|
-------------7-7-7-7-9-9-9-9-9--9--9----|
-----------------------------7--7--7----|
--4--4--4-------------------------------|


                           PM PM PM               
   S  S  S  S  S  S  S  S  S  S  S S  S  S  S  S  
-------------------------------------------------|
-------------------------------------10-10-10-10-|
--12-12-12-12------------------------------------|
--------------10-10-10-10-10-10-10---------------|
---------------------------8--8--8---------------|
-------------------------------------------------|


               PM PM PM                           
   S  S  S  S  S  S  S S  S  S  S  S  S  S  S  S  
-------------------------------------------------|
--12-12-12-12------------13-13-13-13-12-12-12-12-|
-------------------------------------------------|
--------------12-12-12---------------------------|
--------------10-10-10---------------------------|
-------------------------------------------------|


  PM PM PM PM   PM PM PM   PM PM PM PM PM PM PM  
  S  S  S  S  S S  S  S  S S  S  S  S  S  S  S   
--------------8----------7----------------------|
------------------------------------------------|
------------------------------------------------|
--7--7--7--7----7--7--7----7--7--7--7--7--5--6--|
------------------------------------------------|
------------------------------------------------|


  PM PM PM PM   PM PM PM   PM PM PM PM PM  PM PM 
  S  S  S  S  S S  S  S  S S  S  S  S  S   S  S  
--------------8----------7----------------------|
------------------------------------------------|
------------------------------------------------|
--7--7--7--7----7--7--7----7--7--7--7--7--10-11-|
------------------------------------------------|
------------------------------------------------|


   PM PM PM PM    PM PM PM    PM PM PM PM PM PM PM 
   S  S  S  S  S  S  S  S  S  S  S  S  S  S  S  S  
--------------15----------13----------------------|
--------------------------------------------------|
--------------------------------------------------|
--12-12-12-12----12-12-12----12-12-12-12-12-10-11-|
--------------------------------------------------|
--------------------------------------------------|


   PM PM PM PM    PM PM PM    PM PM PM PM PMPM PM  
   S  S  S  S  S  S  S  S  S  S  S  S  S  S S  S   
--------------15----------13----------------------|
--------------------------------------------------|
--------------------------------------------------|
--12-12-12-12----12-12-12----12-12-12-12-12-8--9--|
--------------------------------------------------|
--------------------------------------------------|


   PM PM PM PM    PM PM PM    PM PM PM PM PMPM PM  
   S  S  S  S  S  S  S  S  S  S  S  S  S  S S  S   
--------------12----------10----------------------|
--------------------------------------------------|
--------------------------------------------------|
--10-10-10-10----10-10-10----10-10-10-10-10-7--8--|
--------------------------------------------------|
--------------------------------------------------|


  PM PM PM PM    PM PM PM   PM PM PM        
  S  S  S  S   S S  S  S  S S  S  S  E  E   
--------------10----------8----------------|
-------------------------------------------|
-------------------------------------------|
--9--9--9--9-----9--9--9----9--9--9--6--7--|
-------------------------------------------|
-------------------------------------------|


    PM PM PM   PM PM PM         PM PM PM  
  S S  S  S  S S  S  S  E  E  S S  S  S   
--8----------7----------------7----------|
-----------------------------------------|
-----------------------------------------|
----7--7--7----7--7--7--5--6----6--6--6--|
-----------------------------------------|
-----------------------------------------|


    PM PM PM   PM PM PM                  
  S S  S  S  S S  S  S  S S S S S S S S  
--5----------4----------5-0-5-7-8-7-5-0-|
----------------------------------------|
----------------------------------------|
----6--6--6----6--6--6------------------|
----------------------------------------|
----------------------------------------|


  S S S S  S S S S S S S  S  S  S S  S     Q     Q     
--7-0-7-8-10-8-7-0-8-0-8-10-12-10-8-10-|--13----13----|
---------------------------------------|--15----15----|
---------------------------------------|--14----14----|
---------------------------------------|--------------|
---------------------------------------|--------------|
---------------------------------------|--------------|


  PM PM                                   PM PM PM PM              
  S  S   Q     Q     E  E   E      E   E  S  S  S  S   Q     Q     
--------13----12----12-----10--|---L--10--------------------------|
--------15----12----12--x--10--|---L--10--------------13----13----|
--------14----13----13--x--10--|---L--10--------------14----14----|
--0--0------------------x------|----------0--0--0--0--14----14----|
-------------------------------|----------------------------------|
-------------------------------|----------------------------------|


  PM PM                                   
  S  S   Q     H         E                
----------------------------|-----|-----||
--------13----12---------L--|-----|-----||
--------14----13---------L--|-----|-----||
--------14----14---------L--|-----|-----||
--0--0----------------------|-----|-----||
----------------------------|-----|-----||




Duration Legend
---------------
W - whole
H - half
Q - quarter
E - 8th
S - 16th
T - 32nd
X - 64th
. - note dotted
|-n-|  - n-tuplets


Tablature Legend
----------------
L - tied note
x - dead note
g - grace note
(n) - ghost note
> - accentuded note
NH - natural harmonic
AH - artificial harmonic
TH - tapped harmonic
SH - semi harmonic
PH - pitch harmonic
h - hammer on
p - pull off
b - bend
br - bendRelease
pb - preBend
pbr - preBendRelease
brb - bendReleaseBend
\n/ - tremolo bar dip
\n - tremolo bar dive
-/n - tremolo bar Release up
/n\ - tremolo bar inverted dip
/n - tremolo bar return
-\n - tremolo bar Release down
S - shift slide
s - legato slide
/ -  slide into from below or out of upwards
\ -  slide into from above or out of downwards
~ - vibrato
W - wide vibrato
tr - trill
TP - tremolo picking
T - tapping
S - slap
P - pop
< - fade in
^ - brush up
v - brush down
comments
print report bad tab
13 comments total. Showing first comments.
0 reply
vogi77 wrote on October 11 2006, 11:05 am

i just found some mistakes
play this
S S S S S S S S
---------------------------||
--------------17-17-17-17--||
--16-16-16-16-16-16-16-16-*||
--14-14-14-14-------------*||
---------------------------||
---------------------------||

instead of this

PM PM PM PM PM PM PM PM
S S S S S S S S
--------------19-19-19-19--||
--17-17-17-17-17-17-17-17--||
--16-16-16-16-------------*||
--------------------------*||
---------------------------||
---------------------------||

and the last part (of the tab) goes this way

PM PM PM PM PM PM PM PM PM PM
E E E E E E E E E E E E E E E E E E E E E E E E
---------------------------------------|--------------------------------------|
---------------------------------------|--------------------------------------|
*--2-----2--2-----2-----2-----2--2-----|--4-----4--4-----4-----4-----4--4-----|
*--2-----2--2-----2-----2-----2--2-----|--2-----2--2-----2-----2-----2--2-----|
------0--------0-----0-----0--------0--|--------------------------------------|
---------------------------------------|-----4--------4-----4-----4--------4--|


PM PM PM PM PM PM PM PM PM
E E E E E E E E E E E E E E E E E E E E E E 7x
--------------------------------------|---------------------------------||
--------------------------------------|---------------------------------||
--5-----5--5-----5-----5-----5--5-----|--4-----4--4-----4-----1-----1--*||
--3-----3--3-----3-----3-----3--3-----|--2-----2--2-----2-----2-----2--*||
--------------------------------------|---------------------------------||
-----1--------1-----1-----1--------1--|-----0--------0-----0-----0------||

0 reply
guitarandbmx wrote on November 11 2006, 11:57 am

Awesome tab!

0 reply
boj wrote on December 10 2006, 09:40 pm

Im pretty sure i read in some magazine the Matt said its played on 7 stringed guitars??

I want to post or [tab]
guest
You may want to rate the tab now too:
select rating
Please do not post tabs as comments. Select "correction" instead!