Oops, an error
Loading. Please wait.

Crusade Tab

ver3
ver3
More versions @911Tabs.com
35,976 views 36 this week
26 commentsread comments
1 2 3 4 5
accurate
x 27
Autoscroll
+/-
esc
set tempo
stop
Contributor
Difficulty
advanced
Hey! There's an official Ultimate Guitar app which is ideal
for learning songs when you're away from computer. Get the app
WARNING: You are trying to view
                                    content from Ultimate-Guitar.com
                                    in an unauthorized application,
                                    which is prohibited.

                                    Please use an official Ultimate
                                    Guitar Tabs application for iPhone,
                                    iPad or Android to access legitimate
                                    chords, guitar, bass, and drum tabs
                                    from Ultimate-Guitar.com database.

                                    Type "ultimate guitar tabs" in Apple
                                    App Store's or Android Market's
                                    search to find the application.
Gtr I (B E A D G B E) - 'Main 1'
Gtr II (B E A D G B E) - 'Main 2'
Gtr III (B E A D G B E) - 'Rhythm'
Gtr IV (B E A D G B E) - 'Clean'


  Q=136
 7/4
  Gtr I
   S  S S  S S S  S S S  S S S  S S  S  S S S  S S  S S S S S S  S S
|--------------------------------------------------------------------|
|--------------------------------------------------------------------|
|--------------------------------------------------------------------|
|--------------------------------------------------------------------|
|--------------------------------------------------------------------|
|-12p=0-0-12p0-0-12p0-0-10p0-0-13p0-12p=0-8p0-10p0-12p0-7p0-8p0-10p0-|
|--------------------------------------------------------------------|
|
| Gtr II
|  H..                              +H..
|--------------------------------------------------------------------|
|--------------------------------------------------------------------|
|--------------------------------------------------------------------|
|--2--------------------------------(2)------------------------------|
|--2--------------------------------(2)------------------------------|
|--0--------------------------------(0)------------------------------|
|--------------------------------------------------------------------|


 4/4
                                                                         ~
   S S S  S S S  S S S  S S S  S S  S S    S  S  S S  S S  S S  S S  S S Q
|---------------------------------------|-----------------------------------|
|---------------------------------------|-----------------------------------|
|---------------------------------------|-----------------------------------|
|---------------------------------------|-----------------------------------|
|---------------------------------------|-----------------------------------|
|-12p0-0-12p0-0-12p0-0-10p0-0-13p0-12p0-|-17p=0-16p0-13p0-16p0-12p0-13p0-4--|
|---------------------------------------|-----------------------------------|
|
|                                                                        ~
|  W                                      +H.                            Q
|---------------------------------------|-----------------------------------|
|---------------------------------------|-----------------------------------|
|---------------------------------------|-----------------------------------|
|--2------------------------------------|-(2)-------------------------------|
|--2------------------------------------|-(2)-------------------------------|
|--0------------------------------------|-(0)----------------------------1--|
|---------------------------------------|-----------------------------------|


 7/4
   S  S S  S S S  S S S  S S S  S S  S  S S S  S S  S S S S S S  S S
|--------------------------------------------------------------------|
|--------------------------------------------------------------------|
|--------------------------------------------------------------------|
|--------------------------------------------------------------------|
|--------------------------------------------------------------------|
|-12p=0-0-12p0-0-12p0-0-10p0-0-13p0-12p=0-8p0-10p0-12p0-7p0-8p0-10p0-|
|--------------------------------------------------------------------|
|
|  H..                              +H..
|--------------------------------------------------------------------|
|--------------------------------------------------------------------|
|--------------------------------------------------------------------|
|--2--------------------------------(2)------------------------------|
|--2--------------------------------(2)------------------------------|
|--0--------------------------------(0)------------------------------|
|--------------------------------------------------------------------|


 4/4
   S  S  S  S S S  S S S  S S S  S S  S S
|--------------------------------------------|
|--------------------------------------------|
|--------------------------------------------|
|--------------------------------------------|
|--------------------------------------------|
|-12p=0--0-12p0-0-12p0-0-10p0-0-13p0-12p0----|
|--------------------------------------------|
|
|    +W
|--------------------------------------------|
|--------------------------------------------|
|--------------------------------------------|
|----(2)-------------------------------------|
|----(2)-------------------------------------|
|----(0)-------------------------------------|
|--------------------------------------------|


 5/4              11/8
  Gtrs I, II
        ~
  Q  Q  Q  Q  Q     S S S  S S S  S S  S S S  S S S  S S  S S  S S  S S
|----------------|--------------------------------------------------------|
|----------------|--------------------------------------------------------|
|----------------|--------------------------------------------------------|
|----------------|--------------------------------------------------------|
|----------------|--------------------------------------------------------|
|-1--4--5--7--8--|-20-0-0-20-0-0-20-0-19-0-0-19-0-0-19-0-16-0-17-0-19-0---|
|----------------|--------------------------------------------------------|


   S S S  S S S  S S  S S S  S S S  S S  S S  S S  S S
|------------------------------------------------------|
|------------------------------------------------------|
|------------------------------------------------------|
|------------------------------------------------------|
|------------------------------------------------------|
|-17-0-0-17-0-0-17-0-16-0-0-16-0-0-16-0-13-0-16-0-17-0-|
|------------------------------------------------------|


   S S S  S S S  S S  S S S  S S S  S S  S S  S S  S S
|--------------------------------------------------------|
|--------------------------------------------------------|
|--------------------------------------------------------|
|--------------------------------------------------------|
|--------------------------------------------------------|
|-20-0-0-20-0-0-20-0-19-0-0-19-0-0-19-0-16-0-17-0-19-0---|
|--------------------------------------------------------|


   S S S  S S S  S S  S S S  S S S  S S  S S  S S  S S
|------------------------------------------------------|
|------------------------------------------------------|
|------------------------------------------------------|
|------------------------------------------------------|
|------------------------------------------------------|
|-17-0-0-17-0-0-17-0-16-0-0-16-0-0-16-0-13-0-16-0-17-0-|
|------------------------------------------------------|


 4/4
  PM----------------------------|
  S S S S S S S S S S S S S S S S
|----------------------------------|
|----------------------------------|
|----------------------------------|
|----------------------------------|
|----------------------------------|
|-1-1-1-1-1-1-1-1-4-4-4-4-4-4-4-4--|
|----------------------------------|


 3/4                       4/4
  PM---------------------------------------------------------
  S S S S S S S S S S S S   S S S S S S S S S S S S S S S S
|-------------------------|---------------------------------|
|-------------------------|---------------------------------|
|-------------------------|---------------------------------|
|-------------------------|---------------------------------|
|-------------------------|---------------------------------|
|-8-7-5-8-7-5-7-5-4-7-5-4-|-1-1-1-1-1-1-1-1-4-4-4-4-4-4-4-4-|
|-------------------------|---------------------------------|
|
| Gtr II
| S S S S S S S S S S S S   S S S S S S S S S S S S S S E
|-------------------------|---------------------------------|
|-------------------------|---------------------------------|
|-------------------------|---------------------------------|
|-------------------------|---------------------------------|
|-------------------------|---------------------------------|
|-8-7-5-8-7-5-7-5-4-7-5-4-|-1-1-1-1-1-1-1-1-4-4-4-4-4-4-4---|
|-------------------------|---------------------------------|


 -------------------|
   S  S  S  S S S S S  S     S     S     S     S  S S S
|--------------------------------------------------------|
|--------------------------------------------------------|
|--------------------------------------------------------|
|--------------------------------------------------------|
|---------------------(2)---(2)---(2)---(2)----2--2-2-2--|
|--0--0--0--0-0-0-0-0--0-----0-----0-----0-----0--0-0-0--|
|--------------------------------------------------------|
|
|                      |---------3----------|
|  S  S  S  S S S S S  S  S     S  S  S     S  Q
|----------------------0--0-----0--0--0-----0-12\--------|
|--------------------------------------------------------|
|--------------------------------------------------------|
|--------------------------------------------------------|
|--------------------------------------------------------|
|-12-12-12-12-0-0-0-0------------------------------------|
|--------------------------------------------------------|


                                   3/4
  Gtrs I, II
  PM------------------------------------------------------|
  S S S S S S S S S S S S S S S S   S S S S S S S S S S S S
|---------------------------------|----------------------------|
|---------------------------------|----------------------------|
|---------------------------------|----------------------------|
|---------------------------------|----------------------------|
|---------------------------------|----------------------------|
|-1-1-1-1-1-1-1-1-4-4-4-4-4-4-4-4-|-8-7-5-8-7-5-7-5-4-7-5-4----|
|---------------------------------|----------------------------|


 4/4
  PM-------------------------------
  S S S S S S S S S S S S S S S S
|---------------------------------|
|---------------------------------|
|---------------------------------|
|---------------------------------|
|---------------------------------|
|-1-1-1-1-1-1-1-1-4-4-4-4-4-4-4-4-|
|---------------------------------|
|
| Gtr II
| PM----------------------------|
| S S S S S S S S S S S S S S S S
|---------------------------------|
|---------------------------------|
|---------------------------------|
|---------------------------------|
|---------------------------------|
|-1-1-1-1-1-1-1-1-4-4-4-4-4-4-4-4-|
|---------------------------------|


                                                  D.C.
 -------------------|
   S  S  S  S S S S S  S     S     S     S     S  S S S
|--------------------------------------------------------|
|--------------------------------------------------------|
|--------------------------------------------------------|
|--------------------------------------------------------|
|---------------------(2)---(2)---(2)---(2)----2--2-2-2--|
|--0--0--0--0-0-0-0-0--0-----0-----0-----0-----0--0-0-0--|
|--------------------------------------------------------|
|
|                      |---------3----------|
|  S  S  S  S S S S S  S  S     S  S  S     S  Q
|----------------------0--0-----0--0--0-----0-12\--------|
|--------------------------------------------------------|
|--------------------------------------------------------|
|--------------------------------------------------------|
|--------------------------------------------------------|
|-12-12-12-12-0-0-0-0------------------------------------|
|--------------------------------------------------------|


    Q=160
   6/4
    Gtr I
       PM      PM    PM    PM      PM      PM      PM    PM    PM      PM
    E  E  E E  E  E  E  E  E  E E  E    E  E  E E  E  E  E  E  E  E E  E
||------------------------------------|-----------------------------------|
||------------------------------------|-----------------------------------|
||o-----------------------------------|-----------------------------------|
||--7-----7-7-----7-----7-----7-7-----|-9-----9-9-----9-----9-----9-9-----|
||o-7-----7-7-----7-----7-----7-7-----|-7-----7-7-----7-----7-----7-7-----|
||----(5)-----(5)---(5)---(5)-----(5)-|-----------------------------------|
||------------------------------------|---(9)-----(9)---(9)---(9)-----(9)-|


      PM        PM     PM     PM        PM
   E  E   E  E  E   E  E   E  E   E  E  E
|-------------------------------------------|
|-------------------------------------------|
|-------------------------------------------|
|-10-----10-10-----10-----10-----10-10------|
|--7------7--7------7------7------7--7------|
|-------------------------------------------|
|----(6)-------(6)----(6)----(6)-------(6)--|


 5/4                                 6/4
                                      Gtrs I, II
     PM      PM    PM    PM
  E  E  E E  E  E  E  E  E  E         E  E  E E  E  E  E  E  E  E E  E
|------------------------------||-||------------------------------------|
|------------------------------||-||------------------------------------|
|-----------------------------o||-||o-----------------------------------|
|-9-----9-9-----9-----6-----6--||-||--7-----7-7-----7-----7-----7-7-----|
|-7-----7-7-----7-----7-----7-o||-||o-7-----7-7-----7-----7-----7-7-----|
|---(0)-----(0)---(0)---(0)----||-||----(5)-----(5)---(5)---(5)-----(5)-|
|------------------------------||-||------------------------------------|


  E  E  E E  E  E  E  E  E  E E  E     E  E   E  E  E   E  E   E  E   E  E  E
|-----------------------------------|-------------------------------------------|
|-----------------------------------|-------------------------------------------|
|-----------------------------------|-------------------------------------------|
|-9-----9-9-----9-----9-----9-9-----|-10-----10-10-----10-----10-----10-10------|
|-7-----7-7-----7-----7-----7-7-----|--7------7--7------7------7------7--7------|
|-----------------------------------|-------------------------------------------|
|---(9)-----(9)---(9)---(9)-----(9)-|----(6)-------(6)----(6)----(6)-------(6)--|


                                  $
 5/4                             2/4           4/4
                                  |-3-| |-3-|   |-3-| |-3-| |-3-| |-3-|
  E  E  E E  E  E  E  E  E  E  5x E E E E E E   E E E E E E E E E E E E
|------------------------------||-------------|---------------------------|
|------------------------------||-------------|---------------------------|
|-----------------------------o||-------------|---------------------------|
|-9-----9-9-----9-----6-----6--||-7-----------|---------------------------|
|-7-----7-7-----7-----7-----7-o||---8-7-8-7---|---------------------------|
|---(0)-----(0)---(0)---(0)----||-----------8-|-5-5-5-5-5-5-5-5-5-5-5-5---|
|------------------------------||-------------|---------------------------|


                           3/4
  |-3-| |-3-| |-3-| |-3-|   |-3-| |-3-| |-3-|
  E E E E E E E E E E E E   E E E E E E E E E
|-------------------------|-------------------|
|-------------------------|-------------------|
|-------------------------|-------------------|
|-------------7-----------|-------7-7-7-9-9-9-|
|---------------8-7-8-7---|-------------------|
|-5-5-5-5-5-5-----------8-|-4-4-4-------------|
|-------------------------|-------------------|


  |-3-|  |--3--|  |--3--|   |-3-|  |--3--|        |--3--|  |--3--|
  E E E  E  E  E  E  E  E   E E E  E  E  E  Q     E  E  E  E  E  E  Q
|-------------------------|--------------------|----------------------|
|-------------------------|-------10-10-10-12--|----------13-13-13-12-|
|-------12-12-12----------|--------------------|----------------------|
|----------------10-10-10-|--------------------|----------------------|
|-7-7-7-------------------|-8-8-8--------------|-10-10-10-------------|
|-------------------------|--------------------|----------------------|
|-------------------------|--------------------|----------------------|


 4/4
      PM|   PM|   PM----|       PM----|   PM|   PM--------|
  S S S S E S S E S S S S S S   S S S S E S S E S S S S S S
|---------8-----7-------------|---------8-----7-------------|
|-----------------------------|-----------------------------|
|-----------------------------|-----------------------------|
|-5s7-7-7---7-7---7-7-7-7-5s7-|-7-7-7-7---7-7---7-7-7-7-7-7-|
|-----------------------------|-----------------------------|
|-----------------------------|-----------------------------|
|-----------------------------|-----------------------------|


         PM|      PM|      PM------|
   S  S  S  S  E  S  S  E  S  S  S  S  S  S
|-------------15-------13-------------------|
|-------------------------------------------|
|-------------------------------------------|
|-10s12-12-12----12-12----12-12-12-12-10s12-|
|-------------------------------------------|
|-------------------------------------------|
|-------------------------------------------|


   PM------|      PM|      PM------------|
   S  S  S  S  E  S  S  E  S  S  S  S  S  S
|-------------15-------13-------------------|
|-------------------------------------------|
|-------------------------------------------|
|-12-12-12-12----12-12----12-12-12-12-12-12-|
|-------------------------------------------|
|-------------------------------------------|
|-------------------------------------------|


  PM--|    PM|    PM----------------|    PM|   PM------|
  E S S  E S S  E S S S S E   S S S S  E S S E S S E S S
|-------12-----10-----------|---------10-----8-----------|
|---------------------------|----------------------------|
|-9-9-9----9-9----9-9-9-9-7-|-7-7-7-7----7-7---5-5-5-5-5-|
|---------------------------|----------------------------|
|---------------------------|----------------------------|
|---------------------------|----------------------------|
|---------------------------|----------------------------|


 6/4
    PM|   PM|   PM|   PM|   PM|
  E S S E S S E S S E S S E S S Q
|-8-----7-----------7-----5-----4\-|
|----------------------------------|
|---5-5---5-5-4-4-4---4-4---4-4----|
|----------------------------------|
|----------------------------------|
|----------------------------------|
|----------------------------------|


  S S S  S  S  S S S  S S  S  S  S  S  S S  S S  S  S  S  S  S S
|-8p0-8h10-12p10p8p0-10p0-10h12-13p12p10p0-12p0-12h13-15p13p12p0-|
|----------------------------------------------------------------|
|----------------------------------------------------------------|
|----------------------------------------------------------------|
|----------------------------------------------------------------|
|----------------------------------------------------------------|
|----------------------------------------------------------------|
|
| Gtr II
| S S S  S  S  S S S  S S  S  S  S  S  S S  S S  S  S  S  S  S S
|-5p0-5h=7--8p=7p5p0--7p0--7h=8-10p=8p=7p0--8p0--8h10-12p10p=8p0-|
|----------------------------------------------------------------|
|----------------------------------------------------------------|
|----------------------------------------------------------------|
|----------------------------------------------------------------|
|----------------------------------------------------------------|
|----------------------------------------------------------------|


 4/4
            PM         PM
    Q   E   E   +E   E E   E
|-^13--13-(13)-(13)-13---^12--|
|-^10--10-(10)-(10)-10---^10--|
|-^10--10-(10)-(10)-10---^10--|
|-----------0---(0)----0------|
|-----------------------------|
|-----------------------------|
|-----------------------------|
|
|   W
|-----------------------------|
|-----------------------------|
|-----------------------------|
|-----------------------------|
|-----------------------------|
|-----------------------------|
|-----------------------------|


                                                              To Coda
                    PM|                                        PM--|
                                                               |-3-|
   +E    Q     Q  E E E     Q   E  E  +E   Q   E   +E  Q  +E   Q Q Q
|-(12)--12---^10-10-----|-^-8---8--8--(8)--8--^7-|-(7)-7--(7)\---------|
|-(10)--10---^10-10-----|-^10--10-10-(10)-10--^9-|-(9)-9--(9)\---------|
|-(10)--10---^10-10-----|-^-9---9--9--(9)--9--^9-|-(9)-9--(9)\---------|
|-------------------0-0-|------------------------|---------------------|
|-----------------------|------------------------|---------------------|
|-----------------------|------------------------|-------------7-7-7---|
|-----------------------|------------------------|---------------------|


   6/4
       PM      PM    PM    PM      PM      PM      PM    PM    PM      PM
    E  E  E E  E  E  E  E  E  E E  E    E  E  E E  E  E  E  E  E  E E  E
||------------------------------------|-----------------------------------|
||------------------------------------|-----------------------------------|
||o-----------------------------------|-----------------------------------|
||--7-----7-7-----7-----7-----7-7-----|-9-----9-9-----9-----9-----9-9-----|
||o-7-----7-7-----7-----7-----7-7-----|-7-----7-7-----7-----7-----7-7-----|
||----(5)-----(5)---(5)---(5)-----(5)-|-----------------------------------|
||------------------------------------|---(9)-----(9)---(9)---(9)-----(9)-|


                                            5/4
      PM        PM     PM     PM        PM      PM      PM    PM    PM
   E  E   E  E  E   E  E   E  E   E  E  E    E  E  E E  E  E  E  E  E  E    4x
|------------------------------------------|--------------------------------||
|------------------------------------------|--------------------------------||
|------------------------------------------|-------------------------------o||
|-10-----10-10-----10-----10-----10-10-----|-9-----9-9-----9-----6-----6----||
|--7------7--7------7------7------7--7-----|-7-----7-7-----7-----7-----7---o||
|------------------------------------------|---(0)-----(0)---(0)---(0)------||
|----(6)-------(6)----(6)----(6)-------(6)-|--------------------------------||


 6/4
     PM      PM    PM    PM      PM      PM      PM    PM    PM      PM
  E  E  E E  E  E  E  E  E  E E  E    E  E  E E  E  E  E  E  E  E E  E
|-----------------------------------|-----------------------------------|
|-----------------------------------|-----------------------------------|
|-----------------------------------|-----------------------------------|
|-7-----7-7-----7-----7-----7-7-----|-9-----9-9-----9-----9-----9-9-----|
|-7-----7-7-----7-----7-----7-7-----|-7-----7-7-----7-----7-----7-7-----|
|---(5)-----(5)---(5)---(5)-----(5)-|-----------------------------------|
|-----------------------------------|---(9)-----(9)---(9)---(9)-----(9)-|


                                                     D.S. al Coda
                                            5/4
      PM        PM     PM     PM        PM     PM    PM  PM  PM
   E  E   E  E  E   E  E   E  E   E  E  E    E E E E E E E E E E
|------------------------------------------|-----------------------|
|------------------------------------------|-----------------------|
|------------------------------------------|-----------------------|
|-10-----10-10-----10-----10-----10-10-----|-9---9-9---9---6---6---|
|--7------7--7------7------7------7--7-----|-7---7-7---7---7---7---|
|------------------------------------------|---0-----0---0---0-----|
|----(6)-------(6)----(6)----(6)-------(6)-|-----------------------|


  Q=136
  &
 4/4
  Gtrs I, II
   S  S  S  S  S  S  S  S S  S  S  S  S  S  S  S
|--7----------10--------9p0----------12----------|
|-----0h=7h=8-----0h=7-------0h=7h=8-----0-------|
|-------------------------------------------6h=7-|
|------------------------------------------------|
|------------------------------------------------|
|------------------------------------------------|
|------------------------------------------------|
|
| Gtr III
|  S  S  S  S  S  S  S  E    S  S  S  S  S  S  S
|------------------------------------------------|
|------------------------------------------------|
|------------------------------------------------|
|------------------------------------------------|
|------------------------------------------------|
|------------------------------------------------|
|-12-12-12-12-12-12-12-12---12-12-12-12-12-12-12-|


   S  S  S  S  S  S  S  S S  S  S  S  S  S  S  S
|--7----------10--------9p0-----------------------|
|-----0h=7h=8-----0h=7-------0h=7h=8--5h=7p=0h=3--|
|-------------------------------------------------|
|-------------------------------------------------|
|-------------------------------------------------|
|-------------------------------------------------|
|-------------------------------------------------|
|
|  S  S  S  S  S  S  S  E    S  S  S  S  S  S  S
|-------------------------------------------------|
|-------------------------------------------------|
|-------------------------------------------------|
|-------------------------------------------------|
|-------------------------------------------------|
|-------------------------------------------------|
|-12-12-12-12-12-12-12-12---12-12-12-12-12-12-12--|


  S S S S  S S S S S S S S  S S S S   S S S S  S S S S  S   S   S   S  S S S S
|-7-------10-----9p0-------12-------|-7-------10-----9p=0----------------------|
|---0h7h8----0h7-----0h7h8----0-----|---0h7h8----0h7--------0h==7h==8--5h7p0h3-|
|-------------------------------6h7-|------------------------------------------|
|-----------------------------------|------------------------------------------|
|-----------------------------------|------------------------------------------|
|-----------------------------------|------------------------------------------|
|-----------------------------------|------------------------------------------|
|
| S S S S  S S S E   S S S  S S S S   S S S S  S S E    S   S   S   S  S S S S
|-----------------------------------|------------------------------------------|
|-----------------------------------|------------------------------------------|
|-----------------------------------|------------------------------------------|
|-----------------------------------|------------------------------------------|
|-----------------------------------|------------------------------------------|
|-----------------------------------|------------------(2)-(2)-(2)-(2)-2-2-2-2-|
|-7-7-7-7--7-7-7-7---7-7-7--7-7-7-7-|-0-0-0-0--0-0-0----0---0---0---0--0-0-0-0-|


  S S S S  S S S S S S S S  S S S S   S S S S  S S S S S S S S S S S S
|-7-------10-----9p0-------12-------|-7-------10-----9p0-----------------|
|---0h7h8----0h7-----0h7h8----0-----|---0h7h8----0h7-----0h7h8-5h7p0h3---|
|-------------------------------6h7-|------------------------------------|
|-----------------------------------|------------------------------------|
|-----------------------------------|------------------------------------|
|-----------------------------------|------------------------------------|
|-----------------------------------|------------------------------------|
|
| S S S S  S S S S S S S S  S S S S   S S S S  S S S S S S S S S S S S
|-----------------------------------|------------------------------------|
|-----------------------------------|------------------------------------|
|-----------------------------------|------------------------------------|
|-----------------------------------|------------------------------------|
|-----------------------------------|------------------------------------|
|-----------------------------------|------------------------------------|
|-0-0-0-0--0-0-0-2-2-2-2-2--2-2-2-3-|-3-3-3-3--3-3-3-5-5-5-5-5-5-5-5-5---|


  S S S S  S S S S S S S S  S S S S
|-7-------10-----9p0-------12-------|
|---0h7h8----0h7-----0h7h8----0-----|
|-------------------------------6h7-|
|-----------------------------------|
|-----------------------------------|
|-----------------------------------|
|-----------------------------------|
|
| S S S S  S S S S S S S S  S S S S
|-----------------------------------|
|-----------------------------------|
|-----------------------------------|
|-----------------------------------|
|-----------------------------------|
|-----------------------------------|
|-7-7-7-7--7-7-7-7-8-8-8-8--8-8-8-8-|


   S  S  S  S  S  S  S  S  S  S  S  S  S  S  S  S
|--7----------10--------9p=0------------------------|
|-----0h=7h=8-----0h=7--------0h=7h=8--5h=7p=0h=3---|
|---------------------------------------------------|
|---------------------------------------------------|
|---------------------------------------------------|
|---------------------------------------------------|
|---------------------------------------------------|
|
|  S  S  S  S  S  S  S  S  S  S  S  S  S  S  S  S
|---------------------------------------------------|
|---------------------------------------------------|
|---------------------------------------------------|
|---------------------------------------------------|
|---------------------------------------------------|
|---------------------------------------------------|
|-11-11-11-11-11-11-11-11-12-12-12-12-12-12-12-12---|


  S S S S  S S S S S S S S  S S S S   S S S S  S S S S S S S S S S S S
|-7-------10-----9p0-------12-------|-7-------10-----9p0-----------------|
|---0h7h8----0h7-----0h7h8----0-----|---0h7h8----0h7-----0h7h8-5h7p0h3---|
|-------------------------------6h7-|------------------------------------|
|-----------------------------------|------------------------------------|
|-----------------------------------|------------------------------------|
|-----------------------------------|------------------------------------|
|-----------------------------------|------------------------------------|
|
| S S S S  S S S S S S S S  S S S S   S S S S  S S S S S S S S S S S S
|-----------------------------------|------------------------------------|
|-----------------------------------|------------------------------------|
|-----------------------------------|------------------------------------|
|-----------------------------------|------------------------------------|
|-2-2-2-2--2-2-2-2-4-4-4-4--4-4-4-4-|-5-5-5-5--5-5-5-5-7-7-7-7-9-9-9-9---|
|-----------------------------------|------------------------------------|
|-----------------------------------|------------------------------------|


   S  S  S  S  S  S  S  S  S  S  S  S  S  S  S  S
|--7----------10--------9p=0----------12----------|
|-----0h=7h=8-----0h=7--------0h=7h=8-----0-------|
|--------------------------------------------6h=7-|
|-------------------------------------------------|
|-------------------------------------------------|
|-------------------------------------------------|
|-------------------------------------------------|
|
|  S  S  S  S  S  S  S  S  S  S  S  S  S  S  S  S
|-------------------------------------------------|
|-------------------------------------------------|
|-------------------------------------------------|
|-------------------------------------------------|
|-10-10-10-10-10-10-10-10-13-13-13-13-13-13-13-13-|
|-------------------------------------------------|
|-------------------------------------------------|


  S S S S  S S S S  S   S   S   S  S S S S
|-7-------10-----9p=0----------------------|
|---0h7h8----0h7--------0h==7h==8--5h7p0h3-|
|------------------------------------------|
|------------------------------------------|
|------------------------------------------|
|------------------------------------------|
|------------------------------------------|
|
| S S S S  S S S S  S   S   S   S  S S S S
|------------------------------------------|
|------------------------------------------|
|------------------------------------------|
|------------------------------------------|
|------------------------------------------|
|------------------(2)-(2)-(2)-(2)-2-2-2-2-|
|-0-0-0-0--0-0-0-0--0---0---0---0--0-0-0-0-|


    S S S S  S S S   S S S   S S  S S S S
||----------------------------------------|
||----------------------------------------|
||o---------------------------------------|
||--7-------10-------9p0---------12-------|
||o---0h7h8----0h7-------0h==7h8----0-----|
||------------------------------------7h8-|
||----------------------------------------|
|
|                |3|     |3|
|   S S E    E   S E   S S E   S  S S E
||----------------------------------------|
||----------------------------------------|
||o---------------------------------------|
||--2-2----------2-2-----2-2------2-2-----|
||o-0-0----------0-0-----0-0------0-0-----|
||----------------------------------------|
||----------------------------------------|


  S S S S  S S S   S   S S S S S S S S
|----------------------------------------||
|----------------------------------------||
|---------------------------------------o||
|-7-------10-------9p==0-----------------||
|---0h7h8----0h7---------0h7h8-5h7p0h3--o||
|----------------------------------------||
|----------------------------------------||
|
|              |--3--|
| S S E    E   S S   S E   E   S S E
|----------------------------------------||
|----------------------------------------||
|---------------------------------------o||
|-2-2----------2-2---2-2---2---2-2-------||
|-0-0----------0-0---0-0---0---0-0------o||
|----------------------------------------||
|----------------------------------------||


    Gtr I
     S S  S  S  S S  S    S S S    S  S  S S S  S
||---7---------10---------9p0-----------12--------|
||-----0h=7h=8----0h=7--------0h===7h=8----0------|
||o------------------------------------------6h=7-|
||------------------------------------------------|
||o-----------------------------------------------|
||------------------------------------------------|
||------------------------------------------------|
|
|   Gtr II
|    S S  S  S  S S  S    S S S    S  S  S S S  S
||--10---------14--------12p0-----------15--------|
||-----0h10h12----0h10--------0h==10h12----0------|
||o------------------------------------------9h11-|
||------------------------------------------------|
||o-----------------------------------------------|
||------------------------------------------------|
||------------------------------------------------|
|
|   Gtr III
|                    |3|      |3|
|    S S  E     E    S E    S S E     S  S S E
||------------------------------------------------|
||------------------------------------------------|
||o-----------------------------------------------|
||------------------------------------------------|
||o-----------------------------------------------|
||---2-2-------------2-2------2-2--------2-2------|
||---0-0-------------0-0------0-0--------0-0------|


   S S  S  S  S S  S    S   S S  S  S S  S S S
|--7---------10---------9p==0--------------------||
|----0h=7h=8----0h=7----------0h=7h=8-5h=7p0h3---||
|-----------------------------------------------o||
|------------------------------------------------||
|-----------------------------------------------o||
|------------------------------------------------||
|------------------------------------------------||
|
|  S S  S  S  S S  S    S   S S  S  S S  S S S
|-10---------14--------12p==0--------------------||
|----0h10h12----0h10----------0h10h12-8h10p0h7---||
|-----------------------------------------------o||
|------------------------------------------------||
|-----------------------------------------------o||
|------------------------------------------------||
|------------------------------------------------||
|
|                  |--3---|
|  S S  E     E    S S    S E    E    S  S E
|------------------------------------------------||
|------------------------------------------------||
|-----------------------------------------------o||
|------------------------------------------------||
|-----------------------------------------------o||
|--2-2-------------2-2----2-2----2----2--2-------||
|--0-0-------------0-0----0-0----0----0--0-------||


     S S  S  S  S S  S    S S S    S  S  S S  S  S
||-------------------------------------------------|
||-------------------------------------------------|
||o------------------------------------------------|
||---7---------10---------9p0-----------12---------|
||o----0h=7h=8----0h=7--------0h===7h=8----0-------|
||--------------------------------------------7h=8-|
||-------------------------------------------------|
|
|    S S  S  S  S S  S    S S S    S  S  S S  S  S
||-------------------------------------------------|
||-------------------------------------------------|
||o------------------------------------------------|
||--10---------14--------12p0-----------15---------|
||o----0h10h12----0h10--------0h==10h12----0-------|
||-------------------------------------------10h12-|
||-------------------------------------------------|
|
|                    |3|      |3|
|    S S  E     E    S E    S S E     S  S S  E
||-------------------------------------------------|
||-------------------------------------------------|
||o------------------------------------------------|
||---2-2-------------2-2------2-2--------2-2-------|
||o--0-0-------------0-0------0-0--------0-0-------|
||-------------------------------------------------|
||-------------------------------------------------|


   S S  S  S  S S  S    S   S S  S  S S  S S S
|------------------------------------------------||
|------------------------------------------------||
|-----------------------------------------------o||
|--7---------10---------9p==0--------------------||
|----0h=7h=8----0h=7----------0h=7h=8-5h=7p0h3--o||
|------------------------------------------------||
|------------------------------------------------||
|
|  S S  S  S  S S  S    S   S S  S  S S  S S S
|------------------------------------------------||
|------------------------------------------------||
|-----------------------------------------------o||
|-10---------14--------12p==0--------------------||
|----0h10h12----0h10----------0h10h12-8h10p0h7--o||
|------------------------------------------------||
|------------------------------------------------||
|
|                  |--3---|
|  S S  E     E    S S    S E    E    S  S E
|------------------------------------------------||
|------------------------------------------------||
|-----------------------------------------------o||
|--2-2-------------2-2----2-2----2----2--2-------||
|--0-0-------------0-0----0-0----0----0--0------o||
|------------------------------------------------||
|------------------------------------------------||


    Gtrs I, II
    S S S S  S S S   S S S   S S  S S S S
||--7-------10-------9p0---------12-------|
||----0h7h8----0h7-------0h==7h8----0-----|
||o-----------------------------------6h7-|
||----------------------------------------|
||o---------------------------------------|
||----------------------------------------|
||----------------------------------------|
|
|   Gtr III
|                |3|     |3|
|   S S E    E   S E   S S E   S  S S E
||----------------------------------------|
||----------------------------------------|
||o---------------------------------------|
||----------------------------------------|
||o---------------------------------------|
||--2-2----------2-2-----2-2------2-2-----|
||--0-0----------0-0-----0-0------0-0-----|


 1.
  S S S S  S S S   S   S S S S S S S S
|-7-------10-------9p==0-----------------||
|---0h7h8----0h7---------0h7h8-5h7p0h3---||
|---------------------------------------o||
|----------------------------------------||
|---------------------------------------o||
|----------------------------------------||
|----------------------------------------||
|
|              |--3--|
| S S E    E   S S   S E   E   S S E
|----------------------------------------||
|----------------------------------------||
|---------------------------------------o||
|----------------------------------------||
|---------------------------------------o||
|-2-2----------2-2---2-2---2---2-2-------||
|-0-0----------0-0---0-0---0---0-0-------||


  2.
                                        Gtr I
  S S S S  S S S   S   S S S S S S E    e e Q   H
|-7-------10-------9p==0--------------|---------------------|
|---0h7h8----0h7---------0h7h8-5h7----|---------------------|
|-------------------------------------|---------------------|
|-------------------------------------|---------------------|
|-------------------------------------|---------------------|
|----------------------------------7\-|-2-2-2---------------|
|----------------------------------7\-|-0-0-0---------------|
|
|                                       Gtr II
|              |--3--|                        |-3-|
| S S E    E   S S   S E   E   S S E    Q   E S S S e e E E
|-------------------------------------|---------------------|
|-------------------------------------|---------------------|
|-------------------------------------|---------------------|
|-------------------------------------|---------------------|
|-------------------------------------|---------------------|
|-2-2----------2-2---2-2---2---2-2----|-------2-2-2-2-2-2---|
|-0-0----------0-0---0-0---0---0-0----|-------0-0-0-0-0-0---|


    Q=166
   11/8                                            4/8
    Gtr IV
    Q   E E E  E E Q  E E   Q   E E E  E E Q  E E   Q  E E   8x
||------------------------|-----------------------|----------||
||------------------------|-----------------------|----------||
||o-----------------------|-------------------1---|----5----o||
||----------7---------6---|---------7-------------|----------||
||o----11-----11--------4-|----11-----11----------|---------o||
||--------9------9--------|-------9------9--------|----------||
||--7--------------3------|-0--------------2----2-|-6----6---||


  Q=167
  F#5             D5         B5                C#5      F5
 11/8                                                  4/8
  Gtr III
    q    q  E E E  q   q      q   q   E E   E  q   q      q   q
    |    |  | | |  |   |      |   |   | |   |  |   |      |   |
    /    /  / / /  /   /      /   /   / /   /  /   /      /   /

  Gtr I
    H..            Q.    E   +Q   Q   Q     Q.     Q      Q   S  S  E
|--------------------------|--------------------------|----------------|
|--------------------------|--------------------------|----------------|
|-/11-------------/7-----6-|-(6)--4--/6---/10-----\6--|-/13--13h14p13--|
|--------------------------|--------------------------|----------------|
|--------------------------|--------------------------|----------------|
|--------------------------|--------------------------|----------------|
|--------------------------|--------------------------|----------------|


  F#5             D5         B5             C#5            F5
 11/8                                                     4/8
    q    q  E E E  q   q      q   q   E E E  q        q     q   q
    |    |  | | |  |   |      |   |   | | |  |        |     |   |
    /    /  / / /  /   /      /   /   / / /  /        /     /   /

    H..            Q.    E   +Q   Q   Q   S  S E   Q.       Q   Q
|--------------------------|-----------------------------|--------|
|--------------------------|-----------------------------|--------|
|-/11-------------/7-----6-|-(6)--4--/6---6h10p6-\11-----|-14--13-|
|--------------------------|-----------------------------|--------|
|--------------------------|-----------------------------|--------|
|--------------------------|-----------------------------|--------|
|--------------------------|-----------------------------|--------|


       F#5              D5         B5             C#5        F5
 11/8                                                       4/8
        q     q   E E E q   q       q   q  E E  E  q    q     q     q
        |     |   | | | |   |       |   |  | |  |  |    |     |     |
        /     /   / / / /   /       /   /  / /  /  /    /     /     /

   +Q   E  E  H.            E    E  H.          E  E  Q       E  E  Q
|-----------------------------|----------------------17----|-------16-|
|------------15---------------|----17----------14-15-------|-14-15----|
|-(13)-13h14---------------13h|=14-------------------------|----------|
|-----------------------------|----------------------------|----------|
|-----------------------------|----------------------------|----------|
|-----------------------------|----------------------------|----------|
|-----------------------------|----------------------------|----------|


  F#5                                       D5
 11/8
   q           q           E     E     E     q           q
   |           |           |     |     |     |           |
   /           /           /     /     /     /           /

   S  S  S  S  S  S  S  S  S  S  S  S  S  S  S  S  S  S  S  S  S  S
|-------14-17-14-17-------------14-17-14-17----------------17-14-17-|
|-14-15-------------14-17-14-17-------------14-17-14-17-14----------|
|-------------------------------------------------------------------|
|-------------------------------------------------------------------|
|-------------------------------------------------------------------|
|-------------------------------------------------------------------|
|-------------------------------------------------------------------|


  B5                                        C#5               F5
                                                             4/8
   q           q           E     E     E     q        q         q        q
   |           |           |     |     |     |        |         |        |
   /           /           /     /     /     /        /         /        /

   S  S  S  S  S  S  S  S  S  S  S  S  S  S  S  S   Q     E    +E    E  +Q
|-------------14-17-14-17-------------14-17-14-17-----------|-----------------|
|-14-17-14-17-------------14-17-14-17-----------------------|-----------------|
|-----------------------------------------------------------|------/13-(13)---|
|-------------------------------------------------------/14-|-(14)------------|
|-------------------------------------------------/11-------|-----------------|
|-----------------------------------------------------------|-----------------|
|-----------------------------------------------------------|-----------------|


    Q=170
   11/8                                            4/8
    Gtr I
                           PM----|
    Q  E E  E E E Q  E E   S S E E E E E E Q  E E   Q  E E
||-----------------------|-----------5-7-9--------|--------|
||-----------------------|------------------------|--------|
||o----------------------|------------------------|--------|
||-----------------------|------------------------|--------|
||o--------11--------4---|------------------------|-5------|
||-----9------9----------|--------------------4-7-|----7-4-|
||--7----7------7-3----3-|-0-0-0-0-0-------6------|--------|
|
|   Gtr II
|                          PM----|
|   Q  E E  E E E Q  E E   S S E E E E E E Q  E E   Q  E E
||-----------------------|---------------5--------|--------|
||-----------------------|------------------------|--------|
||o----------------------|-----------6-7----------|--------|
||-----------------------|------------------------|--------|
||o--------11--------4---|------------------------|-5------|
||-----9------9----------|--------------------4-7-|----7-4-|
||--7----7------7-3----3-|-0-0-0-0-0-------6------|--------|


 11/8                                            4/8
                         PM----|
  Q  E E  E E E Q  E E   S S E E E E E E Q  E E   Q  E E
|----------------------|------------------------|----------||
|----------------------|------------------------|----------||
|----------------------|------------------------|---------o||
|----------------------|------------------------|----------||
|--------11--------4---|------------------------|-5-------o||
|----9------9----------|-----------4-5-7----4-7-|----7-4---||
|-7----7------7-3----3-|-0-0-0-0-0-------6------|----------||
|
|                        PM----|
| Q  E E  E E E Q  E E   S S E E E E E E Q  E E   Q  E E
|----------------------|------------------------|----------||
|----------------------|------------------------|----------||
|----------------------|------------------------|---------o||
|----------------------|------------------------|----------||
|--------11--------4---|------------------------|-5-------o||
|----9------9----------|-----------7-5-7----4-7-|----7-4---||
|-7----7------7-3----3-|-0-0-0-0-0-------6------|----------||


 4/4
  Gtr III
                PM|       PM--------------------------|
  W          Q  S S E +E  S S S S S S   S S S S S S S S E E E  E
|----------|--------------------------|---------------------------|
|----------|-5------7-(7)-------------|-----------------5-7-5-(5)-|
|----------|-7------7-(7)-------------|-----------------7-7-7--7--|
|----------|-0--0-0-0-(0)-0-0-0-0-0-0-|-0-0-0-0-0-0-0-0-0-0-0-(0)-|
|----------|--------------------------|---------------------------|
|----------|--------------------------|---------------------------|
|----------|--------------------------|---------------------------|


     PM|       PM--------------------------|
  Q  S S E +E  S S S S S S   S S S S S S S S E E E  E
|--------------------------|---------------------------|
|-6------5-(5)-------------|-----------------5-6-5-(5)-|
|-7------7-(7)-------------|-----------------7-7-7--7--|
|-8--8-8-8-(8)-8-8-8-8-8-8-|-8-8-8-8-8-8-8-8-8-8-8-(8)-|
|--------------------------|---------------------------|
|--------------------------|---------------------------|
|--------------------------|---------------------------|


     PM|       PM--------|
  Q  S S E +E  S S S S S S
|---------------------------|
|-5------7-(7)--------------|
|-7------7-(7)--------------|
|-0--0-0-0-(0)-0-0-0-0-0-0--|
|---------------------------|
|---------------------------|
|---------------------------|


  PM------------|                PM|       PM--------|
  S S S S S S S S E E E  E    Q  S S E  E  S S S S S S
|---------------------------|--------------------------|
|-----------------5-7-5-(5)-|-6------5-(5)-------------|
|-----------------7-7-7--7--|-7------3-(3)-------------|
|-0-0-0-0-0-0-0-0-0-0-0-(0)-|-8--8-8-8--8--8-8-8-8-8-8-|
|---------------------------|--------------------------|
|---------------------------|--------------------------|
|---------------------------|--------------------------|


      PM------|
   E  S  S  S  S  E  +E   Q.
|-------------------------------|
|--8--------------7--(7)--8-----|
|--9--------------9--(9)--9-----|
|-10-10-10-10-10-10-(10)-10-----|
|-------------------------------|
|-------------------------------|
|-------------------------------|


               PM|                PM----------------
   Q           S  S  E    +E      S  S  S  S  S  S
|--------------------------------------------------|
|--5-----------------7----(7)----------------------|
|--7-----------------7----(7)----------------------|
|--0-----------0--0--0----(0)-----0--0--0--0--0--0-|
|--------------------------------------------------|
|--------------------------------------------------|
|--------------------------------------------------|
|
| Gtrs I, II
|  S  S  S  S  S  S  S  S  S   S  S  S  S  S  S  S
|-14h17p14----------14h17p14-----------14h17p14----|
|----------15p14h15-----------15p14h15----------15-|
|--------------------------------------------------|
|--------------------------------------------------|
|--------------------------------------------------|
|--------------------------------------------------|
|--------------------------------------------------|


 ----------------------|
   S  S  S  S  S  S  S  S  E     E     E     E
|-------------------------------------------------|
|--------------------------5-----7-----5----(5)---|
|--------------------------7-----7-----7-----7----|
|--0--0--0--0--0--0--0--0--0-----0-----0----(0)---|
|-------------------------------------------------|
|-------------------------------------------------|
|-------------------------------------------------|
|
|  S  S  S  S  S  S  S  S  S  S  S  S  S  S  S  S
|-14h17p14----------------------------------14h17-|
|----------15p14----------------------14h15-------|
|----------------14----------------14-------------|
|-------------------16p12-11h12-16----------------|
|-------------------------------------------------|
|-------------------------------------------------|
|-------------------------------------------------|


               PM|                PM----------------
   Q           S  S  E    +E      S  S  S  S  S  S
|--------------------------------------------------|
|--6-----------------5----(5)----------------------|
|--7-----------------7----(7)----------------------|
|--8-----------8--8--8----(8)-----8--8--8--8--8--8-|
|--------------------------------------------------|
|--------------------------------------------------|
|--------------------------------------------------|
|
|  S  S  S  S  S  S  S  S  S   S  S  S  S  S  S  S
|-10h13p10----------10h13p10-----------10h13p10----|
|----------11p10h11-----------11p10h11----------11-|
|--------------------------------------------------|
|--------------------------------------------------|
|--------------------------------------------------|
|--------------------------------------------------|
|--------------------------------------------------|


 ----------------------|
   S  S  S  S  S  S  S S E    E     E     E
|----------------------------------------------|
|------------------------5----6-----5----(5)---|
|------------------------7----7-----7-----7----|
|--8--8--8--8--8--8--8-8-8----8-----8----(8)---|
|----------------------------------------------|
|----------------------------------------------|
|----------------------------------------------|
|
|  S  S  S  S  S  S  S S S S  S  S  S  S  S  S
|-10h13p10-------------------------------10h13-|
|----------11p10-------------------10h11-------|
|----------------10-------------10-------------|
|-------------------12p8-7h8-12----------------|
|----------------------------------------------|
|----------------------------------------------|
|----------------------------------------------|


               PM|                PM----------------
   Q           S  S  E    +E      S  S  S  S  S  S
|--------------------------------------------------|
|--5-----------------7----(7)----------------------|
|--7-----------------7----(7)----------------------|
|--0-----------0--0--0----(0)-----0--0--0--0--0--0-|
|--------------------------------------------------|
|--------------------------------------------------|
|--------------------------------------------------|
|
|  S  S  S  S  S  S  S  S  S   S  S  S  S  S  S  S
|-14h17p14----------14h17p14-----------14h17p14----|
|----------15p14h15-----------15p14h15----------15-|
|--------------------------------------------------|
|--------------------------------------------------|
|--------------------------------------------------|
|--------------------------------------------------|
|--------------------------------------------------|


 ----------------------|
   S  S  S  S  S  S  S  S  E     E     E     E
|-------------------------------------------------|
|--------------------------5-----7-----5----(5)---|
|--------------------------7-----7-----7-----7----|
|--0--0--0--0--0--0--0--0--0-----0-----0----(0)---|
|-------------------------------------------------|
|-------------------------------------------------|
|-------------------------------------------------|
|
|  S  S  S  S  S  S  S  S  S  S  S  S  S  S  S  S
|-14h17p14----------------------------------14h17-|
|----------15p14----------------------14h15-------|
|----------------14----------------14-------------|
|-------------------16p12-11h12-16----------------|
|-------------------------------------------------|
|-------------------------------------------------|
|-------------------------------------------------|


               PM|             PM------------|
   Q           S  S  E    E    S  S  S  S  S  S
|-----------------------------------------------|
|--6-----------------5---(5)--------------------|
|--7-----------------3---(3)--------------------|
|--8-----------8--8--8----8----8--8--8--8--8--8-|
|-----------------------------------------------|
|-----------------------------------------------|
|-----------------------------------------------|
|
|  S  S  S  S  S  S  S S  S S  S  S  S  S  S  S
|-10h13p10--------------------------------10h13-|
|----------11p10--------------------10h11-------|
|----------------10--------------10-------------|
|-------------------12p8--7h8-12----------------|
|-----------------------------------------------|
|-----------------------------------------------|
|-----------------------------------------------|


         PM------|
   E     S  S  S  S  E     +E     Q.
|---------------------------------------------------|
|--8-----------------7-----(7)----8-----------------|
|--9-----------------9-----(9)----9-----------------|
|-10----10-10-10-10-10----(10)---10-----------------|
|---------------------------------------------------|
|---------------------------------------------------|
|---------------------------------------------------|
|
|  S  S  S  S  S  S  S  S   S  S  S   S  S  S  S  S
|-12h15p12------------------------------------12h15-|
|----------13p12------------------------12h13-------|
|----------------12------------------12-------------|
|-------------------14p10---9h10-14-----------------|
|---------------------------------------------------|
|---------------------------------------------------|
|---------------------------------------------------|


                 PM|               PM----------------
     Q           S  S  E    +E     S  S  S  S  S  S
||--------------------------------------------------|
||---5-----------------7----(7)---------------------|
||o--7-----------------7----(7)---------------------|
||---0-----------0--0--0----(0)----0--0--0--0--0--0-|
||o-------------------------------------------------|
||--------------------------------------------------|
||--------------------------------------------------|
|
|    S  S  S  S  S  S  S  S  S  S  S  S  S  S  S  S
||--17p14----------14h17p14----------14h17p14-------|
||--------15p14h15----------15p14h15----------15p14-|
||o-------------------------------------------------|
||--------------------------------------------------|
||o-------------------------------------------------|
||--------------------------------------------------|
||--------------------------------------------------|


 ----------------------|
   S  S  S  S  S  S  S  S  E     E     E     E
|--------------------------------------------------|
|--------------------------5-----7-----5----(5)----|
|--------------------------7-----7-----7-----7-----|
|--0--0--0--0--0--0--0--0--0-----0-----0----(0)----|
|--------------------------------------------------|
|--------------------------------------------------|
|--------------------------------------------------|
|
|  S  S  S  S  S  S  S  S  S  S  S  S  S  S  S  S
|-------------------------17p14-------17p14--------|
|----------------------15-------15p14-------15p14--|
|-14----------------14-----------------------------|
|----16----------16--------------------------------|
|-------17p16h17-----------------------------------|
|--------------------------------------------------|
|--------------------------------------------------|


               PM|                PM----------------
   Q           S  S  E    +E      S  S  S  S  S  S
|--------------------------------------------------|
|--6-----------------5----(5)----------------------|
|--7-----------------7----(7)----------------------|
|--8-----------8--8--8----(8)-----8--8--8--8--8--8-|
|--------------------------------------------------|
|--------------------------------------------------|
|--------------------------------------------------|
|
|  S  S  S  S  S  S  S  S  S   S  S  S  S  S  S  S
|-18p15----------15h18p15--------------------------|
|-------17----17----------17-----------------------|
|----------17-----------------17-14----------14----|
|-----------------------------------15p14h15----15-|
|--------------------------------------------------|
|--------------------------------------------------|
|--------------------------------------------------|


 ----------------------|
   S  S  S  S  S  S  S  S  E     E     E     E
|--------------------------------------------------|
|--------------------------5-----6-----5----(5)----|
|--------------------------7-----7-----7-----7-----|
|--8--8--8--8--8--8--8--8--8-----8-----8----(8)----|
|--------------------------------------------------|
|--------------------------------------------------|
|--------------------------------------------------|
|
|  S  S  S  S  S  S  S  S  S  S  S  S  S  S  S   S
|--------------------------------------------------|
|-------15----17p13----13h18p13-----------------13-|
|----17----17-------14----------14----------14-----|
|-17-------------------------------15p14h15--------|
|--------------------------------------------------|
|--------------------------------------------------|
|--------------------------------------------------|


               PM|               PM----------------
   Q           S  S  E    +E     S  S  S  S  S  S
|-------------------------------------------------|
|--5-----------------7----(7)---------------------|
|--7-----------------7----(7)---------------------|
|--0-----------0--0--0----(0)----0--0--0--0--0--0-|
|-------------------------------------------------|
|-------------------------------------------------|
|-------------------------------------------------|
|
|  S  S  S  S  S  S  S  S  S  S  S  S  S  S  S  S
|-17p14----------14h17p14----------14h17p14-------|
|-------15p14h15----------15p14h15----------15p14-|
|-------------------------------------------------|
|-------------------------------------------------|
|-------------------------------------------------|
|-------------------------------------------------|
|-------------------------------------------------|


 ----------------------|
   S  S  S  S  S  S  S  S     E     E        E     E
|-------------------------------------------------------|
|-----------------------------5-----7--------5----(5)---|
|-----------------------------7-----7--------7-----7----|
|--0--0--0--0--0--0--0--0-----0-----0--------0----(0)---|
|-------------------------------------------------------|
|-------------------------------------------------------|
|-------------------------------------------------------|
|
|  S  S  S  S  S  S  S  S  T  T  S  S  S  T  T  S  S  S
|-------------------------14h17p14-------14h17p14-------|
|----------------------15----------15p14----------15p14-|
|-14----------------14----------------------------------|
|----16----------16-------------------------------------|
|-------17p16h17----------------------------------------|
|-------------------------------------------------------|
|-------------------------------------------------------|


               PM|                PM------------|
   Q           S  S  E     E      S  S  S  S  S  S
|--------------------------------------------------|
|--6-----------------5----(5)----------------------|
|--7-----------------3----(3)----------------------|
|--8-----------8--8--8-----8------8--8--8--8--8--8-|
|--------------------------------------------------|
|--------------------------------------------------|
|--------------------------------------------------|
|
|  S  S  S  S  S  S  S  S  S   S  S  S  S  S  S  S
|-18p15----------15h18p15-----------15h18p15-------|
|-------17----17----------17-----17----------17----|
|----------17-----------------17----------------17-|
|--------------------------------------------------|
|--------------------------------------------------|
|--------------------------------------------------|
|--------------------------------------------------|


         PM------|
   E     S  S  S  S  E     +E      Q.
|----------------------------------------------------||
|--8-----------------7-----(7)-----8-----------------||
|--9-----------------9-----(9)-----9----------------o||
|-10----10-10-10-10-10----(10)----10-----------------||
|---------------------------------------------------o||
|----------------------------------------------------||
|----------------------------------------------------||
|
|  S  S  S  S  S  S  S  S   S   S  S  S  S  S  S  S
|----------------------------------------------------||
|-17p13----------13h17p13------13h18p13--------------||
|-------14----14-----------14-----------14----------o||
|----------15------------------------------15-12-----||
|------------------------------------------------12-o||
|----------------------------------------------------||
|----------------------------------------------------||


    Q=136
    Gtrs I, II
     S S S  S S S  S S S  S S S  S S  S S
||--12p0-0-12p0-0-12p0-0-10p0-0-13p0-12p0-|
||----------------------------------------|
||o---------------------------------------|
||----------------------------------------|
||o---------------------------------------|
||----------------------------------------|
||----------------------------------------|
|
|   Gtr III
|    S S S  S S S  S E    S S S  S S  S S
||----------------------------------------|
||----------------------------------------|
||o---------------------------------------|
||----------------------------------------|
||o--7-7-7--7-7-7--7-7----7-7-7--7-7--7-7-|
||----------------------------------------|
||----------------------------------------|


  S S  S S  S S S S S S  S S S S S S
|-8p0-10p0-12p0-7p0-8p0-10p0-5p0-7p0--|
|-------------------------------------|
|-------------------------------------|
|-------------------------------------|
|-------------------------------------|
|-------------------------------------|
|-------------------------------------|
|
| S S  S S  S S S E   S  S S S S S S
|-------------------------------------|
|-------------------------------------|
|-------------------------------------|
|-------------------------------------|
|-7-7--7-7--7-7-7-7---7--7-7-7-7-7-7--|
|-------------------------------------|
|-------------------------------------|


   S S S  S S S  S S S  S S S  S S  S S
|-12p0-0-12p0-0-12p0-0-10p0-0-13p0-12p0-|
|---------------------------------------|
|---------------------------------------|
|---------------------------------------|
|---------------------------------------|
|---------------------------------------|
|---------------------------------------|
|
|  S S S  S S S  S E    S S S  S S  S S
|---------------------------------------|
|---------------------------------------|
|---------------------------------------|
|---------------------------------------|
|--7-7-7--7-7-7--7-7----7-7-7--7-7--7-7-|
|---------------------------------------|
|---------------------------------------|


                                |----3----|
   S S  S S  S S  S S  S S  S S S S S S S S
|-17p0-16p0-13p0-16p0-12p0-13p0-4h5p4h5p4h5----||
|----------------------------------------------||
|---------------------------------------------o||
|----------------------------------------------||
|---------------------------------------------o||
|----------------------------------------------||
|----------------------------------------------||
|
|  S S  S S  S S  S E    S  S S S S S S
|----------------------------------------------||
|----------------------------------------------||
|---------------------------------------------o||
|----------------------------------------------||
|--7-7--7-7--7-7--7-7----7--7-7-7-7-7-7-------o||
|----------------------------------------------||
|----------------------------------------------||


     S S S  S S S  S   S  S S   S  S S S  S S
||--20p0-0-20p0-0-20p==0-19p0---0-19p0-0-19p0-|
||--------------------------------------------|
||o-------------------------------------------|
||--------------------------------------------|
||o-------------------------------------------|
||--------------------------------------------|
||--------------------------------------------|
|
|                  |3|      |3|
|    S S E    E    S E    S S E    S S S  E
||--------------------------------------------|
||--------------------------------------------|
||o-------------------------------------------|
||--------------------------------------------|
||o--2-2-----------2-2------2-2------2-2------|
||---0-0-----------0-0------0-0------0-0------|
||--------------------------------------------|


   |----------------3-----------------|  |---------------3---------------|
   S  S    S  S  S  S  S  S  S  S  S  S  S  S  S  S  S  S  S  S   S  S S S
|-22p20p==19-20p19p17-19p17p16-17p16p13-16p13p12-13p12p10-12p10p==8-10p8p7--|
|---------------------------------------------------------------------------|
|---------------------------------------------------------------------------|
|---------------------------------------------------------------------------|
|---------------------------------------------------------------------------|
|---------------------------------------------------------------------------|
|---------------------------------------------------------------------------|
|
|                               |--3--|
|  S    S     E        E        S  S  S  E        E        S    S    E
|---------------------------------------------------------------------------|
|---------------------------------------------------------------------------|
|---------------------------------------------------------------------------|
|---------------------------------------------------------------------------|
|--2----2-----------------------2--2--2--2--------2--------2----2-----------|
|--0----0-----------------------0--0--0--0--------0--------0----0-----------|
|---------------------------------------------------------------------------|


   S S S  S S S  S   S  S S   S  S S S  S S
|-17-0-0-17-0-0-17---0-16-0---0-16-0-0-16-0-|
|-------------------------------------------|
|-------------------------------------------|
|-------------------------------------------|
|-------------------------------------------|
|-------------------------------------------|
|-------------------------------------------|
|
|                |3|      |3|
|  S S E    E    S E    S S E    S S S  E
|-------------------------------------------|
|-------------------------------------------|
|-------------------------------------------|
|-------------------------------------------|
|--2-2-----------2-2------2-2------2-2------|
|--0-0-----------0-0------0-0------0-0------|
|-------------------------------------------|


   |----------------3-----------------|  |------------3------------|
   S  S    S  S  S  S  S  S  S  S  S  S  S  S S  S S S S S   S S S S
|-19p17p==16-17p16p13-16p13p12-13p12p10-12p10p8-10p8p7-8p7p==5-7p5p4----||
|-----------------------------------------------------------------------||
|----------------------------------------------------------------------o||
|-----------------------------------------------------------------------||
|----------------------------------------------------------------------o||
|-----------------------------------------------------------------------||
|-----------------------------------------------------------------------||
|
|                               |--3--|
|  S    S     E        E        S  S  S  E       E     S   S   E
|-----------------------------------------------------------------------||
|-----------------------------------------------------------------------||
|----------------------------------------------------------------------o||
|-----------------------------------------------------------------------||
|--2----2-----------------------2--2--2--2-------2-----2---2-----------o||
|--0----0-----------------------0--0--0--0-------0-----0---0------------||
|-----------------------------------------------------------------------||


  S S S S  S S S S S S S S  S S S S   S S S S  S S S S S S S S S S S S
|-7-------10-----9p0-------12-------|-7-------10-----9p0-----------------|
|---0h7h8----0h7-----0h7h8----0-----|---0h7h8----0h7-----0h7h8-5h7p0h3---|
|-------------------------------6h7-|------------------------------------|
|-----------------------------------|------------------------------------|
|-----------------------------------|------------------------------------|
|-----------------------------------|------------------------------------|
|-----------------------------------|------------------------------------|
|
| S S S S  S S S S S S S S  S S S S   S S S S  S S S S S S S S S S S S
|-----------------------------------|------------------------------------|
|-----------------------------------|------------------------------------|
|-----------------------------------|------------------------------------|
|-----------------------------------|------------------------------------|
|-----------------------------------|------------------------------------|
|-----------------------------------|------------------------------------|
|-0-0-0-0--0-0-0-0-2-2-2-2--2-2-2-2-|-3-3-3-3--3-3-3-3-5-5-5-5-5-5-5-5---|


  S S S S  S S S S S S S S  S S S S
|-7-------10-----9p0-------12-------|
|---0h7h8----0h7-----0h7h8----0-----|
|-------------------------------6h7-|
|-----------------------------------|
|-----------------------------------|
|-----------------------------------|
|-----------------------------------|
|
| S S S S  S S S S S S S S  S S S S
|-----------------------------------|
|-----------------------------------|
|-----------------------------------|
|-----------------------------------|
|-----------------------------------|
|-----------------------------------|
|-7-7-7-7--7-7-7-7-8-8-8-8--8-8-8-8-|


   S  S  S  S  S  S  S  S  S  S  S  S  S  S  S  S
|--7----------10--------9p=0------------------------|
|-----0h=7h=8-----0h=7--------0h=7h=8--5h=7p=0h=3---|
|---------------------------------------------------|
|---------------------------------------------------|
|---------------------------------------------------|
|---------------------------------------------------|
|---------------------------------------------------|
|
|  S  S  S  S  S  S  S  S  S  S  S  S  S  S  S  S
|---------------------------------------------------|
|---------------------------------------------------|
|---------------------------------------------------|
|---------------------------------------------------|
|---------------------------------------------------|
|---------------------------------------------------|
|-11-11-11-11-11-11-11-11-12-12-12-12-12-12-12-12---|


  S S S S  S S S S S S S S  S S S S   S S S S  S S S S S S S S S S S S
|-7-------10-----9p0-------12-------|-7-------10-----9p0-----------------|
|---0h7h8----0h7-----0h7h8----0-----|---0h7h8----0h7-----0h7h8-5h7p0h3---|
|-------------------------------6h7-|------------------------------------|
|-----------------------------------|------------------------------------|
|-----------------------------------|------------------------------------|
|-----------------------------------|------------------------------------|
|-----------------------------------|------------------------------------|
|
| S S S S  S S S S S S S S  S S S S   S S S S  S S S S S S S S S S S S
|-----------------------------------|------------------------------------|
|-----------------------------------|------------------------------------|
|-----------------------------------|------------------------------------|
|-----------------------------------|------------------------------------|
|-2-2-2-2--2-2-2-2-4-4-4-4--4-4-4-4-|-5-5-5-5--5-5-5-5-7-7-7-7-9-9-9-9---|
|-----------------------------------|------------------------------------|
|-----------------------------------|------------------------------------|


   S  S  S  S  S  S  S  S  S  S  S  S  S  S  S  S
|--7----------10--------9p=0----------12----------|
|-----0h=7h=8-----0h=7--------0h=7h=8-----0-------|
|--------------------------------------------6h=7-|
|-------------------------------------------------|
|-------------------------------------------------|
|-------------------------------------------------|
|-------------------------------------------------|
|
|  S  S  S  S  S  S  S  S  S  S  S  S  S  S  S  S
|-------------------------------------------------|
|-------------------------------------------------|
|-------------------------------------------------|
|-------------------------------------------------|
|-10-10-10-10-10-10-10-10-13-13-13-13-13-13-13-13-|
|-------------------------------------------------|
|-------------------------------------------------|


  S S S S  S S S S S S S S S S S S
|-7-------10-----9p0-----------------|
|---0h7h8----0h7-----0h7h8-5h7p0h3---|
|------------------------------------|
|------------------------------------|
|------------------------------------|
|------------------------------------|
|------------------------------------|
|
| S S S S  S S S S S S S S S S S S
|------------------------------------|
|------------------------------------|
|------------------------------------|
|------------------------------------|
|------------------------------------|
|------------------------------------|
|-0-0-0-0--0-0-0-0-0-0-0-0-0-0-0-0---|


    S S S S  S S S   S S S   S S  S S S S
||----------------------------------------|
||----------------------------------------|
||o---------------------------------------|
||--7-------10-------9p0---------12-------|
||o---0h7h8----0h7-------0h==7h8----0-----|
||------------------------------------7h8-|
||----------------------------------------|
|
|                |3|     |3|
|   S S E    E   S E   S S E   S  S S E
||----------------------------------------|
||----------------------------------------|
||o---------------------------------------|
||--2-2----------2-2-----2-2------2-2-----|
||o-0-0----------0-0-----0-0------0-0-----|
||----------------------------------------|
||----------------------------------------|


  S S S S  S S S   S   S S S S S S S S
|----------------------------------------||
|----------------------------------------||
|---------------------------------------o||
|-7-------10-------9p==0-----------------||
|---0h7h8----0h7---------0h7h8-5h7p0h3--o||
|----------------------------------------||
|----------------------------------------||
|
|              |--3--|
| S S E    E   S S   S E   E   S S E
|----------------------------------------||
|----------------------------------------||
|---------------------------------------o||
|-2-2----------2-2---2-2---2---2-2-------||
|-0-0----------0-0---0-0---0---0-0------o||
|----------------------------------------||
|----------------------------------------||


    Gtr I
     S S  S  S  S S  S    S S S    S  S  S S S  S
||---7---------10---------9p0-----------12--------|
||-----0h=7h=8----0h=7--------0h===7h=8----0------|
||o------------------------------------------6h=7-|
||------------------------------------------------|
||o-----------------------------------------------|
||------------------------------------------------|
||------------------------------------------------|
|
|   Gtr II
|    S S  S  S  S S  S    S S S    S  S  S S S  S
||--10---------14--------12p0-----------15--------|
||-----0h10h12----0h10--------0h==10h12----0------|
||o------------------------------------------9h11-|
||------------------------------------------------|
||o-----------------------------------------------|
||------------------------------------------------|
||------------------------------------------------|
|
|   Gtr III
|                    |3|      |3|
|    S S  E     E    S E    S S E     S  S S E
||------------------------------------------------|
||------------------------------------------------|
||o-----------------------------------------------|
||------------------------------------------------|
||o-----------------------------------------------|
||---2-2-------------2-2------2-2--------2-2------|
||---0-0-------------0-0------0-0--------0-0------|


   S S  S  S  S S  S    S   S S  S  S S  S S S
|--7---------10---------9p==0--------------------||
|----0h=7h=8----0h=7----------0h=7h=8-5h=7p0h3---||
|-----------------------------------------------o||
|------------------------------------------------||
|-----------------------------------------------o||
|------------------------------------------------||
|------------------------------------------------||
|
|  S S  S  S  S S  S    S   S S  S  S S  S S S
|-10---------14--------12p==0--------------------||
|----0h10h12----0h10----------0h10h12-8h10p0h7---||
|-----------------------------------------------o||
|------------------------------------------------||
|-----------------------------------------------o||
|------------------------------------------------||
|------------------------------------------------||
|
|                  |--3---|
|  S S  E     E    S S    S E    E    S  S E
|------------------------------------------------||
|------------------------------------------------||
|-----------------------------------------------o||
|------------------------------------------------||
|-----------------------------------------------o||
|--2-2-------------2-2----2-2----2----2--2-------||
|--0-0-------------0-0----0-0----0----0--0-------||


     S S  S  S  S S  S    S S S    S  S  S S  S  S
||-------------------------------------------------|
||-------------------------------------------------|
||o------------------------------------------------|
||---7---------10---------9p0-----------12---------|
||o----0h=7h=8----0h=7--------0h===7h=8----0-------|
||--------------------------------------------7h=8-|
||-------------------------------------------------|
|
|    S S  S  S  S S  S    S S S    S  S  S S  S  S
||-------------------------------------------------|
||-------------------------------------------------|
||o------------------------------------------------|
||--10---------14--------12p0-----------15---------|
||o----0h10h12----0h10--------0h==10h12----0-------|
||-------------------------------------------10h12-|
||-------------------------------------------------|
|
|                    |3|      |3|
|    S S  E     E    S E    S S E     S  S S  E
||-------------------------------------------------|
||-------------------------------------------------|
||o------------------------------------------------|
||---2-2-------------2-2------2-2--------2-2-------|
||o--0-0-------------0-0------0-0--------0-0-------|
||-------------------------------------------------|
||-------------------------------------------------|


   S S  S  S  S S  S    S   S S  S  S S  S S S
|------------------------------------------------||
|------------------------------------------------||
|-----------------------------------------------o||
|--7---------10---------9p==0--------------------||
|----0h=7h=8----0h=7----------0h=7h=8-5h=7p0h3--o||
|------------------------------------------------||
|------------------------------------------------||
|
|  S S  S  S  S S  S    S   S S  S  S S  S S S
|------------------------------------------------||
|------------------------------------------------||
|-----------------------------------------------o||
|-10---------14--------12p==0--------------------||
|----0h10h12----0h10----------0h10h12-8h10p0h7--o||
|------------------------------------------------||
|------------------------------------------------||
|
|                  |--3---|
|  S S  E     E    S S    S E    E    S  S E
|------------------------------------------------||
|------------------------------------------------||
|-----------------------------------------------o||
|--2-2-------------2-2----2-2----2----2--2-------||
|--0-0-------------0-0----0-0----0----0--0------o||
|------------------------------------------------||
|------------------------------------------------||


     S S  S  S  S S  S    S S S    S  S  S S S  S
||---7---------10---------9p0-----------12--------|
||-----0h=7h=8----0h=7--------0h===7h=8----0------|
||o------------------------------------------6h=7-|
||------------------------------------------------|
||o-----------------------------------------------|
||------------------------------------------------|
||------------------------------------------------|
|
|    S S  S  S  S S  S    S S S    S  S  S S S  S
||--10---------14--------12p0-----------15--------|
||-----0h10h12----0h10--------0h==10h12----0------|
||o------------------------------------------9h11-|
||------------------------------------------------|
||o-----------------------------------------------|
||------------------------------------------------|
||------------------------------------------------|
|
|                    |3|      |3|
|    S S  E     E    S E    S S E     S  S S E
||------------------------------------------------|
||------------------------------------------------|
||o-----------------------------------------------|
||------------------------------------------------|
||o-----------------------------------------------|
||---2-2-------------2-2------2-2--------2-2------|
||---0-0-------------0-0------0-0--------0-0------|


   S S  S  S  S S  S    S   S S  S  S S  S S S
|--7---------10---------9p==0--------------------||
|----0h=7h=8----0h=7----------0h=7h=8-5h=7p0h3---||
|-----------------------------------------------o||
|------------------------------------------------||
|-----------------------------------------------o||
|------------------------------------------------||
|------------------------------------------------||
|
|  S S  S  S  S S  S    S   S S  S  S S  S S S
|-10---------14--------12p==0--------------------||
|----0h10h12----0h10----------0h10h12-8h10p0h7---||
|-----------------------------------------------o||
|------------------------------------------------||
|-----------------------------------------------o||
|------------------------------------------------||
|------------------------------------------------||
|
|                  |--3---|
|  S S  E     E    S S    S E    E    S  S E
|------------------------------------------------||
|------------------------------------------------||
|-----------------------------------------------o||
|------------------------------------------------||
|-----------------------------------------------o||
|--2-2-------------2-2----2-2----2----2--2-------||
|--0-0-------------0-0----0-0----0----0--0-------||


    Gtrs I, II
    S S S S  S S S   S S S   S S  S S S S
||----------------------------------------|
||----------------------------------------|
||o---------------------------------------|
||--7-------10-------9p0---------12-------|
||o---0h7h8----0h7-------0h==7h8----0-----|
||------------------------------------7h8-|
||----------------------------------------|
|
|   Gtr III
|                |3|     |3|
|   S S E    E   S E   S S E   S  S S E
||----------------------------------------|
||----------------------------------------|
||o---------------------------------------|
||--2-2----------2-2-----2-2------2-2-----|
||o-0-0----------0-0-----0-0------0-0-----|
||----------------------------------------|
||----------------------------------------|


  S S S S  S S S   S   S S S S S S S S
|----------------------------------------||
|----------------------------------------||
|---------------------------------------o||
|-7-------10-------9p==0-----------------||
|---0h7h8----0h7---------0h7h8-5h7p0h3--o||
|----------------------------------------||
|----------------------------------------||
|
|              |--3--|
| S S E    E   S S   S E   E   S S E
|----------------------------------------||
|----------------------------------------||
|---------------------------------------o||
|-2-2----------2-2---2-2---2---2-2-------||
|-0-0----------0-0---0-0---0---0-0------o||
|----------------------------------------||
|----------------------------------------||


    Gtr I
     S S  S  S  S S  S    S S S    S  S  S S S  S
||---7---------10---------9p0-----------12--------|
||-----0h=7h=8----0h=7--------0h===7h=8----0------|
||o------------------------------------------6h=7-|
||------------------------------------------------|
||o-----------------------------------------------|
||------------------------------------------------|
||------------------------------------------------|
|
|   Gtr II
|    S S  S  S  S S  S    S S S    S  S  S S S  S
||--10---------14--------12p0-----------15--------|
||-----0h10h12----0h10--------0h==10h12----0------|
||o------------------------------------------9h11-|
||------------------------------------------------|
||o-----------------------------------------------|
||------------------------------------------------|
||------------------------------------------------|
|
|   Gtr III
|                    |3|      |3|
|    S S  E     E    S E    S S E     S  S S E
||------------------------------------------------|
||------------------------------------------------|
||o-----------------------------------------------|
||------------------------------------------------|
||o-----------------------------------------------|
||---2-2-------------2-2------2-2--------2-2------|
||---0-0-------------0-0------0-0--------0-0------|


   S S  S  S  S S  S    S   S S  S  S S  S S S
|--7---------10---------9p==0--------------------||
|----0h=7h=8----0h=7----------0h=7h=8-5h=7p0h3---||
|-----------------------------------------------o||
|------------------------------------------------||
|-----------------------------------------------o||
|------------------------------------------------||
|------------------------------------------------||
|
|  S S  S  S  S S  S    S   S S  S  S S  S S S
|-10---------14--------12p==0--------------------||
|----0h10h12----0h10----------0h10h12-8h10p0h7---||
|-----------------------------------------------o||
|------------------------------------------------||
|-----------------------------------------------o||
|------------------------------------------------||
|------------------------------------------------||
|
|                  |--3---|
|  S S  E     E    S S    S E    E    S  S E
|------------------------------------------------||
|------------------------------------------------||
|-----------------------------------------------o||
|------------------------------------------------||
|-----------------------------------------------o||
|--2-2-------------2-2----2-2----2----2--2-------||
|--0-0-------------0-0----0-0----0----0--0-------||


     S S  S  S  S S  S    S S S    S  S  S S  S  S
||-------------------------------------------------|
||-------------------------------------------------|
||o------------------------------------------------|
||---7---------10---------9p0-----------12---------|
||o----0h=7h=8----0h=7--------0h===7h=8----0-------|
||--------------------------------------------7h=8-|
||-------------------------------------------------|
|
|    S S  S  S  S S  S    S S S    S  S  S S  S  S
||-------------------------------------------------|
||-------------------------------------------------|
||o------------------------------------------------|
||--10---------14--------12p0-----------15---------|
||o----0h10h12----0h10--------0h==10h12----0-------|
||-------------------------------------------10h12-|
||-------------------------------------------------|
|
|                    |3|      |3|
|    S S  E     E    S E    S S E     S  S S  E
||-------------------------------------------------|
||-------------------------------------------------|
||o------------------------------------------------|
||---2-2-------------2-2------2-2--------2-2-------|
||o--0-0-------------0-0------0-0--------0-0-------|
||-------------------------------------------------|
||-------------------------------------------------|


   S S  S  S  S S  S    S   S S  S  S S  S S S
|------------------------------------------------||
|------------------------------------------------||
|-----------------------------------------------o||
|--7---------10---------9p==0--------------------||
|----0h=7h=8----0h=7----------0h=7h=8-5h=7p0h3--o||
|------------------------------------------------||
|------------------------------------------------||
|
|  S S  S  S  S S  S    S   S S  S  S S  S S S
|------------------------------------------------||
|------------------------------------------------||
|-----------------------------------------------o||
|-10---------14--------12p==0--------------------||
|----0h10h12----0h10----------0h10h12-8h10p0h7--o||
|------------------------------------------------||
|------------------------------------------------||
|
|                  |--3---|
|  S S  E     E    S S    S E    E    S  S E
|------------------------------------------------||
|------------------------------------------------||
|-----------------------------------------------o||
|--2-2-------------2-2----2-2----2----2--2-------||
|--0-0-------------0-0----0-0----0----0--0------o||
|------------------------------------------------||
|------------------------------------------------||


     S S  S  S  S S  S    S S S    S  S  S S S  S
||---7---------10---------9p0-----------12--------|
||-----0h=7h=8----0h=7--------0h===7h=8----0------|
||o------------------------------------------6h=7-|
||------------------------------------------------|
||o-----------------------------------------------|
||------------------------------------------------|
||------------------------------------------------|
|
|    S S  S  S  S S  S    S S S    S  S  S S S  S
||--10---------14--------12p0-----------15--------|
||-----0h10h12----0h10--------0h==10h12----0------|
||o------------------------------------------9h11-|
||------------------------------------------------|
||o-----------------------------------------------|
||------------------------------------------------|
||------------------------------------------------|
|
|                    |3|      |3|
|    S S  E     E    S E    S S E     S  S S E
||------------------------------------------------|
||------------------------------------------------|
||o-----------------------------------------------|
||------------------------------------------------|
||o-----------------------------------------------|
||---2-2-------------2-2------2-2--------2-2------|
||---0-0-------------0-0------0-0--------0-0------|


   S S  S  S  S S  S    S   S S  S  S S  S S S
|--7---------10---------9p==0--------------------||
|----0h=7h=8----0h=7----------0h=7h=8-5h=7p0h3---||
|-----------------------------------------------o||
|------------------------------------------------||
|-----------------------------------------------o||
|------------------------------------------------||
|------------------------------------------------||
|
|  S S  S  S  S S  S    S   S S  S  S S  S S S
|-10---------14--------12p==0--------------------||
|----0h10h12----0h10----------0h10h12-8h10p0h7---||
|-----------------------------------------------o||
|------------------------------------------------||
|-----------------------------------------------o||
|------------------------------------------------||
|------------------------------------------------||
|
|                  |--3---|
|  S S  E     E    S S    S E    E    S  S E
|------------------------------------------------||
|------------------------------------------------||
|-----------------------------------------------o||
|------------------------------------------------||
|-----------------------------------------------o||
|--2-2-------------2-2----2-2----2----2--2-------||
|--0-0-------------0-0----0-0----0----0--0-------||




--------------------------------------------------------------------------------


Duration Legend
---------------
W - whole; H - half; Q - quarter; E - 8th; S - 16th; T - 32nd; X - 64th; a - acciaccatura
+ - note tied to previous; . - note dotted; .. - note double dotted
Uncapitalized letters represent notes that are staccato (1/2 duration)
Irregular groupings are notated above the duration line
Duration letters will always appear directly above the note/fret number it represents the
duration for.  Duration letters with no fret number below them represent rests.  Multi-
bar rests are notated in the form Wxn, where n is the number of bars to rest for.  Low
melody durations appear below the staff

Tablature Legend
----------------
 h   - hammer-on
 p   - pull-off
 b   - bend
 pb  - pre-bend
 r   - bend release (if no number after the r, then release immediately)
 /\  - slide into or out of (from/to "nowhere")
 s   - legato slide
 S   - shift slide
<n> - natural harmonic
[n]  - artificial harmonic
n(n) - tapped harmonic
 ~   - vibrato
 tr  - trill
 T   - tap
 TP  - trem. picking
 PM  - palm muting
\n/  - tremolo bar dip; n = amount to dip
 \n  - tremolo bar down
 n/  - tremolo bar up
/n\  - tremolo bar inverted dip
 =   - hold bend; also acts as connecting device for hammers/pulls
 <> - volume swell (louder/softer)
 x   - on rhythm slash represents muted slash
 o   - on rhythm slash represents single note slash

Misc Legend
-----------
 |  - bar
||  - double bar
||o - repeat start
o|| - repeat end
*|  - double bar (ending)
 :  - bar (freetime)
 $  - Segno
 &  - Coda
Tempo markers - <E/E./Q/Q./H/H.> = BPM(8/16=s8/s16), where s8 = swing 8ths, s16 = swing 16ths


comments
print report bad tab
26 comments total. Showing first comments. show 1 bad comment
+1 reply
shugo449 wrote on March 19 2007, 04:00 pm

amazing

+1 reply
shugo449 wrote on March 19 2007, 04:08 pm

dude your a psyco this must of taken 4ever ur crazy

I want to post or [tab]
guest
You may want to rate the tab now too:
select rating
Please do not post tabs as comments. Select "correction" instead!