Oops, an error
Loading. Please wait.

Decieved Tab

ver2
ver2

Whole song

More versions @911Tabs.com
5,080 views 3 this week
8 commentsread comments
1 2 3 4 5
excellent!
x 8
add to favorites launch autoscroll
font size
0
reset
Autoscroll
+/-
esc
set tempo
stop
Contributor
Difficulty
Tuning
intermediate
D A D G B E
WARNING: You are trying to view
                                    content from Ultimate-Guitar.com
                                    in an unauthorized application,
                                    which is prohibited.

                                    Please use an official Ultimate
                                    Guitar Tabs application for iPhone,
                                    iPad or Android to access legitimate
                                    chords, guitar, bass, and drum tabs
                                    from Ultimate-Guitar.com database.

                                    Type "ultimate guitar tabs" in Apple
                                    App Store's or Android Market's
                                    search to find the application.
THE DECEIVED
                             As recorded by Trivium
                        (From the 2005 Album ASCENDANCY)

the only other decieved tab was pretty hard to read and get through so i thought
i'd tab out how i think its played and well yeh its 
pretty close but i dont think perfect

Gtr I (D A D G B E) - \'Matt Heafy\'
Gtr II (D A D G B E) - \'Corey Beaulieu\'
Gtr III (D A D G B E) - \'Harmonies/Fills\'

Order-  | Intro/Verse   |
        | Pre-Chorus    |
        | Pre-Chorus #2 |  X 2
        | Chorus        |
        -----------------
          Bridge
          Solo 1
          Bridge 2
          Solo 2
          Chorus
          Ending
        
 Intro/Verse
  Q=213
 4/4
  Gtrs I, II
|-------------------------|-----------------------|
|-------------------------|-----------------------|
|-------------------------|-----------------------|
|-------------------------|-----------------------|
|-4--4-4-4--4-4-4--4-4-4--|-4-4-4--4-4-4--------4-|
|-4--4-4-4--4-4-4--4-4-4--|-4-4-4--4-4-4--4-6-7-4-|


|---------------------------|---------------|----------------------------|
|---------------------------|---------------|----------------------------|
|---------------------------|---------------|----------------------------|
|---------------------------|---------------|----------------------------|
|-(4)--4-4-4--4-4-4--4-4-4--|-------------4-|-(4)--4-4-4--4-4-4--4-4-4---|
|-(4)--4-4-4--4-4-4--4-4-4--|-0--7--6-4-2-4-|-(4)--4-4-4--4-4-4--4-4-4---|


|-----------------------|---------------------------|------|
|-----------------------|---------------------------|------|
|-----------------------|---------------------------|------|
|-----------------------|---------------------------|------|
|-4-4-4--4-4-4--------4-|-(4)--4-4-4--4-4-4--4-4-4--|-0----|
|-4-4-4--4-4-4--4-6-7-4-|-(4)--4-4-4--4-4-4--4-4-4--|-0----|


 Pre-Chorus
  Gtr I
|-----------------------|----------------------|
|-----------------------|----------------------|
|-----------------------|----------------------|
|-----------------------|-------------6-7-6----|
|-----------------------|----------------------|
|-2-0-0--0--0--0--0--0--|-0--0--0--0--------2--|
|
| Gtr II
|-----------------------|----------------------|
|-----------------------|----------------------|
|-----------------------|----------------------|
|-----------------------|-------------2-4-2----|
|-----------------------|----------------------|
|-2-0-0--0--0--0--0--0--|-0--0--0--0--------2--|


|-------------------------|-----------------------|
|-------------------------|-----------------------|
|-------------------------|-----------------------|
|-------------------------|-7-------9----11-------|
|-------------------------|-----------------------|
|-(2)-0-0--0--0--0--0--0--|---0--0----0-----0--4--|
|
|-------------------------|-----------------------|
|-------------------------|-----------------------|
|-------------------------|-----------------------|
|-------------------------|-4-------6-----7-------|
|-------------------------|-----------------------|
|-(2)-0-0--0--0--0--0--0--|---0--0----0-----0--4--|


  Gtrs I, II
|-------------------------|----------------------|
|-------------------------|----------------------|
|-------------------------|----------------------|
|-------------------------|-7-------6----4-------|
|-------------------------|----------------------|
|-(4)-4-4--4--4--4--4--4--|---4--4----4----4--4--|


|-------------------------|------------------|
|-------------------------|------------------|
|-------------------------|-6----------------|
|-------------------------|---9-7-6---6-7-9--|
|-------------------------|---------9--------|
|-(4)-4-4--4--4--4--4--4--|------------------|
|
|-------------------------|------------------|
|-------------------------|------------------|
|-------------------------|------------------|
|-------------------------|-7-6-4-------4-6--|
|-------------------------|-------7-5-7------|
|-(4)-4-4--4--4--4--4--4--|------------------|


 Pre-Chorus #2
|-----------------|-----------------|
|-----------------|-----------------|
|-----------------|-----------------|
|-----------------|-----------------|
|-----------------|-----------------|
|-2-0-0-0-2-0-0-0-|-4-0-0-7-0-6-0-4-|


|---------------------------|------------------|----|
|---------------------------|------------------|----|
|---------------------------|------------------|----|
|---------------------------|------------------|----|
|---------------------------|------------------|----|
|-(4)--4-4-4--4-4-4--4-4-4--|-4-6-6-7-7-9-9-11-|----|


 Chorus
|--------------------------|--------------------------------|
|--------------------------|--------------------------------|
|--------------------------|--------------------------------|
|--0-0-----------------0-0-|-----------------0----0---------|
|--0-0-----------------0-0-|-----------------0----0---------|
|--0-0-<4>-<4>-<4>-<4>-0-0-|-<4>-<4>-<4>-<4>-0----0-<4>-<4>-|
|
|--------------------------|--------------------------------|
|-10--------9--(9)-----7---|-(7)-----10------9h10p9--7------|
|--------------------------|--------------------------------|
|--------------------------|--------------------------------|
|--------------------------|--------------------------------|
|--------------------------|--------------------------------|


|-----------------------------|
|-----------------------------|
|-----------------------------|
|--2-2-----------------2-2----|
|--2-2-----------------2-2----|
|--2-2-<4>-<4>-<4>-<4>-2-2----|
|
|-----------------------------|
|-10--------9--(9)------------|
|----------------------9------|
|-----------------------------|
|-----------------------------|
|-----------------------------|


|--------------------------------|--------------------------|
|--------------------------------|--------------------------|
|--------------------------------|--------------------------|
|-----------------2----2---------|--4-4-----------------4-4-|
|-----------------2----2---------|--4-4-----------------4-4-|
|-<4>-<4>-<4>-<4>-2----2-<4>-<4>-|--4-4-<4>-<4>-<4>-<4>-4-4-|
|
|--------------------------------|--------------------------|
|---------10------9h10p9---------|-10--------9--(9)-----7---|
|--9----------------------9------|--------------------------|
|--------------------------------|--------------------------|
|--------------------------------|--------------------------|
|--------------------------------|--------------------------|


|--------------------------------|--------------------------|
|--------------------------------|--------------------------|
|--------------------------------|--------------------------|
|-----------------4----4---------|--4-4-----------------4-4-|
|-----------------4----4---------|--4-4-----------------4-4-|
|-<4>-<4>-<4>-<4>-4----4-<4>-<4>-|--4-4-<4>-<4>-<4>-<4>-4-4-|
|
|--------------------------------|--------------------------|
|-(7)-----10------9h10p9--7------|-10--------9--(9)-----7---|
|--------------------------------|--------------------------|
|--------------------------------|--------------------------|
|--------------------------------|--------------------------|
|--------------------------------|--------------------------|


|-----------------------------|----------------|
|-----------------------------|----------------|
|-----------------------------|----------------|
|------------------2----------|--0-------------|
|------------------2----------|--0-------------|
|-<4>-<4>-<4>-<4>--2----------|--0-------------|
|
|-----------------------------|----------------|
|-----12----------------------|-10---9-(9)--7--|
|-11------14--13--14-13-11----|----------------|
|--------------------------14-|----------------|
|-----------------------------|----------------|
|-----------------------------|----------------|


|--------------------|-----------------|
|--------------------|-----------------|
|--------------------|-----------------|
|-(0)----------------|--2--------------|
|-(0)----------------|--2--------------|
|-(0)----------------|--2--------------|
|
|--------------------|-----------------|
|-(7)--10--9h10p9-7--|-10---9-(9)------|
|--------------------|-------------9---|
|--------------------|-----------------|
|--------------------|-----------------|
|--------------------|-----------------|


|--------------------|----------------|--------------------|----------------|
|--------------------|----------------|--------------------|----------------|
|--------------------|----------------|--------------------|--6-------------|
|-(2)----------------|--4-------------|-(4)----------------|----------------|
|-(2)----------------|--4-------------|-(4)----------------|--4-------------|
|-(2)----------------|--4-------------|-(4)----------------|----------------|
|
|--------------------|----------------|--------------------|----------------|
|------10--9h10p9----|-10---9-(9)--7--|-(7)--10--9h10p9-7--|-10---9-(9)--7--|
|-(9)-------------9--|----------------|--------------------|----------------|
|--------------------|----------------|--------------------|----------------|
|--------------------|----------------|--------------------|----------------|
|--------------------|----------------|--------------------|----------------|


|--------------------------|----------------|
|--------------------------|----------------|
|-(6)----------------------|----------------|
|--------------------------|--0-------------|
|-(4)----------------------|--0-------------|
|--------------------------|--0-------------|
|
|--------------------------|----------------|
|-----14-------------------|-10---9-(9)--7--|
|-11-----14-13-14-13-11----|----------------|
|-----------------------14-|----------------|
|--------------------------|----------------|
|--------------------------|----------------|


|--------------------|-----------------|
|--------------------|-----------------|
|--------------------|-----------------|
|-(0)----------------|--2--------------|
|-(0)----------------|--2--------------|
|-(0)----------------|--2--------------|
|
|--------------------|-----------------|
|-(7)--10--9h10p9-7--|-10---9-(9)------|
|--------------------|-------------9---|
|--------------------|-----------------|
|--------------------|-----------------|
|--------------------|-----------------|


|--------------------|----------------|--------------------|---------------|
|--------------------|----------------|--------------------|---------------|
|--------------------|----------------|--------------------|---------------|
|-(2)----------------|--4-------------|-(4)----------------|-7---6-(6)-----|
|-(2)----------------|--4-------------|-(4)----------------|------------9--|
|-(2)----------------|--4-------------|-(4)----------------|---------------|
|
|--------------------|----------------|--------------------|---------------|
|------10--9h10p9----|-10---9-(9)--7--|-(7)--10--9h10p9-7--|---------------|
|-(9)-------------9--|----------------|--------------------|-6-------------|
|--------------------|----------------|--------------------|-----9-(9)--7--|
|--------------------|----------------|--------------------|---------------|
|--------------------|----------------|--------------------|---------------|


|--------------------|---------------|----|
|--------------------|---------------|----|
|--------------------|---------------|----|
|-------7--6h=7p6----|---------------|----|
|-(9)-------------9--|---------------|----|
|--------------------|---------------|----|
|
|--------------------|---------------|----|
|--------------------|---------------|----|
|--------------------|---------------|----|
|-(7)--11--9h11p9-7--|---------------|----|
|--------------------|---------------|----|
|--------------------|---------------|----|


 Bridge
|----------|------------|--------|
|----------|------------|--------|
|----------|------------|--------|
|-4--------|-(4)--------|-(4)----|
|-4--------|-(4)--------|-(4)----|
|-4--------|-(4)--------|-(4)----|
|
|----------|------------|--------|
|----------|------------|--------|
|----------|------------|--------|
|-4--------|-(4)--------|-(4)----|
|-4--------|-(4)--------|-(4)----|
|-4--------|-(4)--------|-(4)----|


  Gtr I
|---------|---------------|---------------|----------------|
|---------|---------------|---------------|----------------|
|---------|---------------|---------------|----------------|
|---------|-4---6-(6)--7--|-9---7-(7)--6--|------6-(6)--7--|
|---------|---------------|---------------|--7-------------|
|---------|---------------|---------------|----------------|
|
| Gtr II
|---------|---------------|---------------|----------------|
|---------|---------------|---------------|----------------|
|---------|------------6--|-7---6-(6)-----|-------------6--|
|---------|-7---9-(9)-----|------------9--|------9-(9)-----|
|---------|---------------|---------------|-11-------------|
|---------|---------------|---------------|----------------|


|---------------|---------------|---------------|----------------|
|---------------|---------------|---------------|----------------|
|---------------|---------------|---------------|----------------|
|-9---7-(7)--6--|-----6-(6)--7--|-9---7-(7)--6--|------6-(6)--7--|
|---------------|-5-------------|---------------|--7-------------|
|---------------|---------------|---------------|----------------|
|
|---------------|---------------|---------------|----------------|
|---------------|---------------|---------------|----------------|
|-7---6-(6)-----|------------6--|-7---6-(6)-----|-------------6--|
|------------9--|-----9-(9)-----|------------9--|------9-(9)-----|
|---------------|-9-------------|---------------|-11-------------|
|---------------|---------------|---------------|----------------|


|---------------|---------------|---------------|----------------|
|---------------|---------------|---------------|----------------|
|---------------|---------------|---------------|----------------|
|-9---7-(7)--6--|-4---6-(6)--7--|-9---7-(7)--6--|------6-(6)--7--|
|---------------|---------------|---------------|--7-------------|
|---------------|---------------|---------------|----------------|
|
|---------------|---------------|---------------|----------------|
|---------------|---------------|---------------|----------------|
|-7---6-(6)-----|------------6--|-7---6-(6)-----|-------------6--|
|------------9--|-7---9-(9)-----|------------9--|------9-(9)-----|
|---------------|---------------|---------------|-11-------------|
|---------------|---------------|---------------|----------------|


|---------------|---------------|---------------|----------------|
|---------------|---------------|---------------|----------------|
|---------------|---------------|---------------|----------------|
|-9---7-(7)--6--|-----6-(6)--7--|-9---7-(7)--6--|------6-(6)--7--|
|---------------|-5-------------|---------------|--7-------------|
|---------------|---------------|---------------|----------------|
|
|---------------|---------------|---------------|----------------|
|---------------|---------------|---------------|----------------|
|-7---6-(6)-----|------------6--|-7---6-(6)-----|-------------6--|
|------------9--|-----9-(9)-----|------------9--|------9-(9)-----|
|---------------|-9-------------|---------------|-11-------------|
|---------------|---------------|---------------|----------------|

                 Bridge 2
|---------------|--------------------------|-------------------------|
|---------------|--------------------------|-------------------------|
|---------------|--------------------------|-------------------------|
|-9---7-(7)--6--|--------------------------|-------------------------|
|---------------|-4-4-4-4-4-4-4-4--4-------|--------4--4-4-4-4-4-4-4-|
|---------------|-4-4-4-4-4-4-4-4--4-------|--------4--4-4-4-4-4-4-4-|
|
|---------------|--------------------------|-------------------------|
|---------------|--------------------------|-------------------------|
|-7---6-(6)-----|--------------------------|-------------------------|
|------------9--|--------------------------|-------------------------|
|---------------|-4-4-4-4-4-4-4-4--4-------|--------4--4-4-4-4-4-4-4-|
|---------------|-4-4-4-4-4-4-4-4--4-------|--------4--4-4-4-4-4-4-4-|
|
| Gtr III
|---------------|--------------------------|-------------------------|
|---------------|--------------------------|-------------------------|
|---------------|--------------------------|-------------------------|
|---------------|-4-----------6---(6)---7--|-9---7-(7)-------6-------|
|---------------|--------------------------|-------------------------|
|---------------|--------------------------|-------------------------|


  Gtrs I, II
|--------------------------|-------------------------|
|--------------------------|-------------------------|
|--------------------------|-------------------------|
|--------------------------|-------------------------|
|-2-2-2-2-2-2-2-2--2-------|--------2--2-2-2-2-2-2-2-|
|-2-2-2-2-2-2-2-2--2-------|--------2--2-2-2-2-2-2-2-|
|
| Gtr III
|--------------------------|-------------------------|
|--------------------------|-------------------------|
|--------------------------|-------------------------|
|-------------6---(6)---7--|-9---7-(7)-------6-------|
|-7------------------------|-------------------------|
|--------------------------|-------------------------|


|--------------------------|-------------------------|
|--------------------------|-------------------------|
|--------------------------|-------------------------|
|--------------------------|-------------------------|
|-0-0-0-0-0-0-0-0--0-------|--------0--0-0-0-0-0-0-0-|
|-0-0-0-0-0-0-0-0--0-------|--------0--0-0-0-0-0-0-0-|
|
|--------------------------|-------------------------|
|--------------------------|-------------------------|
|--------------------------|-------------------------|
|-------------6---(6)---7--|-9---7-(7)-------6-------|
|-5------------------------|-------------------------|
|--------------------------|-------------------------|


|--------------------------|-------------------------|
|--------------------------|-------------------------|
|--------------------------|-------------------------|
|--------------------------|-------------------------|
|-2-2-2-2-2-2-2-2--2-------|--------2--2-2-2-2-2-2-2-|
|-2-2-2-2-2-2-2-2--2-------|--------2--2-2-2-2-2-2-2-|
|
|--------------------------|-------------------------|
|--------------------------|-------------------------|
|--------------------------|-------------------------|
|-------------6---(6)---7--|-9---7-(7)-------6-------|
|-7------------------------|-------------------------|
|--------------------------|-------------------------|


|--------------------------|-------------------------|
|--------------------------|-------------------------|
|--------------------------|-------------------------|
|--------------------------|-------------------------|
|-4-4-4-4-4-4-4-4--4-------|--------4--4-4-4-4-4-4-4-|
|-4-4-4-4-4-4-4-4--4-------|--------4--4-4-4-4-4-4-4-|
|
|--------------------------|-------------------------|
|--------------------------|-------------------------|
|--------------------------|-------------------------|
|-4-----------6---(6)---7--|-9---7-(7)-------6-------|
|--------------------------|-------------------------|
|--------------------------|-------------------------|


|--------------------------|-------------------------|
|--------------------------|-------------------------|
|--------------------------|-------------------------|
|--------------------------|-------------------------|
|-2-2-2-2-2-2-2-2--2-------|--------2--2-2-2-2-2-2-2-|
|-2-2-2-2-2-2-2-2--2-------|--------2--2-2-2-2-2-2-2-|
|
|--------------------------|-------------------------|
|--------------------------|-------------------------|
|--------------------------|-------------------------|
|-------------6---(6)---7--|-9---7-(7)-------6-------|
|-7------------------------|-------------------------|
|--------------------------|-------------------------|


|--------------------------|-------------------------|---------------|
|--------------------------|-------------------------|---------------|
|--------------------------|-------------------------|---------------|
|--------------------------|-------------------------|-2-------------|
|-0-0-0-0-0-0-0-0--0-------|--------0--0-0-0-0-0-0-0-|-2-------------|
|-0-0-0-0-0-0-0-0--0-------|--------0--0-0-0-0-0-0-0-|-2-------------|
|
|--------------------------|-------------------------|---------------|
|--------------------------|-------------------------|---------------|
|--------------------------|-------------------------|---------------|
|-------------6---(6)---7--|-9---7-(7)-------6-------|-----6-(6)--7--|
|-5------------------------|-------------------------|-7-------------|
|--------------------------|-------------------------|---------------|


 Solo #1 Beaulieu
  Gtr I
|-----------------|----------------|---------------------|---------------|
|-----------------|----------------|---------------------|---------------|
|-----------------|----------------|---------------------|---------------|
|-(2)------2------|-4--------------|-(4)-------7---------|--2------------|
|-(2)------2------|-4--------------|-(4)-------7---------|--2------------|
|-(2)------2------|-4--------------|-(4)-------7---------|--2------------|
|
| Gtr II          (Beaulieu Solo)
|-----------------|----------------|---------------------|---------------|
|-----------------|----------------|---------------------|----------7-9--|
|-----------------|----------------|-------------------9-|-(9)-----------|
|-(2)------2------|-4----(4)-4-6-7-|--4--6-7-6-7-9-7-6---|---------------|
|-(2)------2------|----------------|---------------------|---------------|
|-(2)------2------|----------------|---------------------|---------------|
|
| Gtr III
|-----------------|----------------|---------------------|---------------|
|-----------------|----------------|---------------------|---------------|
|-----------------|----------------|---------------------|---------------|
|--9----7-(7)--6--|----------------|---------------------|---------------|
|-----------------|----------------|---------------------|---------------|
|-----------------|----------------|---------------------|---------------|


|--------------------------------|
|--------------------------------|
|--------------------------------|
|-(2)-----6-----------7----------|
|-(2)-----6-----------7----------|
|-(2)-----6-----------7----------|
|
|--------------------------------|
|--7-----------------------17-19-|
|-----------------16-18-19-------|
|--------16-18-19----------------|
|--------------------------------|
|--------------------------------|
|
|--------------------------16-17-|
|-----------------15-17-19-------|
|--------14-16-18----------------|
|--------------------------------|
|--------------------------------|
|--------------------------------|


|------------------|-----------------------------|
|------------------|-----------------------------|
|------------------|-----------------------------|
|--0---------------|-(0)-----6---------7---------|
|--0---------------|-(0)-----6---------7---------|
|--0---------------|-(0)-----6---------7---------|
|
|-16b17------16-17-|-16---------------16-17--19--|
|------------------|--------15-17--19------------|
|------------------|-----------------------------|
|------------------|-----------------------------|
|------------------|-----------------------------|
|------------------|-----------------------------|
|
|-19b20------19-21-|-19---------------19-21--22--|
|------------------|--------19-21--22------------|
|------------------|-----------------------------|
|------------------|-----------------------------|
|------------------|-----------------------------|
|------------------|-----------------------------|


|-------------------|--------------------|
|-------------------|--------------------|
|-------------------|--------------------|
|--2----------------|--------------------|
|--2----------------|--7-6-(6)--7-6-(6)--|
|--2----------------|--7-6-(6)--7-6-(6)--|
|
|-19b21------19b21--|-19-----------------|
|-------------------|--------------------|
|-------------------|--------------------|
|-------------------|--------------------|
|-------------------|--------------------|
|-------------------|--------------------|
|
|-22b24------22b24--|-22-----------------|
|-------------------|--------------------|
|-------------------|--------------------|
|-------------------|--------------------|
|-------------------|--------------------|
|-------------------|--------------------|


|------------------------------------------|
|------------------------------------------|
|------------------------------------------|
|--4---------------------------------------|
|--4---------------------------------------|
|--4---------------------------------------|
|
|-21-17------------17-21-17------------17--|
|--------19----19------------19----19------|
|-----------18------------------18---------|
|------------------------------------------|
|------------------------------------------|
|------------------------------------------|
|
|------------------------------------------|
|------------------------------------------|
|------------------------------------------|
|------------------------------------------|
|------------------------------------------|
|------------------------------------------|


|------------------------------------|-------------------|--------------------|
|------------------------------------|-------------------|--------------------|
|-----------------------2------------|-------------------|--------------------|
|-(4)-------------------2------------|--2----------------|-(2)--------6----7--|
|-(4)-------------------0------------|--2----------------|-(2)--------6----7--|
|-(4)--------------------------------|--2----------------|-(2)--------6----7--|
|
|-21--17------------17-21-17---------|-17---16-(16)--14--|--------------------|
|---------19----19------------19-----|-------------------|-15----14-(14)--12--|
|------------18------------------18--|-------------------|--------------------|
|------------------------------------|-------------------|--------------------|
|------------------------------------|-------------------|--------------------|
|------------------------------------|-------------------|--------------------|
|
|------------------------------------|-------------------|--------------------|
|------------------------------------|-19---17-(17)--15--|--------------------|
|------------------------------------|-------------------|-16----14-(14)--13--|
|------------------------------------|-------------------|--------------------|
|------------------------------------|-------------------|--------------------|
|------------------------------------|-------------------|--------------------|


|---------------|--------------------|
|---------------|--------------------|
|---------------|--------------------|
|--0------------|-(0)---------6---7--|
|--0------------|-(0)---------6---7--|
|--0------------|-(0)---------6---7--|
|
|---------------|--------------------|
|-15------15-15-|-15S14-14--(14)-----|
|---------------|--------------------|
|---------------|--------------------|
|---------------|--------------------|
|---------------|--------------------|
|
|---------------|--------------------|
|-19------19-19-|-19S17-17--(17)-----|
|---------------|--------------------|
|---------------|--------------------|
|---------------|--------------------|
|---------------|--------------------|


|-------------------------|---------------------------|
|-------------------------|---------------------------|
|-------------------------|---------------------------|
|--2----------------------|---------------------------|
|--2----------------------|--7--6-(6)-----7--6-(6)----|
|--2----------------------|--7--6-(6)-----7--6-(6)----|
|
|-------------------------|---------------------------|
|-------------------------|---------------------------|
|-13-13-13-14-14-14-13-13-|-16-16-16--14-14-14-13--13-|
|-------------------------|---------------------------|
|-------------------------|---------------------------|
|-------------------------|---------------------------|
|
|-------------------------|---------------------------|
|-12-12-12-14-14-14-12-12-|-15-15-15--14-14-14-12--12-|
|-------------------------|---------------------------|
|-------------------------|---------------------------|
|-------------------------|---------------------------|
|-------------------------|---------------------------|


 
  Gtr I   (Heafy Solo)
|--------------------------|--------------------|-----------------|
|--------------------------|-----------------10-|-9-----------9---|
|----------9-----------9---|--------------------|---7-6-4-6-7---7-|
|------------7-6---6-7---7-|--6----6-7-6-7-9----|-----------------|
|----------------9---------|-----9--------------|-----------------|
|--------------------------|--------------------|-----------------|
|
| Gtr II
|--------------------------|--------------------|-----------------|
|--------------------------|--------------------|-----------------|
|--------------------------|--------------------|-----------------|
|----------4---------------|-(4)-------7--------|-2---------------|
|----------4---------------|-(4)-------7--------|-2---------------|
|----------4---------------|-(4)-------7--------|-2---------------|


|----------------------|-17---16-(16)------|--------------------|
|-----------9-10-10-12-|---------------17--|-15----14-(14)--12--|
|--6----6-7------------|-------------------|--------------------|
|-----9----------------|-------------------|--------------------|
|----------------------|-------------------|--------------------|
|----------------------|-------------------|--------------------|
|
|----------------------|-------------------|--------------------|
|----------------------|-------------------|--------------------|
|----------------------|-------------------|--------------------|
|-(2)-------6-----7----|--0----------------|-(0)--------6----7--|
|-(2)-------6-----7----|--0----------------|-(0)--------6----7--|
|-(2)-------6-----7----|--0----------------|-(0)--------6----7--|
|
|----------------------|-14---12-(12)------|--------------------|
|----------------------|---------------14--|-12----10-(10)---9--|
|----------------------|-------------------|--------------------|
|----------------------|-------------------|--------------------|
|----------------------|-------------------|--------------------|
|----------------------|-------------------|--------------------|


|-19-16------------16-17-16------------16-|
|--------17----17------------17----17-----|
|-----------18------------------16--------|
|-----------------------------------------|
|-----------------------------------------|
|-----------------------------------------|
|
|-----------------------------------------|
|-----------------------------------------|
|-----------------------------------------|
|--2--------------------------------------|
|--2--------------------------------------|
|--2--------------------------------------|


|-19-16--------------16-17-16--------------16-|
|---------17-----17-------------17-----17-----|
|------------18--------------------16---------|
|---------------------------------------------|
|---------------------------------------------|
|---------------------------------------------|
|
|---------------------------------------------|
|---------------------------------------------|
|---------------------------------------------|
|---------------------------------------------|
|--7----6----(6)---------7----6----(6)--------|
|--7----6----(6)---------7----6----(6)--------|


|--------14-------14-14------|-14---------14-------14-16-14-|
|-17b19-----17b19----17b19---|-----17b19-----17b19----------|
|----------------------------|------------------------------|
|----------------------------|------------------------------|
|----------------------------|------------------------------|
|----------------------------|------------------------------|
|
|----------------------------|------------------------------|
|----------------------------|------------------------------|
|----------------------------|------------------------------|
|--4-------------------------|-(4)------------7-------------|
|--4-------------------------|-(4)------------7-------------|
|--4-------------------------|-(4)------------7-------------|
|
| Gtr III
|----------------------------|------------------------------|
|----------------------------|------------------------------|
|----------------------------|------------------------------|
|----------------------------|------------------------------|
|----------------------------|------------------------------|
|----------------------------|------------------------------|


|-16b17------16b17r=14-|-16b17-16b17-(16)--(16)-----|
|----------------------|----------------------------|
|----------------------|----------------------------|
|----------------------|----------------------------|
|----------------------|----------------------------|
|----------------------|----------------------------|
|
|----------------------|----------------------------|
|----------------------|----------------------------|
|----------------------|----------------------------|
|--2-------------------|-(2)-----------------6---7--|
|--2-------------------|-(2)-----------------6---7--|
|--2-------------------|-(2)-----------------6---7--|
|
|-19b21------19pb21r17-|-19b21-19b21-(19)--(19)-----|
|----------------------|----------------------------|
|----------------------|----------------------------|
|----------------------|----------------------------|
|----------------------|----------------------------|
|----------------------|----------------------------|


|----17-------16-------14-|--------17----17----17----|
|-14----14s12----12s10----|-12s=14----14----14----14-|
|-------------------------|--------------------------|
|-------------------------|--------------------------|
|-------------------------|--------------------------|
|-------------------------|--------------------------|
|
|-------------------------|--------------------------|
|-------------------------|--------------------------|
|-------------------------|--------------------------|
|--0----------------------|-(0)-----------6-----7----|
|--0----------------------|-(0)-----------6-----7----|
|--0----------------------|-(0)-----------6-----7----|
|
|-------------------------|--------------------------|
|-------------------------|--------------------------|
|-------------------------|--------------------------|
|-------------------------|--------------------------|
|-------------------------|--------------------------|
|-------------------------|--------------------------|


|-16b17----16b17r==16-14-|-16b17-----------------|
|------------------------|-----------------------|
|------------------------|-----------------------|
|------------------------|-----------------------|
|------------------------|-----------------------|
|------------------------|-----------------------|
|
|------------------------|-----------------------|
|------------------------|-----------------------|
|------------------------|-----------------------|
|--2---------------------|-----------------------|
|--2---------------------|--7----6-(6)--7-6-(6)--|
|--2---------------------|--7----6-(6)--7-6-(6)--|
|
|-19b21----19pb21r=19-17-|-19b21-----------------|
|------------------------|-----------------------|
|------------------------|-----------------------|
|------------------------|-----------------------|
|------------------------|-----------------------|
|------------------------|-----------------------|


|----------------|-----------------------------------|
|----------------|-----------------------------------|
|----------------|-----------------------------------|
|--7---6-(6)-----|--------7--6h=7p6------------------|
|-------------9--|--(9)-------------9----------------|
|----------------|-----------------------------------|
|
|----------------|-----------------------------------|
|----------------|-----------------------------------|
|----------------|-----------------------------------|
|-11---9-(9)--7--|--(7)--11--9h11p9-7----------------|
|----------------|-----------------------------------|
|----------------|-----------------------------------|
|
|----------------|-----------------------------------|
|-10---9-(9)--7--|-------10--9h10p9-7----------------|
|----------------|-(11)------------------------------|
|----------------|-----------------------------------|
|----------------|-----------------------------------|
|----------------|-----------------------------------|


 Ending
|---------------|----------*|
|---------------|----------*|
|-6-------------|----------*|
|-----9-(9)--6--|-7--------*|
|---------------|----------*|
|---------------|----------*|
|
|---------------|----------*|
|---------------|----------*|
|---------------|----------*|
|-7---6-(6)-----|----------*|
|------------7--|-9--------*|
|---------------|----------*|


Tablature Legend
----------------
 h   - hammer-on
 p   - pull-off
 b   - bend
 pb  - pre-bend
 r   - bend release (if no number after the r, then release immediately)
 /  - slide into or out of (from/to \"nowhere\")
 s   - legato slide
 S   - shift slide
  - natural harmonic
[n]  - artificial harmonic
n(n) - tapped harmonic
 ~   - vibrato
 tr  - trill
 T   - tap
 TP  - trem. picking
 PM  - palm muting
n/  - tremolo bar dip; n = amount to dip
 n  - tremolo bar down
 n/  - tremolo bar up
/n  - tremolo bar inverted dip
 =   - hold bend; also acts as connecting device for hammers/pulls
 <>  - volume swell (louder/softer)
 x   - on rhythm slash represents muted slash
 o   - on rhythm slash represents single note slash

Misc Legend
-----------
 |  - bar
||  - double bar
||o - repeat start
o|| - repeat end
*|  - double bar (ending)
 :  - bar (freetime)
 $  - Segno
 &  - Coda
Tempo markers -  = BPM(8/16=s8/s16), where s8 = swing 8ths, s16 = swing 16ths
8 comments total. Showing first comments.
0 reply
metal_matt wrote on April 6 2006, 02:04 pm

Spot on tab mate well done!!

0 reply
METSOAD wrote on April 6 2006, 02:10 pm

A Spot on but confusing tab

0 reply
neil_cabatingan wrote on July 11 2006, 03:10 am

gee this is probably the worst tab i have ever seen.
whos johnny?

nah nice tab

I want to post or [tab]
guest
You may want to rate the tab now too:
select rating
Please do not post tabs as comments. Select "correction" instead!