Oops, an error
Loading. Please wait.

Declaration Tab

ver3
ver3

Intro

Whole song

More versions @911Tabs.com
8,678 views 4 this week
5 commentsread comments
1 2 3 4 5
excellent!
x 5
Autoscroll
+/-
esc
set tempo
stop
Contributor
Difficulty
Tuning
advanced
D A D G B E
WARNING: You are trying to view
                                    content from Ultimate-Guitar.com
                                    in an unauthorized application,
                                    which is prohibited.

                                    Please use an official Ultimate
                                    Guitar Tabs application for iPhone,
                                    iPad or Android to access legitimate
                                    chords, guitar, bass, and drum tabs
                                    from Ultimate-Guitar.com database.

                                    Type "ultimate guitar tabs" in Apple
                                    App Store's or Android Market's
                                    search to find the application.
#----------------------------------PLEASE NOTE---------------------------------#
#This file is the author's own work and represents their interpretation of the #
#song. You may only use this file for private study, scholarship, or research. #
#------------------------------------------------------------------------------##

                                   DECLARATION
                             As recorded by Trivium
                        (From the 2005 Album ASCENDANCY)


Gtr I (D A D G B E) - 'Untitled'
Gtr II (D A D G B E) - 'Untitled'
Gtr III (D A D G B E) - 'Untitled'

    Q=107
   4/4
     Gtr I
     S  S S S S S S S S  S  S  S  S  S S  S
||------------------------------------------|
||o-----------------------------------------|
||--------9-----9-----9-------14---------13-|
||---6--7---6-7---6-7---11-12----12-11-9----|
||o-----------------------------------------|
||------------------------------------------|
|
|    Gtr II
|    H.                           Q
||------------------------------------------|
||o-----------------------------------------|
||------------------------------------------|
||---0----------------------------2---------|
||o--0----------------------------2---------|
||---0----------------------------2---------|


  S  S S S S S S S S S S S S S S S
|-----------------------------------||-|
|----------------------------------o||-|
|------------------------6-9-6-7----||-|
|------------------6-7-9---------9--||-|
|-7--9-9-7-9-9-7-9-----------------o||-|
|-----------------------------------||-|
|
| H.                       Q
|-----------------------------------||-|
|----------------------------------o||-|
|-----------------------------------||-|
|-4------------------------2--------||-|
|-4------------------------2-------o||-|
|-4------------------------2--------||-|


   S  S S  S S S S  S  S   S  S  S   S  S  S     S
|---------------------------------------------------|
|---------------------------------------------------|
|-------9------9-------9--------14--------------13--|
|--6--7----6-7---6--7-----11-12-----12-11--9--------|
|---------------------------------------------------|
|---------------------------------------------------|
|
|  H.                                Q
|---------------------------------------------------|
|---------------------------------------------------|
|---------------------------------------------------|
|--0---------------------------------2--------------|
|--0---------------------------------2--------------|
|--0---------------------------------2--------------|
|
| Gtr III
|                                          |--3--|
|  E.      Q        S  E.        E.        T  S  S.
|---------------------------------------------------|
|---------------------------------------------------|
|---------------------------------------------------|
|---------------------14--------12--------11h12p11--|
|-11------12-------11-------------------------------|
|---------------------------------------------------|


   S  S S S S S  S S S S S S S S S S
|---------------------------------------|
|---------------------------------------|
|--------------------------6-9-6-7-9----|
|--------------------6-7-9--------------|
|--7--9-9-7-9-9--7-9--------------------|
|---------------------------------------|
|
|  H.                        Q
|---------------------------------------|
|---------------------------------------|
|---------------------------------------|
|--4-------------------------2----------|
|--4-------------------------2----------|
|--4-------------------------2----------|
|
|                ~~
|  Q.            H
|---------------------------------------|
|---------------------------------------|
|---------------------------------------|
|---------------------------------------|
|-11------------12----------------------|
|---------------------------------------|


   S  S S  S S S S  S  S   S  S  S   S  S  S     S
|---------------------------------------------------|
|---------------------------------------------------|
|-------9------9-------9--------14--------------13--|
|--6--7----6-7---6--7-----11-12-----12-11--9--------|
|---------------------------------------------------|
|---------------------------------------------------|
|
|  H.                                Q
|---------------------------------------------------|
|---------------------------------------------------|
|---------------------------------------------------|
|--0---------------------------------2--------------|
|--0---------------------------------2--------------|
|--0---------------------------------2--------------|
|
|                                          |--3--|
|  E.      Q        S  E.        E.        T  S  S.
|---------------------------------------------------|
|---------------------------------------------------|
|---------------------------------------------------|
|---------------------14--------12--------11h12p11--|
|-11------12-------11-------------------------------|
|---------------------------------------------------|


   S  S S S S S  S  S S S S S  S  S S S    H     H
|---------------------------------------|-----------|
|---------------------------------------|-----------|
|---------------------------6--9--6-7-9-|-11----13--|
|---------------------6-7-9-------------|-----------|
|--7--9-9-7-9-9--7--9-------------------|--9----11--|
|---------------------------------------|-----------|
|
|  H.                          Q           H     H
|---------------------------------------|-----------|
|---------------------------------------|-----------|
|---------------------------------------|-----------|
|--4---------------------------2--------|--0-----2--|
|--4---------------------------2--------|--0-----2--|
|--4---------------------------2--------|--0-----2--|
|
|  Q.            Q.            E.
|---------------------------------------|-----------|
|---------------------------------------|-----------|
|-14------------13----------------------|-----------|
|-----------------------------14--------|-----------|
|---------------------------------------|-----------|
|---------------------------------------|-----------|


    Q=214
          PM------------|          PM----|         PM----|
    S S E S S S S S S S S S S  E   S S S S S  S  E S S S S S S E
||-------------------------------|--------------------------------||--|
||o------------------------------|-------------------------------o||--|
||-------------------------------|--------------------------------||--|
||-------------------------------|-------------------------6h7h9--||--|
||o-5h7h8-----------------7h8h11-|---------8h11h12---------------o||--|
||--------0-0-0-0-0-0-0-0--------|-0-0-0-0---------0-0-0-0--------||--|


        PM------------|               PM------------|
  S S E S S S S S S S S S S E   S S E S S S S S S S S S S E
|-----------------------------|--------------------------------|
|-----------------------------|--------------------------------|
|-----------------------------|--------------------------------|
|-----------------------------|--------------------------------|
|-1h2h4-----------------1h2h4-|-4h6h7-----------------4h6h7----|
|-------1-1-1-1-1-1-1-1-------|-------4-4-4-4-4-4-4-4----------|


  $$$
              PM------------|          PM----|         PM----|
        S S E S S S S S S S S S S  E   S S S S S  S  E S S S S S S E
|---||-------------------------------|-------------------------------|
|---||o------------------------------|-------------------------------|
|---||-------------------------------|-------------------------------|
|---||-------------------------------|-------------------------6h7h9-|
|---||o-5h7h8-----------------7h8h11-|---------8h11h12---------------|
|---||--------0-0-0-0-0-0-0-0--------|-0-0-0-0---------0-0-0-0-------|


        PM------------|          PM----|         PM----|
  S S E S S S S S S S S S S  E   S S S S S  S  E S S S S S S E
|------------------------------|-------------------------------|
|------------------------------|-------------------------------|
|------------------------------|-------------------------------|
|------------------------------|-------------------------6h7h9-|
|-5h7h8-----------------7h8h11-|---------8h11h12---------------|
|-------0-0-0-0-0-0-0-0--------|-0-0-0-0---------0-0-0-0-------|


        PM------------|               PM------------|
  S S E S S S S S S S S S S E   S S E S S S S S S S S S S E
|-----------------------------|------------------------------||-|
|-----------------------------|-----------------------------o||-|
|-----------------------------|------------------------------||-|
|-----------------------------|------------------------------||-|
|-1h2h4-----------------1h2h4-|-4h6h7-----------------4h6h7-o||-|
|-------1-1-1-1-1-1-1-1-------|-------4-4-4-4-4-4-4-4--------||-|


    Q=107
   3/4
      PM----------------------------|     PM------------|     PM  PM
    S S T T S S S S S S S S S   T T S S E S T T S S S S S   S S S S
||----------------------------|---------------------------|----------|
||o---------------------------|---------------------------|----------|
||----------------------------|---------------------------|----------|
||--7-------------------------|-------7-7-----------------|-7---7----|
||o-5-------------------------|-------5-4-----------------|-4---4----|
||----0-0-0-0-0-0-0-0-0-0-0-0-|-0-0-0-----0-0-0-0-0-0-0-0-|---0---0--|


      PM    PM--------|       PM----------|
  S S S S S S S S S S S S   S S S S S S S S
|-------------------------|-----------------|
|-------------------------|-----------------|
|-------------------------|-----------------|
|-7-7---2-4-------------2-|-4---------------|
|-4-5---2-4-------------2-|-4---------------|
|-----0-2-4-4-4-4-4-4-4-2-|-4-4-4-4-4-4-4-4-|


                                                                  D.S.
  |-3-| |-3-| |-3-| |-3--| |-3--| |-3--|
  S S S S S S S S S S S  S S S  S S S  S   T  T  T  T  T  T  T  T
|------------------------------------------------------------------||--|
|-----------------------------------------------------------------o||--|
|------------------------------------------------------------------||--|
|-------------0h6h7---------------0h7h11--11-11-11-11-11-11-11-11--||--|
|-------0h5h7--------------0h7h11---------------------------------o||--|
|-0h6h7-------------0h7h11-----------------------------------------||--|
|
| |-3-| |-3-| |-3-| |-3--| |-3--| |-3--|
| S S S S S S S S S S S  S S S  S S S  S   T  T  T  T  T  T  T  T
|------------------------------------------------------------------||--|
|-----------------------------------------------------------------o||--|
|------------------------------------------------------------------||--|
|-------------0h2h4---------------0h4h=7---7--7--7--7--7--7--7--7--||--|
|-------0h2h4--------------0h4h=7---------------------------------o||--|
|-0h2h4-------------0h4h=7-----------------------------------------||--|


   4/4
     S  S  S  S  S  S  S  S  S  S  S  S  S  S  S  S
||--------------------------------------------------|
||o-------------------------------------------------|
||--11-11-11-11-11-11-11-11-11-11-11-11-11-11-11-11-|
||--------------------------------------------------|
||o--9--9--9--9--9--9--9--9--9--9--9--9--9--9--9--9-|
||--------------------------------------------------|
|
|    S  S  S  S  S  S  S  S  S  S  S  S  S  S  S  S
||--------------------------------------------------|
||o-------------------------------------------------|
||--------------------------------------------------|
||---0--0--0--0--0--0--0--0--0--0--0--0--0--0--0--0-|
||o--0--0--0--0--0--0--0--0--0--0--0--0--0--0--0--0-|
||---0--0--0--0--0--0--0--0--0--0--0--0--0--0--0--0-|


  S S S S S S S S  S  S  S  S  S  S  S  S
|-----------------------------------------|
|-----------------------------------------|
|-9-9-9-9-9-9-9-9-13-13-13-13-14-14-14-14-|
|-----------------------------------------|
|-7-7-7-7-7-7-7-7-11-11-11-11-12-12-12-12-|
|-----------------------------------------|
|
| S S S S S S S S  S  S  S  S  S  S  S  S
|-----------------------------------------|
|-----------------------------------------|
|-----------------------------------------|
|-0-0-0-0-0-0-0-0--0--0--0--0--0--0--0--0-|
|-0-0-0-0-0-0-0-0--0--0--0--0--0--0--0--0-|
|-0-0-0-0-0-0-0-0--0--0--0--0--0--0--0--0-|


   S  S  S  S E  S  S  S  S E  S  S  E
|--------------------------------------|
|-14-14-14-14---14-14-14-14---14-14-14-|
|--------------------------------------|
|-11-11-11-11---11-11-11-11---11-11-11-|
|--------------------------------------|
|--------------------------------------|
|
|  S  S  S  S E  S  S  S  S E  S  S  E
|--------------------------------------|
|--------------------------------------|
|--------------------------------------|
|--4--4--4--4----4--4--4--4----4--4--4-|
|--4--4--4--4----4--4--4--4----4--4--4-|
|--4--4--4--4----4--4--4--4----4--4--4-|


  S   S   S   S   S   S   S   S   S   S   S   S   S   S   S   S
|-------------------------------------------------------------------||---|
|------------------------------------------------------------------o||---|
|---------9-----------9-----------9-----------9-----------9---------||---|
|-6---7-------6---7-------6---7-------6---7-------6---7-------7-----||---|
|------------------------------------------------------------------o||---|
|-------------------------------------------------------------------||---|
|
| |--3--| |--3--| |--3--| |--3--| |--3--| |--3--|
| S S   S S S   S S S   S S S   S S S   S S S   S T T T T T T T T
|-------------------------------------------------------------------||---|
|------------------------------------------------------------------o||---|
|-------------------------------------------------------------------||---|
|-----------------0-2---4-----------------0-4---7-7-7-7-7-7-7-7-7---||---|
|---------0-2---4-----------------0-4---7--------------------------o||---|
|-0-2---4-----------------0-4---7-----------------------------------||---|


  W          W          W          W
|----------|----------|----------|----------|
|----------|----------|----------|----------|
|----------|----------|----------|----------|
|-0--------|-6--------|-0--------|-7--------|
|-0--------|-4--------|-0--------|-7--------|
|-0--------|-4--------|-0--------|-7--------|


                                   To Coda
  W          W          W          W
|----------|----------|----------|----------|
|----------|----------|----------|----------|
|----------|----------|----------|----------|
|-0--------|-6--------|-0--------|-7--------|
|-0--------|-4--------|-0--------|-7--------|
|-0--------|-4--------|-0--------|-7--------|


    Q=150
            PM------------|   PM|
    E E E E E E E E       E E E E E E E E
||------------------|---------------------|
||o-----------------|---------------------|
||------------------|---------------------|
||--7-7-7-6---------|-------4-----4-6-6-6-|
||o-4-4-4-4-4-4-4-4-|-----4-4-4-4-4-4-4-4-|
||--4-4-4-4-4-4-4-4-|-----4-4-4-4-4-4-4-4-|
|
|   W                 +W
||------------------|---------------------|
||o-----------------|---------------------|
||------------------|---------------------|
||--4---------------|-(4)-----------------|
||o-4---------------|-(4)-----------------|
||--4---------------|-(4)-----------------|


          PM--------|     PM|
  E E E E E E E E    E  E E E E E E E
|-----------------|--------------------||--|
|-----------------|-------------------o||--|
|-----------------|--------------------||--|
|-7-7-7-6---------|-----4-----4-6-6-6--||--|
|-0-0-0-0-0-0-0-0-|--0--0-0-0-0-0-0-0-o||--|
|-0-0-0-0-0-0-0-0-|--0--0-0-0-0-0-0-0--||--|
|
| W                 +W
|-----------------|--------------------||--|
|-----------------|-------------------o||--|
|-----------------|--------------------||--|
|-0---------------|-(0)----------------||--|
|-0---------------|-(0)---------------o||--|
|-0---------------|-(0)----------------||--|


  H.           Q         +H.       Q
|--------------------|-------------------|
|--------------------|-------------------|
|--------------------|-------------------|
|--------------6b7r==|===(6)-------4-----|
|-4------------------|-------------------|
|--------------------|-------------------|
|
| Gtr III
|--------------------|-------------------|
|--------------------|-------------------|
|--------------------|-------------------|
|--------------------|-------------------|
|--------------------|-------------------|
|--------------------|-------------------|
|
|          PM----------|     PM|
| E  E E E E E E   E   E  E  E E E E E E
|--------------------|-------------------|
|--------------------|-------------------|
|--------------------|-------------------|
|-7--7-7-6-----------|----4------4-6-6-6-|
|-4--4-4-4-4-4-4---4-|-4--4--4-4-4-4-4-4-|
|-4--4-4-4-4-4-4---4-|-4--4--4-4-4-4-4-4-|


   H.           E S S  S S S S S E. Q       Q
|---------------------------------------------|
|-------------------9-10-9--------------------|
|-/6------------6-9--------9-6------6b7r====6-|
|------------------------------7-4------------|
|---------------------------------------------|
|---------------------------------------------|
|
|  W  H                             Q       Q
|---------------------------------------------|
|-----------------------------------5b7r====5-|
|---------------------------------------------|
|---------------------------------------------|
|---------------------------------------------|
|---------------------------------------------|
|
|             PM---------|   PM|
|     E E E E E E E E    E E E E E  E   E E
|---------------------------------------------|
|---------------------------------------------|
|---------------------------------------------|
|-----7-7-7-6--------------4-----4--6---6-6---|
|-----0-0-0-0-0-0-0-0----0-0-0-0-0--0---0-0---|
|-----0-0-0-0-0-0-0-0----0-0-0-0-0--0---0-0---|


  H        Q.      E    E  E  E  E  H
|--------------------|----------------------|
|--------------------|----------------------|
|---------11---------|----------------------|
|-9---------------11-|-11-11-11--9--9-------|
|--------------------|----------------------|
|--------------------|----------------------|
|
| H        Q.      E    E  E  E  E  H
|--------------------|----------------------|
|---------10---------|----------------------|
|-7------------------|----------------------|
|--------------------|----------------------|
|-----------------12-|-12-12-12-11-11-------|
|--------------------|----------------------|
|
|          PM----------|      PM|
| E E E E  E  E E  E    E  E  E  E  E E E E
|--------------------|----------------------|
|--------------------|----------------------|
|--------------------|----------------------|
|-7-7-7-6------------|-----4--------4-6-6-6-|
|-4-4-4-4--4--4-4--4-|--4--4--4--4--4-4-4-4-|
|-4-4-4-4--4--4-4--4-|--4--4--4--4--4-4-4-4-|


   |--3--|  |--3--|  |--3--|  |--3--|  |--3--|  |--3--|  |--3--|     |---3-
   S  S  S  S  S  S  S  S  S  S  S  S  S  S  S  S  S  S  S  S  S  S  S  S
|-------------------------------------------------------------------------|
|-------------------------------------------14-------14-------14-16-------|
|-------------------13-14-16-13-14-16-14-16----14-16----14-16-------13-14-|
|-11-12-14-11-12-14-------------------------------------------------------|
|-------------------------------------------------------------------------|
|-------------------------------------------------------------------------|
|
|                                      PM----------------------------------
|  E        E        E        E        E        E        E        E
|-------------------------------------------------------------------------|
|-------------------------------------------------------------------------|
|-------------------------------------------------------------------------|
|--7--------7--------7--------6-------------------------------------------|
|--0--------0--------0--------0--------0--------0--------0--------0-------|
|--0--------0--------0--------0--------0--------0--------0--------0-------|


 --|  |--3--|  |--3--|     |---3---|       |--3--|          |--3--|
   S  S  S  S  S  S  S  S  S    S  S  S    S  S  S  S  S    S  S  S  S
|------------------------------------15---15-17-19-17-19---20-----------|
|-------------14-15-17-14-14---15-17--------------------------23-21-20--|
|-16-13-14-16-----------------------------------------------------------|
|-----------------------------------------------------------------------|
|-----------------------------------------------------------------------|
|-----------------------------------------------------------------------|
|
|-|                  PM------|
|  E        E        E       E          E        E       E        E
|-----------------------------------------------------------------------|
|-----------------------------------------------------------------------|
|-----------------------------------------------------------------------|
|-----------4---------------------------4--------6-------6--------6-----|
|--0--------0--------0-------0----------0--------0-------0--------0-----|
|--0--------0--------0-------0----------0--------0-------0--------0-----|


   H.                           Q.        E       E
|-16b17----------------------|-----------------------|
|----------------------------|-----------------------|
|----------------------------|-----------------------|
|----------------------------|-----------------------|
|----------------------------|--7---------7b8r====8--|
|----------------------------|-----------------------|
|
|  E     E  E  E  E  E  E  E    Q.        E       Q
|----------------------------|-----------------------|
|----------------------------|-----------------------|
|-14----13-------------------|-----------------------|
|----------14-11-14-11-------|-----------------------|
|----------------------12-11-|-11--------11b12r==12--|
|----------------------------|-----------------------|
|
|                 PM-----------|
|  E     E  E  E  E  E  E  E    E  E E E  E    E  Q
|----------------------------|-----------------------|
|----------------------------|-----------------------|
|----------------------------|-----------------------|
|-10----10-10--9-------------|-----5-5-5--3-------5--|
|--7-----7--7--7--7--7--7--7-|--7--5-5-5--3-------5--|
|--7-----7--7--7--7--7--7--7-|--7--5-5-5--3-------5--|


   E  E  E  E  E  E  E  E    E  E  E  E  E  E
|-------------------------|-----7--5--8--7--8-------|
|--------------------8----|--8----------------------|
|--------------7--9-----9-|-------------------------|
|--------9-10-------------|-------------------------|
|-10-12-------------------|-------------------------|
|-------------------------|-------------------------|
|
|  E  E  E  E  E  E  E  E    E  E  E  E  E  E  E  E
|-------------------------|-------------------17-19-|
|-------------------12----|-12-15-13-17-15-17-------|
|-------------11-12----12-|-------------------------|
|-------12-14-------------|-------------------------|
|-14-15-------------------|-------------------------|
|-------------------------|-------------------------|
|
|              PM-----------|
|  E  E  E  E  E  E  E  E    E  E  E  E  E  E  Q
|-------------------------|-------------------------|
|-------------------------|-------------------------|
|-------------------------|-------------------------|
|-10-10-10--9-------------|-----5--5--5--3-----5----|
|--7--7--7--7--7--7--7--7-|--7--5--5--5--3-----5----|
|--7--7--7--7--7--7--7--7-|--7--5--5--5--3-----5----|


                                  |--3--|
   E     E E  E  E  E  E  E    E  S  S  S  E  E  E  E  E  E
|------------------------12-|-16-12h16p12-------------------|
|---------------------14----|-------------14-12----12----12-|
|---------------13-14-------|-------------------14----14----|
|------------11-------------|-------------------------------|
|--9----12-9----------------|-------------------------------|
|---------------------------|-------------------------------|
|
|  H.
|-19b21---------------------|-------------------------------|
|---------------------------|-------------------------------|
|---------------------------|-------------------------------|
|---------------------------|-------------------------------|
|---------------------------|-------------------------------|
|---------------------------|-------------------------------|
|
|                PM-----------|      PM|
|  E     E E  E  E  E  E  E    E  E  E  E  E  E  E        E
|---------------------------|-------------------------------|
|---------------------------|-------------------------------|
|---------------------------|-------------------------------|
|--7-----7-7--6-------------|-----4--------4--6--6--------6-|
|--4-----4-4--4--4--4--4--4-|--4--4--4--4--4--4--4--------4-|
|--4-----4-4--4--4--4--4--4-|--4--4--4--4--4--4--4--------4-|


                                   ~~~
   H           +E.       +E.  E    Q.        S  S  E  E  E  E
|-------------------------------|-----------------------------|
|-------------------------------|-----------------------------|
|-16b18r======(16)b18r==(16)----|-----------------------------|
|----------------------------18-|-16--------16-16-16----------|
|-------------------------------|--------------------17-17-16-|
|-------------------------------|-----------------------------|
|
|                                  ~~~
|  H            E.        E.  E    Q.        S  S  E  E  E  E
|-------------------------------|-----------------------------|
|-------------------------------|-----------------------------|
|-13b14r=======13b14r====13-----|-----------------------------|
|----------------------------14-|-12--------12-12-12----------|
|-------------------------------|--------------------14-14-12-|
|-------------------------------|-----------------------------|
|
|               PM----------------|     PM|
|  E    E E E   E     E   E   E    E  E E E  E  E  E     E
|-------------------------------|-----------------------------|
|-------------------------------|-----------------------------|
|-------------------------------|-----------------------------|
|--7----7-7-6-------------------|-----4------4--6--6-----6----|
|--0----0-0-0---0-----0---0---0-|--0--0-0-0--0--0--0-----0----|
|--0----0-0-0---0-----0---0---0-|--0--0-0-0--0--0--0-----0----|


  E  E  E  E E  E  E  E   E  E  E  E E  E  E  E
|-----------------------|-----------------------|
|-----------------------|-----------------------|
|-----------------------|-----------------------|
|-----------------------|-----------------------|
|---16-16-14---14-14-12-|---12-12-14---14-14-16-|
|-----------------------|-----------------------|
|
| E  E  E  E E  E  E  E   E  E  E  E E  E  E  E
|-----------------------|-----------------------|
|-----------------------|-----------------------|
|-----------------------|-----------------------|
|-----------------------|-----------------------|
|---12-12-11---11-11--9-|----9--9-11---11-11-12-|
|-----------------------|-----------------------|
|
|            PM-----------|     PM|
| E  E  E  E E  E  E  E   E  E  E  E E  E  E  E
|-----------------------|-----------------------|
|-----------------------|-----------------------|
|-----------------------|-----------------------|
|-7--7--7--6------------|----4-------4--6--6--6-|
|-4--4--4--4-4--4--4--4-|-4--4--4--4-4--4--4--4-|
|-4--4--4--4-4--4--4--4-|-4--4--4--4-4--4--4--4-|


   E  E  E  E  E  E  E  E    E  E  E  E  E  E  E  E
|-------------------------|-------------------------|
|-------------------------|-------------------------|
|-------------14-------16-|-------18-------21-------|
|-11-12-11-12----12s14----|-14s16----16s19----18-19-|
|-------------------------|-------------------------|
|-------------------------|-------------------------|
|
|  E  E  E  E  E  E  E  E    E  E  E  E  E  E  E  E
|-------------------------|-------------------------|
|-------------------------|-------------------------|
|-------------------------|-------------------------|
|-------------14-------16-|-------18-------21-------|
|-11-12-11-12----12s14----|-14s16----16s19----18-19-|
|-------------------------|-------------------------|
|
|              PM-----------|      PM|
|  E  E  E  E  E  E  E  E    E  E  E  E  E  E  E  E
|-------------------------|-------------------------|
|-------------------------|-------------------------|
|-------------------------|-------------------------|
|--7--7--7--6-------------|-----4--------4--6--6--6-|
|--0--0--0--0--0--0--0--0-|--0--0--0--0--0--0--0--0-|
|--0--0--0--0--0--0--0--0-|--0--0--0--0--0--0--0--0-|


                ~~~~~~~                     ~~~~~~~
   E  E  E  E  +H              E  E  E  E  +H
|---------------------------|--------------------------|
|---------------------------|--------------------------|
|---------------------------|-14-16-14-16-(16)b17------|
|-14-15-14-15-(15)b17-------|--------------------------|
|---------------------------|--------------------------|
|---------------------------|--------------------------|
|
|               PM------------|
|  E  E  E  E   E     E E E    E  E  E  E   E     E Q
|---------------------------|--------------------------|
|---------------------------|--------------------------|
|---------------------------|--------------------------|
|-10-10-10--9---------------|-----5--5--5---3-------5--|
|--7--7--7--7---7-----7-7-7-|--7--5--5--5---3-------5--|
|--7--7--7--7---7-----7-7-7-|--7--5--5--5---3-------5--|


             ~~~~~~~                      ~~
   E  E  E  +H                E  E  E  E  H
|--------------------------|-20----17----19--------|
|-17-18-17-(17)b19---------|----17----17-----------|
|--------------------------|-----------------------|
|--------------------------|-----------------------|
|--------------------------|-----------------------|
|--------------------------|-----------------------|
|
|                  PM--------|
|  E  E  E   E     E E E E    E  E  E  E  E E Q
|--------------------------|-----------------------|
|--------------------------|-----------------------|
|--------------------------|-----------------------|
|-10-10-10---9-------------|-----5--5--5--3---5----|
|--7--7--7---7-----7-7-7-7-|--7--5--5--5--3---5----|
|--7--7--7---7-----7-7-7-7-|--7--5--5--5--3---5----|


    ~~~~~~~~~~~~~~~~~~~~~~~~~~~~~~~~~~~~~
   +W                   W
|-(19)---------------|-18---------------|
|--------------------|------------------|
|--------------------|------------------|
|--------------------|------------------|
|--------------------|------------------|
|--------------------|------------------|
|
|   E  E E E E E E E    E E E E E E E E
|--------------------|------------------|
|--------------------|------------------|
|--------------------|------------------|
|--------------------|------------------|
|---8--8-8-8-8-8-8-8-|--9-9-9-9-9-9-9-9-|
|---7--7-7-7-7-7-7-7-|--8-8-8-8-8-8-8-8-|
|
|   E  E E E E E E E    E E E E E E E E
|--------------------|------------------|
|--------------------|------------------|
|--------------------|------------------|
|--------------------|------------------|
|---8--8-8-8-8-8-8-8-|--9-9-9-9-9-9-9-9-|
|---7--7-7-7-7-7-7-7-|--8-8-8-8-8-8-8-8-|


 ~~~~~~~~~~~~~~~~~~~~~~~~~~~~~~~~~~~~~~
   +W                              +W
|-(18)b19=======================|=(18)----------------------|
|-------------------------------|---------------------------|
|-------------------------------|---------------------------|
|-------------------------------|---------------------------|
|-------------------------------|---------------------------|
|-------------------------------|---------------------------|
|
|   E       E  E  E  E  E  E  E     E   E  E  E  E  E  E  E
|-------------------------------|---------------------------|
|-------------------------------|---------------------------|
|-------------------------------|---------------------------|
|--12------12-12-11-11-11-------|---------------------------|
|---9-------9--9--9--9--9-12-12-|--12--10-10-10-10-10-10-10-|
|---9-------9--9--9--9--9--9--9-|---9---9--9--9--9--9--9--9-|
|
|   E       E  E  E  E  E  E  E     E   E  E  E  E  E  E  E
|-------------------------------|---------------------------|
|-------------------------------|---------------------------|
|-------------------------------|---------------------------|
|---9-------9--9--9--9--9--9--9-|---9---9--9--9--9--9--9--9-|
|---9-------9--9--9--9--9--9--9-|---9---9--9--9--9--9--9--9-|
|---9-------9--9--9--9--9--9--9-|---9---9--9--9--9--9--9--9-|


   E  E  E  E  E  E  E  E    E  E  E  E  E  E  E  E
|-------------------------|-------------------------|
|-------------------------|-------------------------|
|-------------------------|-------------------------|
|-12-12-12-11-11-11-14-14-|-14-12-12-12-12-12-12-12-|
|--8--8--8--8--8--8--8--8-|--8--8--8--8--8--8--8--8-|
|--8--8--8--8--8--8--8--8-|--8--8--8--8--8--8--8--8-|
|
|  E  E  E  E  E  E  E  E    E  E  E  E  E  E  E  E
|-------------------------|-------------------------|
|-------------------------|-------------------------|
|-------------------------|-------------------------|
|--8--8--8--8--8--8--8--8-|--8--8--8--8--8--8--8--8-|
|--8--8--8--8--8--8--8--8-|--8--8--8--8--8--8--8--8-|
|--8--8--8--8--8--8--8--8-|--8--8--8--8--8--8--8--8-|


     E  E  E  E  E  E  E  E    E E E E E E E E
||--------------------------|------------------|
||o-------------------------|------------------|
||--------------------------|------------------|
||--12-12-12-11-11-11-------|------------------|
||o--0--0--0--0--0--0-12-12-|-12-9-9-9-9-9-9-9-|
||---0--0--0--0--0--0--0--0-|--0-0-0-0-0-0-0-0-|
|
|    E  E  E  E  E  E  E  E    E E E E E E E E
||--------------------------|------------------|
||o-------------------------|------------------|
||--------------------------|------------------|
||---0--0--0--0--0--0--0--0-|--0-0-0-0-0-0-0-0-|
||o--0--0--0--0--0--0--0--0-|--0-0-0-0-0-0-0-0-|
||---0--0--0--0--0--0--0--0-|--0-0-0-0-0-0-0-0-|


   E  E  E  E  E  E  E  E    E E E E E E E E
|-------------------------|------------------|
|-------------------------|------------------|
|-------------------------|------------------|
|-12-12-12-11-11-11-------|------------------|
|--0--0--0--0--0--0-12-12-|-12-9-9-9-9-9-9-9-|
|--0--0--0--0--0--0--0--0-|--0-0-0-0-0-0-0-0-|
|
|  E  E  E  E  E  E  E  E    E E E E E E E E
|-------------------------|------------------|
|-------------------------|------------------|
|-------------------------|------------------|
|--0--0--0--0--0--0--0--0-|--0-0-0-0-0-0-0-0-|
|--0--0--0--0--0--0--0--0-|--0-0-0-0-0-0-0-0-|
|--0--0--0--0--0--0--0--0-|--0-0-0-0-0-0-0-0-|


   E  E  E  E  E  E  E  E   E E E E E E E E
|-------------------------|-----------------|
|-------------------------|-----------------|
|-10-10-10-10-10-10-10-10-|-9-9-9-9-9-9-9-9-|
|--8--8--8--8--8--8--8--8-|-8-8-8-8-8-8-8-8-|
|-------------------------|-----------------|
|-------------------------|-----------------|
|
|  E  E  E  E  E  E  E  E   E E E E E E E E
|-------------------------|-----------------|
|-------------------------|-----------------|
|-------------------------|-----------------|
|--0--0--0--0--0--0--0--0-|-0-0-0-0-0-0-0-0-|
|--0--0--0--0--0--0--0--0-|-0-0-0-0-0-0-0-0-|
|--0--0--0--0--0--0--0--0-|-0-0-0-0-0-0-0-0-|


   E  E  E  E  E  E  E  E   E E E E E E E E
|-------------------------|-----------------|
|-------------------------|-----------------|
|-10-10-10-10-10-10-10-10-|-9-9-9-9-9-9-9-9-|
|--8--8--8--8--8--8--8--8-|-8-8-8-8-8-8-8-8-|
|-------------------------|-----------------|
|-------------------------|-----------------|
|
|  E  E  E  E  E  E  E  E   E E E E E E E E
|-------------------------|-----------------|
|-------------------------|-----------------|
|-------------------------|-----------------|
|--0--0--0--0--0--0--0--0-|-0-0-0-0-0-0-0-0-|
|--0--0--0--0--0--0--0--0-|-0-0-0-0-0-0-0-0-|
|--0--0--0--0--0--0--0--0-|-0-0-0-0-0-0-0-0-|


  E E E E E E E E   E E E E E E E E
|-----------------|-----------------|
|-----------------|-----------------|
|-----------------|-----------------|
|-8-8-8-8-8-8-8-8-|-7-7-7-7-7-7-7-7-|
|-4-4-4-4-4-4-4-4-|-4-4-4-4-4-4-4-4-|
|-----------------|-----------------|
|
| E E E E E E E E   E E E E E E E E
|-----------------|-----------------|
|-----------------|-----------------|
|-----------------|-----------------|
|-0-0-0-0-0-0-0-0-|-0-0-0-0-0-0-0-0-|
|-0-0-0-0-0-0-0-0-|-0-0-0-0-0-0-0-0-|
|-0-0-0-0-0-0-0-0-|-0-0-0-0-0-0-0-0-|


  E E E E E E E E   E E E E E E E E
|-----------------|------------------||----|
|-----------------|-----------------o||----|
|-----------------|------------------||----|
|-7-7-7-7-7-7-7-7-|-7-7-7-7-7-7-7-7--||----|
|-4-4-4-4-4-4-4-4-|-4-4-4-4-4-4-4-4-o||----|
|-----------------|------------------||----|
|
| E E E E E E E E   E E E E E E E E
|-----------------|------------------||----|
|-----------------|-----------------o||----|
|-----------------|------------------||----|
|-0-0-0-0-0-0-0-0-|-0-0-0-0-0-0-0-0--||----|
|-0-0-0-0-0-0-0-0-|-0-0-0-0-0-0-0-0-o||----|
|-0-0-0-0-0-0-0-0-|-0-0-0-0-0-0-0-0--||----|


    Q=214
      PM----|   PM----|     PM--------------|         PM  PM
    E E S S E E E S S E   E E S S E E S S E E   E E E E E E Q
||----------------------|---------------------|---------------|
||o---------------------|---------------------|---------------|
||----------------------|---------------------|---------------|
||------------6---------|-7-------------------|-----7---6-----|
||o-5-------------------|---------------------|---5---------7-|
||----0-0-0-0---0-0-0-0-|---0-0-0-0-0-0-0-0-0-|-3-----3---3---|
|
|     PM----|   PM----|     PM--------------|         PM  PM
|   E E S S E E E S S E   E E S S E E S S E E   E E E E E E Q
||----------------------|---------------------|---------------|
||o---------------------|---------------------|---------------|
||----------------------|---------------------|---------------|
||------------6---------|-7-------------------|-----7---6-----|
||o-5-------------------|---------------------|---5---------7-|
||----0-0-0-0---0-0-0-0-|---0-0-0-0-0-0-0-0-0-|-3-----3---3---|


  PM------------|     PM----|   PM----|
  E E E E E E E E   E E S S E E E S S E
|-----------------|---------------------|
|-----------------|---------------------|
|-----------------|---------------------|
|-----------------|---------------------|
|-3-3-3-4-4-4-2-2-|-5---------4---------|
|-3-3-3-4-4-4-2-2-|---0-0-0-0---0-0-0-0-|
|
| PM------------|     PM----|   PM----|
| E E E E E E E E   E E S S E E E S S E
|-----------------|---------------------|
|-----------------|---------------------|
|-----------------|---------------------|
|-----------------|---------------------|
|-3-3-3-4-4-4-2-2-|-5---------4---------|
|-3-3-3-4-4-4-2-2-|---0-0-0-0---0-0-0-0-|


                    PM------------------|
  E E E E E E E E   E S S E E S S E S S E
|-----------------|------------------------||-|
|-----------------|-----------------------o||-|
|-----------------|------------------------||-|
|-----------------|------------------------||-|
|-1-1-1-4-4-4-4-4-|-5-5-5-5-5-6-6-6-4-4-4-o||-|
|-----------------|------------------------||-|
|
|                   PM------------------|
| E E E E E E E E   E S S E E S S E S S E
|-----------------|------------------------||-|
|-----------------|-----------------------o||-|
|-----------------|------------------------||-|
|-----------------|------------------------||-|
|-----------------|-5-5-5-5-5-6-6-6-4-4-4-o||-|
|-4-4-4-7-7-7-7-7-|------------------------||-|


      PM----|   PM----|     PM--------------|         PM  PM
    E E S S E E E S S E   E E S S E E S S E E   E E E E E E Q
||----------------------|---------------------|---------------|
||o---------------------|---------------------|---------------|
||----------------------|---------------------|---------------|
||------------6---------|-7-------------------|-----7---6-----|
||o-5-------------------|---------------------|-5-8---5---5-7-|
||----0-0-0-0---0-0-0-0-|---0-0-0-0-0-0-0-0-0-|---------------|
|
|     PM----|   PM----|     PM--------------|         PM  PM
|   E E S S E E E S S E   E E S S E E S S E E   E E E E E E Q
||----------------------|---------------------|---------------|
||o---------------------|---------------------|---------------|
||----------------------|---------------------|---------------|
||------------6---------|-7-------------------|-----7---6-----|
||o-5-------------------|---------------------|-------------7-|
||----0-0-0-0---0-0-0-0-|---0-0-0-0-0-0-0-0-0-|-8-5---8---8---|


  PM------------|     PM----|   PM----|
  E E E E E E E E   E E S S E E E S S E
|-----------------|---------------------|
|-----------------|---------------------|
|-----------------|---------------------|
|-----------------|---------------------|
|-3-3-3-4-4-4-2-2-|-5---------4---------|
|-3-3-3-4-4-4-2-2-|---0-0-0-0---0-0-0-0-|
|
| PM------------|     PM----|   PM----|
| E E E E E E E E   E E S S E E E S S E
|-----------------|---------------------|
|-----------------|---------------------|
|-----------------|---------------------|
|-----------------|---------------------|
|-3-3-3-4-4-4-2-2-|-5---------4---------|
|-3-3-3-4-4-4-2-2-|---0-0-0-0---0-0-0-0-|


                    PM------------------|
  E E E E E E E E   E S S E E S S E S S E
|-----------------|------------------------||-|
|-----------------|-----------------------o||-|
|-----------------|------------------------||-|
|-----------------|------------------------||-|
|-----------------|-5-5-5-5-5-6-6-6-4-4-4-o||-|
|-4-4-4-7-7-7-7-7-|------------------------||-|
|
|                   PM------------------|
| E E E E E E E E   E S S E E S S E S S E
|-----------------|------------------------||-|
|-----------------|-----------------------o||-|
|-----------------|------------------------||-|
|-----------------|------------------------||-|
|-1-1-1-4-4-4-4-4-|-----------------------o||-|
|-----------------|-3-3-3-3-3-4-4-4-2-2-2--||-|


      PM----------------------------------------------|
    E S S E  E  S S E  S S E  E  S S E  E  S S E  S S E  5x
||-------------------------------------------------------||
||o-----------------------------------------------------o||
||-------------------------------------------------------||
||-------------------------------------------------------||
||o-----------------------------------------------------o||
||----3-3-3--3--4-4-4--2-2-2--3--3-3-3--3--4-4-4--2-2-2--||
|
|     Gtr II
|     PM----------------------------------------------|
|   E S S E  E  S S E  S S E  E  S S E  E  S S E  S S E  5x
||-------------------------------------------------------||
||o-----------------------------------------------------o||
||-------------------------------------------------------||
||-------------------------------------------------------||
||o---5-5-5--5--6-6-6--4-4-4--5--5-5-5--5--6-6-6--4-4-4-o||
||-------------------------------------------------------||


                     D.S.S.
    PM-------------------|
  E S S E  E  S S E  S S E
|---------------------------|
|---------------------------|
|---------------------------|
|---------------------------|
|---------------------------|
|---3-3-3--3--4-4-4--2-2-2--|
|
|   PM-------------------|
| E S S E  E  S S E  S S E
|---------------------------|
|---------------------------|
|---------------------------|
|---------------------------|
|---5-5-5--5--6-6-6--4-4-4--|
|---------------------------|


       Q=107
  &
       Gtr I
        W                              W
|--||-------------------------------|------------------|
|--||o------------------------------|------------------|
|--||-------------------------------|------------------|
|--||---0---------------------------|--6---------------|
|--||o--0---------------------------|--4---------------|
|--||---0---------------------------|--4---------------|
|
|      Gtr II
|                                            ~~~~~~~~~~
|                          |--3--|
|       E.  E.  E  E.  E.  T  S  S.    Q.    H     +E
|--||-------------------------------|------------------|
|--||o------------------------------|------------------|
|--||-------------------------------|------------------|
|--||-------------14--12--11h12p11--|------------------|
|--||o-11--12--11-------------------|-11----12----(12)-|
|--||-------------------------------|------------------|


   W                              W
|------------------------------|-------------------||
|------------------------------|------------------o||
|------------------------------|-------------------||
|--0---------------------------|--7----------------||
|--0---------------------------|--7---------------o||
|--0---------------------------|--7----------------||
|
|                     |--3--|
|  E.  E.  E  E.  E.  T  S  S.    Q.    Q.    E.
|------------------------------|-------------------||
|------------------------------|------------------o||
|------------------------------|-14----13----------||
|------------14--12--11h12p11--|-------------14----||
|-11--12--11-------------------|------------------o||
|------------------------------|-------------------||


  Q=135
                   PM|   PM|
  W          +Q.   S S E S S Q
|----------|-------------------|
|----------|-------------------|
|----------|-------------------|
|-4--------|-(4)-------4-----1-|
|-4--------|-(4)-------4-----1-|
|-4--------|-(4)---0-0-4-0-0-1-|


      PM----------------------|   PM|
    E E E E E E E E   E E E S S E S S Q
||------------------|--------------------|
||o-----------------|--------------------|
||------------------|--------------------|
||--0---------------|-----------4-----1--|
||o-0---------------|-----------4-----1--|
||--0-0-0-0-0-0-0-0-|-0-0-0-0-0-4-0-0-1--|


    PM----------|
  E E E E E E E E   E E E E E E E E   8x
|-----------------|-------------------||
|-----------------|------------------o||
|-----------------|-------------------||
|-0---------------|-------------------||
|-0---------------|-------4-------3--o||
|-0-0-0-0-0-0-0-0-|-0-3-4---4-3-1-----||


Duration Legend
---------------
W - whole; H - half; Q - quarter; E - 8th; S - 16th; T - 32nd; X - 64th; a - acciaccatura
+ - note tied to previous; . - note dotted; .. - note double dotted
Uncapitalized letters represent notes that are staccato (1/2 duration)
Irregular groupings are notated above the duration line
Duration letters will always appear directly above the note/fret number it represents the
duration for.  Duration letters with no fret number below them represent rests.  Multi-
bar rests are notated in the form Wxn, where n is the number of bars to rest for.  Low
melody durations appear below the staff

Tablature Legend
----------------
 h   - hammer-on
 p   - pull-off
 b   - bend
 pb  - pre-bend
 r   - bend release (if no number after the r, then release immediately)
 /\  - slide into or out of (from/to "nowhere")
 s   - legato slide
 S   - shift slide
  - natural harmonic
[n]  - artificial harmonic
n(n) - tapped harmonic
 ~   - vibrato
 tr  - trill
 T   - tap
 TP  - trem. picking
 PM  - palm muting
\n/  - tremolo bar dip; n = amount to dip
 \n  - tremolo bar down
 n/  - tremolo bar up
/n\  - tremolo bar inverted dip
 =   - hold bend; also acts as connecting device for hammers/pulls
 <>  - volume swell (louder/softer)
 x   - on rhythm slash represents muted slash
 o   - on rhythm slash represents single note slash

Misc Legend
-----------
 |  - bar
||  - double bar
||o - repeat start
o|| - repeat end
*|  - double bar (ending)
 :  - bar (freetime)
 $  - Segno
 &  - Coda
Tempo markers -  = BPM(8/16=s8/s16), where s8 = swing 8ths, s16 = swing 16ths


***************************************************************************************
* Generated using Power Tab Editor by Brad Larsen - http://powertab.guitarnetwork.org *
***************************************************************************************
5 comments total. Showing first comments.
0 reply
DimebagRob wrote on December 13 2008, 04:30 pm

Yes!!! Finally a full Declaration tab!

0 reply
bfmvrock wrote on March 29 2009, 01:38 pm

Dude this tab is frickin sweet, the others ones suck compare to this!!!

0 reply
casparov wrote on July 3 2009, 06:37 pm

damn this must have taken so much work

I want to post or [tab]
guest
You may want to rate the tab now too:
select rating
Please do not post tabs as comments. Select "correction" instead!