Oops, an error
Loading. Please wait.

Departure Tab

ver2
ver2

Whole song

Interactive

More versions @911Tabs.com
16,560 views 21 this week
12 commentsread comments
1 2 3 4 5
excellent!
x 13
Autoscroll
+/-
esc
set tempo
stop
Contributor
Difficulty
Tabbers playing skills
advanced
advanced +
Hey! There's an official Ultimate Guitar app which is ideal
for learning songs when you're away from computer. Get the app
WARNING: You are trying to view
                                    content from Ultimate-Guitar.com
                                    in an unauthorized application,
                                    which is prohibited.

                                    Please use an official Ultimate
                                    Guitar Tabs application for iPhone,
                                    iPad or Android to access legitimate
                                    chords, guitar, bass, and drum tabs
                                    from Ultimate-Guitar.com database.

                                    Type "ultimate guitar tabs" in Apple
                                    App Store's or Android Market's
                                    search to find the application.
#----------------------------------PLEASE NOTE---------------------------------# 
#This file is the author's own work and represents their interpretation of the # 
#song. You may only use this file for private study, scholarship, or research. # 
#------------------------------------------------------------------------------# 

DEPARTURE 
As recorded by Trivium 
(From the 2005 Album ASCENDANCY) 


Transcribed by cob666 

Words by Matthew Kiichi Heafy Music by Trivium 
Arranged by Trivium 


Gtr I (D A D G B E) - 'Matthew Kiichi Heafy' 
Gtr II (D A D G B E) - 'Corey Beaulileu' 
Gtr III (D A D G B E) - 'Acoustic Guitar' 
Gtr IV (D A D G B E) - 'Lead' 
Gtr V (D A D G B E) - 'Backing Acoustic Guitar' 

Took a long time.  Mostly Right.

   Q=190 
  4/4 
   Gtr IV 
   E  E E E E E E E  E  E  E  E E E   E  E E E E E E E  E  E E E  E  E 
||-----------------------------------|----------------------------------| 
||o----------------------------------|----------------------------------| 
||----10-----7-----5--------3------2-|---10-----7-----5-------3-------2-| 
||-------7-----3------2--------2-----|------7-----3------2------2-------| 
||o-0------0-----0-------0-------0---|-0------0-----0-------0------0----| 
||-----------------------------------|----------------------------------| 
| 
|   Gtrs I, II 
|   W                +Q    +H          W                +H        +Q 
||-----------------------------------|----------------------------------| 
||o----------------------------------|----------------------------------| 
||-----------------------------------|----------------------------------| 
||--0----------------(0)---(0)-------|-2----------------(2)-------(2)---| 
||o-0----------------(0)---(0)-------|-2----------------(2)-------(2)---| 
||--0----------------(0)---(0)-------|-2----------------(2)-------(2)---| 


E  E E E E E E E  E  E E E  E  E   E  E E E  E  E E E E E E E E E 
|----------------------------------|--------------------------------| 
|----------------------------------|--------------------------------| 
|---10-----7-----5-------3-------2-|---10------7------5-----3-----2-| 
|------7-----3------2------2-------|------7-------3-----2-----2-----| 
|-0------0-----0-------0------0----|-0------0-------0-----0-----0---| 
|----------------------------------|--------------------------------| 
| 
| W                +H        +Q      H        +Q    W 
|----------------------------------|--------------------------------| 
|----------------------------------|--------------------------------| 
|----------------------------------|--------------------------------| 
|-3----------------(3)-------(3)---|-5--------(5)---7---------------| 
|-3----------------(3)-------(3)---|-5--------(5)---7---------------| 
|-3----------------(3)-------(3)---|-5--------(5)---7---------------| 


E  E  E E  E E E E  E  E E  E E  E 
|-------------------------------------| 
|-------------------------------------| 
|---14------10-----9-------9-------9--| 
|------12------8------8------10-------| 
|-0-------0------0-------0------0-----| 
|-------------------------------------| 
| 
| W                  +H           +Q 
|-------------------------------------| 
|-------------------------------------| 
|-------------------------------------| 
|-8------------------(8)----------(8)-| 
|-8------------------(8)----------(8)-| 
|-8------------------(8)----------(8)-| 


  E  E  E E  E E E E   E  E E  E E   E 
|-----------------------------------------|| 
|----------------------------------------o|| 
|----14------10-----9--------9--------9---|| 
|-------12------8-------7------10---------|| 
|--0-------0------0--------0------0------o|| 
|-----------------------------------------|| 
| 
|  W                   +H            +Q 
|-----------------------------------------|| 
|----------------------------------------o|| 
|-----------------------------------------|| 
|-10------------------(10)----------(10)--|| 
|-10------------------(10)----------(10)-o|| 
|-10------------------(10)----------(10)--|| 


E  E E E E E E E  E  E  E  E E E 
|----------------------------------| 
|----------------------------------| 
|---10-----7-----5--------3------2-| 
|------7-----3------2--------2-----| 
|-0------0-----0-------0-------0---| 
|----------------------------------| 
| 
| W                +Q    +H 
|----------------------------------| 
|----------------------------------| 
|----------------------------------| 
|-0----------------(0)---(0)-------| 
|-0----------------(0)---(0)-------| 
|-0----------------(0)---(0)-------| 


Q=175 
4/4 
Gtr I 
       > 
E E E W        +W         +Q 
|--------------------------------| 
|--------------------------------| 
|-------7--------(7)--------(7)--| 
|-7-7-7--------------------------| 
|-5-5-5--------------------------| 
|--------------------------------| 
| 
| Gtr II 
|       > 
| PM--| 
| E E E W        +W         +Q 
|--------------------------------| 
|--------------------------------| 
|--------------------------------| 
|-7-7-7-0--------(0)--------(0)--| 
|-5-5-5-0--------(0)--------(0)--| 
|-------0--------(0)--------(0)--| 
| 
| Gtr III 
|--------------------------------| 
|--------------------------------| 
|--------------------------------| 
|--------------------------------| 
|--------------------------------| 
|--------------------------------| 


|--------------------------------------------------------------------| 
|--------------------------------------------------------------------| 
|--------------------------------------------------------------------| 
|--------------------------------------------------------------------| 
|--------------------------------------------------------------------| 
|--------------------------------------------------------------------| 
| 
| +W             +W             +W               +W 
|--------------------------------------------------------------------| 
|--------------------------------------------------------------------| 
|--------------------------------------------------------------------| 
|-(0)------------(0)------------(0)--------------(0)-----------------| 
|-(0)------------(0)------------(0)--------------(0)-----------------| 
|-(0)------------(0)------------(0)--------------(0)-----------------| 
| 
|  E  E E E H     E  E E E H     E  E E H    +E   E  E E H    +E 
|-----------0--------------0-----------------------------------------| 
|---------6--------------6--------------3----(3)---------5----(5)----| 
|-------7--------------7--------------3----------------5-------------| 
|-----7--------------7--------------3----------------5---------------| 
|--5--------------5--------------1----------------3------------------| 
|--------------------------------------------------------------------| 


Gtr III 
E E E E H      E E E E H      E E E H    +E    E E E H    +E 
|---------0----|---------0----|----------------|----------------| 
|-------6------|-------6------|-------3----(3)-|-------5----(5)-| 
|-----7--------|-----7--------|-----3----------|-----5----------| 
|---7----------|---7----------|---3------------|---5------------| 
|-5------------|-5------------|-1--------------|-3--------------| 
|--------------|--------------|----------------|----------------| 


   Gtrs I, II 
   W              W              W                 W 
||---------------|--------------|----------------|------------------| 
||o--------------|--------------|----------------|------------------| 
||---------------|--------------|----------------|------------------| 
||--0------------|-7------------|-8--------------|-10---------------| 
||o-0------------|-7------------|-8--------------|-10---------------| 
||--0------------|-7------------|-8--------------|-10---------------| 
| 
|   Gtr III 
|   E E E E H      E E E E H      E E E H    +E     E E E H    +E 
||----------0----|---------0----|----------------|------------------| 
||o-------6------|-------6------|-------3----(3)-|--------5----(5)--| 
||------7--------|-----7--------|-----3----------|------5-----------| 
||----7----------|---7----------|---3------------|----5-------------| 
||o-5------------|-5------------|-1--------------|--3---------------| 
||---------------|--------------|----------------|------------------| 


W              W              W                W 
|--------------|--------------|----------------|----------------| 
|--------------|--------------|----------------|----------------| 
|--------------|--------------|----------------|----------------| 
|-0------------|-7------------|-8--------------|-5--------------| 
|-0------------|-7------------|-8--------------|-3--------------| 
|-0------------|-7------------|-8--------------|----------------| 
| 
| E E E E H      E E E E H      E E E H    +E    E E E H    +E 
|---------0----|---------0----|----------------|----------------| 
|-------6------|-------6------|-------3----(3)-|-------5----(5)-| 
|-----7--------|-----7--------|-----3----------|-----5----------| 
|---7----------|---7----------|---3------------|---5------------| 
|-5------------|-5------------|-1--------------|-3--------------| 
|--------------|--------------|----------------|----------------| 


4/4 
Gtrs I, II 
   PM----------|   PM----------|     PM----------|   PM----------| 
E E E E E E E E E E E E E E E E   E E E E E E E E E E E E E E E E 
|---------------------------------|----------------------------------| 
|---------------------------------|----------------------------------| 
|---------------------------------|----------------------------------| 
|-7-7-7-7-7-7-7-7-2-2-2-2-2-2-2-2-|-3-3-3-3-3-3-3-3-5-5-5-5-5-5-5-5--| 
|-5-5-5-5-5-5-5-5-0-0-0-0-0-0-0-0-|-1-1-1-1-1-1-1-1-3-3-3-3-3-3-3-3--| 
|---------------------------------|----------------------------------| 


E E E E E E E E   E E E E E E E E   E E E E E E E E   E E E E E E E E 
|-----------------|-----------------|-----------------|-----------------| 
|-----------------|-----------------|-----------------|-----------------| 
|-----------------|-----------------|-----------------|-----------------| 
|-7-7-7-7-7-7-7-7-|-2-2-2-2-2-2-2-2-|-3-3-3-3-3-3-3-3-|-5-5-5-5-5-5-5-5-| 
|-5-5-5-5-5-5-5-5-|-0-0-0-0-0-0-0-0-|-1-1-1-1-1-1-1-1-|-3-3-3-3-3-3-3-3-| 
|-----------------|-----------------|-----------------|-----------------| 


PM----|         PM----|           PM----|         PM----| 
E E E Q  Q  +E  E E E Q  Q  +E    E E E Q  Q  +E  E E E Q  Q  +E 
|---------------------------------|---------------------------------| 
|---------------------------------|---------------------------------| 
|---------------------------------|---------------------------------| 
|-0-0-0-0--0--(0)-0-0-0-0--0--(0)-|-8-8-8-8--8--(8)-7-7-7-7--7--(7)-| 
|-0-0-0-0--0--(0)-0-0-0-0--0--(0)-|-8-8-8-8--8--(8)-7-7-7-7--7--(7)-| 
|-0-0-0-0--0--(0)-0-0-0-0--0--(0)-|-8-8-8-8--8--(8)-7-7-7-7--7--(7)-| 


PM----|           PM----|           PM----|           PM----| 
E E E Q  Q  +E    E E E Q  Q  +E    E E E Q  Q  +E    E E E Q  Q  +E 
|-----------------|-----------------|-----------------|-----------------| 
|-----------------|-----------------|-----------------|-----------------| 
|-----------------|-----------------|-----------------|-----------------| 
|-0-0-0-0--0--(0)-|-0-0-0-0--0--(0)-|-8-8-8-8--8--(8)-|-7-7-7-7--7--(7)-| 
|-0-0-0-0--0--(0)-|-0-0-0-0--0--(0)-|-8-8-8-8--8--(8)-|-7-7-7-7--7--(7)-| 
|-0-0-0-0--0--(0)-|-0-0-0-0--0--(0)-|-8-8-8-8--8--(8)-|-7-7-7-7--7--(7)-| 


1. 
Gtr III 
E E E E H       E  E E E H       E  E E H    +E     E  E E H    +E 
|---------0----|-----------0----|------------------|------------------| 
|-------6------|---------6------|---------3----(3)-|---------5----(5)-| 
|-----7--------|-------7--------|-------3----------|-------5----------| 
|---7----------|-----7----------|-----3------------|-----5------------| 
|-5------------|--5-------------|--1---------------|--3---------------| 
|--------------|----------------|------------------|------------------| 
| 
| Gtrs I, II 
| W              +W               +W                 +W 
|--------------|----------------|------------------|------------------| 
|--------------|----------------|------------------|------------------| 
|--------------|----------------|------------------|------------------| 
|-0------------|-(0)------------|-(0)--------------|-(0)--------------| 
|-0------------|-(0)------------|-(0)--------------|-(0)--------------| 
|-0------------|-(0)------------|-(0)--------------|-(0)--------------| 


  E  E E E H       E  E E E H       E  E E H    +E     E  E E H    +E 
|-----------0----|-----------0----|------------------|-------------------|| 
|---------6------|---------6------|---------3----(3)-|---------5----(5)-o|| 
|-------7--------|-------7--------|-------3----------|-------5-----------|| 
|-----7----------|-----7----------|-----3------------|-----5-------------|| 
|--5-------------|--5-------------|--1---------------|--3---------------o|| 
|----------------|----------------|------------------|-------------------|| 
| 
| +W               +W               +W                 +W 
|----------------|----------------|------------------|-------------------|| 
|----------------|----------------|------------------|------------------o|| 
|----------------|----------------|------------------|-------------------|| 
|-(0)------------|-(0)------------|-(0)--------------|-(0)---------------|| 
|-(0)------------|-(0)------------|-(0)--------------|-(0)--------------o|| 
|-(0)------------|-(0)------------|-(0)--------------|-(0)---------------|| 


   2. 
   Gtrs I, II 
   PM----|           PM----|           PM----|           PM----| 
   E E E Q  Q  +E    E E E Q  Q  +E    E E E Q  Q  +E    E E E Q  Q  +E 
||------------------|-----------------|-----------------|-------------------|| 
||o-----------------|-----------------|-----------------|------------------o|| 
||------------------|-----------------|-----------------|-------------------|| 
||--0-0-0-0--0--(0)-|-0-0-0-0--0--(0)-|-8-8-8-8--8--(8)-|-7-7-7-7--7--(7)---|| 
||o-0-0-0-0--0--(0)-|-0-0-0-0--0--(0)-|-8-8-8-8--8--(8)-|-7-7-7-7--7--(7)--o|| 
||--0-0-0-0--0--(0)-|-0-0-0-0--0--(0)-|-8-8-8-8--8--(8)-|-7-7-7-7--7--(7)---|| 


E E E E E E E E  E  E  E  E  E  E  E  E 
|-----------------------------------------| 
|-----------------------------------------| 
|-----------------------------------------| 
|-8-8-8-8-8-8-8-8-10-10-10-10-10-10-10-10-| 
|-8-8-8-8-8-8-8-8-10-10-10-10-10-10-10-10-| 
|-8-8-8-8-8-8-8-8-10-10-10-10-10-10-10-10-| 


  E  E  E  E  E  E  E  E E E E E E E E E 
|-----------------------------------------| 
|-----------------------------------------| 
|-----------------------------------------| 
|-12-12-12-12-12-12-12-12-7-7-7-7-7-7-7-7-| 
|-12-12-12-12-12-12-12-12-7-7-7-7-7-7-7-7-| 
|-12-12-12-12-12-12-12-12-7-7-7-7-7-7-7-7-| 


E E E E E E E E    E  E  E  E  E  E  E  E 
|-----------------|-------------------------| 
|-----------------|-------------------------| 
|-----------------|-------------------------| 
|-8-8-8-8-8-8-8-8-|-10-10-10-10-10-10-10-10-| 
|-8-8-8-8-8-8-8-8-|-10-10-10-10-10-10-10-10-| 
|-8-8-8-8-8-8-8-8-|-10-10-10-10-10-10-10-10-| 


PM   PM   PM  PM     PM 
Q  S S Q  S S Q    S S Q  E S S S S E 
|------------------|--------------------| 
|------------------|--------------------| 
|------------------|--------------------| 
|-0--0-0-0--0-0-0--|-0-0-0--------------| 
|-0--0-0-0--0-0-0--|-0-0-0--------------| 
|-0--0-0-0--0-0-0--|-0-0-0--0-0-0-0-0-0-| 


E E E E E E E E    E  E  E  E  E  E  E  E 
|-----------------|-------------------------| 
|-----------------|-------------------------| 
|-----------------|-------------------------| 
|-8-8-8-8-8-8-8-8-|-10-10-10-10-10-10-10-10-| 
|-8-8-8-8-8-8-8-8-|-10-10-10-10-10-10-10-10-| 
|-8-8-8-8-8-8-8-8-|-10-10-10-10-10-10-10-10-| 


  E  E  E  E  E  E  E  E   E E E E E E E E 
|-------------------------|-----------------| 
|-------------------------|-----------------| 
|-------------------------|-----------------| 
|-12-12-12-12-12-12-12-12-|-7-7-7-7-7-7-7-7-| 
|-12-12-12-12-12-12-12-12-|-7-7-7-7-7-7-7-7-| 
|-12-12-12-12-12-12-12-12-|-7-7-7-7-7-7-7-7-| 


E E E E E E E E    E  E  E  E  E  E  E  E 
|-----------------|-------------------------| 
|-----------------|-------------------------| 
|-----------------|-------------------------| 
|-8-8-8-8-8-8-8-8-|-10-10-10-10-10-10-10-10-| 
|-8-8-8-8-8-8-8-8-|-10-10-10-10-10-10-10-10-| 
|-8-8-8-8-8-8-8-8-|-10-10-10-10-10-10-10-10-| 


PM   PM   PM  PM     PM 
Q  S S Q  S S Q    S S Q E S S S S S S S S 
|------------------|-------------------------| 
|------------------|-------------------------| 
|------------------|-------------------------| 
|-0--0-0-0--0-0-0--|-0-0-0-------------------| 
|-0--0-0-0--0-0-0--|-0-0-0-------------------| 
|-0--0-0-0--0-0-0--|-0-0-0-0-0-0-0-0-0-0-0-0-| 


Q=195 
Gtr II 
   PM------------------------------|   PM  PM--------| 
E S S S S S S S S E E S S S S S S S S E E S S S S S S   E E E E E E E E 
|-------------------------------------------------------|-----------------| 
|-------------------------------------------------------|-----------------| 
|-------------------------------------------------------|-----------------| 
|-3-----------------3-6-----------------6-7-------------|-----------------| 
|-1-----------------1-4-----------------4-5-------------|-5-5-5-5-4-4-4-4-| 
|---0-0-0-0-0-0-0-0-----0-0-0-0-0-0-0-0-----0-0-0-0-0-0-|-3-3-3-3-2-2-2-2-| 


Gtr I 
E H               E E E 
|---------------------------| 
|---------------------------| 
|---------------------------| 
|-3-----------------3-6-----| 
|-1-----------------1-4-----| 
|---------------------------| 
| 
| Gtr II 
|   PM----------------------- 
| E S S S S S S S S E E S S 
|---------------------------| 
|---------------------------| 
|---------------------------| 
|-3-----------------3-6-----| 
|-1-----------------1-4-----| 
|---0-0-0-0-0-0-0-0-----0-0-| 


Q.           E E Q.             E E  E E E E  E E 
|-------------------------------|---------------------| 
|-------------------------------|---------------------| 
|-------------------------------|-----10---9----------| 
|--------------6-7--------------|-0h7----7---7----7---| 
|--------------4-5--------------|---------------8-----| 
|-------------------------------|---------------------| 
| 
|----------|   PM  PM---------| 
| S  S S S S S E E S  S S S S S   E E  E E E E  E E 
|-------------------------------|---------------------| 
|-------------------------------|---------------------| 
|-------------------------------|---------------------| 
|--------------6-7--------------|-----10---9------7---| 
|--------------4-5--------------|-0h7----7---7--------| 
|-0--0-0-0-0-0-----0--0-0-0-0-0-|--------------10-----| 


   Gtrs I, II 
     PM------------------------------|   PM  PM--------| 
   E S S S S S S S S E E S S S S S S S S E E S S S S S S E E E E E E E E 
||-------------------------------------------------------------------------| 
||o------------------------------------------------------------------------| 
||-------------------------------------------------------------------------| 
||--3-----------------3-6-----------------6-7------------------------------| 
||o-1-----------------1-4-----------------4-5-------------5-5-5-5-4-4-4-4--| 
||----0-0-0-0-0-0-0-0-----0-0-0-0-0-0-0-0-----0-0-0-0-0-0-3-3-3-3-2-2-2-2--| 


                                                         Gtr I 
   PM------------------------------|   PM  PM--------| 
E S S S S S S S S E E S S S S S S S S E E S S S S S S   E E  E E E E  E E 
|-------------------------------------------------------|--------------------|| 
|-------------------------------------------------------|-------------------o|| 
|-------------------------------------------------------|-----10---9------2--|| 
|-3-----------------3-6-----------------6-7-------------|-0h7----7---7--3----|| 
|-1-----------------1-4-----------------4-5-------------|-------------------o|| 
|---0-0-0-0-0-0-0-0-----0-0-0-0-0-0-0-0-----0-0-0-0-0-0-|--------------------|| 
| 
|                                                         Gtr II 
|                                                         E E  E E E E  E E 
|-------------------------------------------------------|--------------------|| 
|-------------------------------------------------------|-------------------o|| 
|-------------------------------------------------------|--------------------|| 
|-------------------------------------------------------|-----10---9---------|| 
|-------------------------------------------------------|-0h7----7---7----7-o|| 
|-------------------------------------------------------|--------------10----|| 


   Gtr I 
                                            PM------------------------| 
   E E E E E E E E   E E E E E E E E    Q   E E E E E E E E E E E E E E 
||------------------|-----------------|-------------------------------------|| 
||o-----------------|-----------------|------------------------------------o|| 
||--3-3-3-3-3-3-3-3-|-6-6-6-6-6-6-6-6-|--7\---------------------------------|| 
||------------------|-----------------|-------------------------------------|| 
||o-1-1-1-1-1-1-1-1-|-4-4-4-4-4-4-4-4-|--5\--0-0-0-0-0-0-0-0-0-0-0-0-0-0---o|| 
||------------------|-----------------|------0-0-0-0-0-0-0-0-0-0-0-0-0-0----|| 
| 
|   Gtr II 
|                                            PM------------------------| 
|   E E E E E E E E   E E E E E E E E    Q   E E E E E E E E E E E E E E 
||------------------|-----------------|-------------------------------------|| 
||o-----------------|-----------------|------------------------------------o|| 
||--7-7-7-7-7-7-7-7-|-9-9-9-9-9-9-9-9-|-10\---------------------------------|| 
||------------------|-----------------|-------------------------------------|| 
||o-5-5-5-5-5-5-5-5-|-7-7-7-7-7-7-7-7-|--8\--0-0-0-0-0-0-0-0-0-0-0-0-0-0---o|| 
||------------------|-----------------|------0-0-0-0-0-0-0-0-0-0-0-0-0-0----|| 


                                       PM--------------| 
E  E  E E  E E E E E E E  E E Q   Q   E E E E E E E E E 
|---------------------------------------------------------| 
|---------------------------------------------------------| 
|---10-------7-----5-----3--------------------------------| 
|-------7------3-----2------2-----------------------------| 
|-0-------0------0-----0------0-4---5\--0-0-0-0-0-0-0-0-0-| 
|---------------------------------------0-0-0-0-0-0-0-0-0-| 
| 
|                                       PM--------------| 
| E  E  E E  E E E E E E E  E E Q   Q   E E E E E E E E E 
|---------------------------------------------------------| 
|---------------------------------------------------------| 
|---14------10-----9-----9------9--10\--------------------| 
|------12------8-----7-----11-----------------------------| 
|-0-------0------0-----0------0---------0-0-0-0-0-0-0-0-0-| 
|---------------------------------------0-0-0-0-0-0-0-0-0-| 


PM--------|                                        PM----------------------| 
E E E E E E  E  E  E E  E E E E E E E  E E Q   Q   E E E E E E E E E E E E E 
|--------------------------------------------------------------------------------| 
|--------------------------------------------------------------------------------| 
|----------------10-------7-----5-----3------------------------------------------| 
|--------------------7------3-----2------2---------------------------------------| 
|-0-0-0-0-0-0--0-------0------0-----0------0-4---5\--0-0-0-0-0-0-0-0-0-0-0-0-0---| 
|-0-0-0-0-0-0----------------------------------------0-0-0-0-0-0-0-0-0-0-0-0-0---| 
| 
| PM--------|                                        PM----------------------| 
| E E E E E E  E  E  E E  E E E E E E E  E E Q   Q   E E E E E E E E E E E E E 
|--------------------------------------------------------------------------------| 
|--------------------------------------------------------------------------------| 
|----------------14------10-----9-----9------9--10\------------------------------| 
|-------------------12------8-----7-----11---------------------------------------| 
|-0-0-0-0-0-0--0-------0------0-----0------0---------0-0-0-0-0-0-0-0-0-0-0-0-0---| 
|-0-0-0-0-0-0----------------------------------------0-0-0-0-0-0-0-0-0-0-0-0-0---| 


Gtrs I, II 
   PM--------------------------------|   PM  PM--------| 
E S S S S S S S S E E S S   S S S S S S E E S S S S S S   E E E E E E E E 
|---------------------------|-----------------------------|-------------------| 
|---------------------------|-----------------------------|-------------------| 
|---------------------------|-----------------------------|-------------------| 
|-3-----------------3-6-----|-------------6-7-------------|-------------------| 
|-1-----------------1-4-----|-------------4-5-------------|-5-5-5-5-4-4-4-4---| 
|---0-0-0-0-0-0-0-0-----0-0-|-0-0-0-0-0-0-----0-0-0-0-0-0-|-3-3-3-3-2-2-2-2---| 


Gtr I 
   PM------------|     PM--- 
E S S S S S S S S E E S S 
|---------------------------| 
|---------------------------| 
|---------------------------| 
|-3-----------------3-6-----| 
|-1-----------------1-4-----| 
|---0-0-0-0-0-0-0-0-----0-0-| 
| 
| Gtr II 
|   PM------------|     PM--- 
| E S S S S S S S S E E S S 
|---------------------------| 
|---------------------------| 
|---------------------------| 
|-3-----------------3-6-----| 
|-1-----------------1-4-----| 
|---0-0-0-0-0-0-0-0-----0-0-| 


-----------|     PM--------| 
S S S S S S E E S S S S S S   E E  E E E E  E E 
|-----------------------------|---------------------| 
|-----------------------------|---------------------| 
|-----------------------------|-----10---9------2---| 
|-------------6-7-------------|-0h7----7---7--3-----| 
|-------------4-5-------------|---------------------| 
|-0-0-0-0-0-0-----0-0-0-0-0-0-|---------------------| 
| 
|-----------|     PM--------| 
| S S S S S S E E S S S S S S   E E  E E E E  E E 
|-----------------------------|---------------------| 
|-----------------------------|---------------------| 
|-----------------------------|---------------------| 
|-------------6-7-------------|-----10---9----------| 
|-------------4-5-------------|-0h7----7---7----7---| 
|-0-0-0-0-0-0-----0-0-0-0-0-0-|--------------10-----| 


   Gtr I 
                                            PM------------------------| 
   E E E E E E E E   E E E E E E E E    Q   E E E E E E E E E E E E E E 
||------------------|-----------------|-------------------------------------|| 
||o-----------------|-----------------|------------------------------------o|| 
||--3-3-3-3-3-3-3-3-|-6-6-6-6-6-6-6-6-|--7\---------------------------------|| 
||------------------|-----------------|-------------------------------------|| 
||o-1-1-1-1-1-1-1-1-|-4-4-4-4-4-4-4-4-|--5\--0-0-0-0-0-0-0-0-0-0-0-0-0-0---o|| 
||------------------|-----------------|------0-0-0-0-0-0-0-0-0-0-0-0-0-0----|| 
| 
|   Gtr II 
|                                            PM------------------------| 
|   E E E E E E E E   E E E E E E E E    Q   E E E E E E E E E E E E E E 
||------------------|-----------------|-------------------------------------|| 
||o-----------------|-----------------|------------------------------------o|| 
||--7-7-7-7-7-7-7-7-|-9-9-9-9-9-9-9-9-|-10\---------------------------------|| 
||------------------|-----------------|-------------------------------------|| 
||o-5-5-5-5-5-5-5-5-|-7-7-7-7-7-7-7-7-|--8\--0-0-0-0-0-0-0-0-0-0-0-0-0-0---o|| 
||------------------|-----------------|------0-0-0-0-0-0-0-0-0-0-0-0-0-0----|| 


Gtr I 
                                         PM--------------| 
E  E  E E  E E E E   E E E  E E Q   Q   E E E E E E E E E 
|--------------------|--------------------------------------| 
|--------------------|--------------------------------------| 
|---10-------7-----5-|-----3--------------------------------| 
|-------7------3-----|-2------2-----------------------------| 
|-0-------0------0---|---0------0-4---5\--0-0-0-0-0-0-0-0-0-| 
|--------------------|--------------------0-0-0-0-0-0-0-0-0-| 
| 
| Gtr II 
|                                         PM--------------| 
| E  E  E E  E E E E   E E E  E E Q   Q   E E E E E E E E E 
|--------------------|--------------------------------------| 
|--------------------|--------------------------------------| 
|---14------10-----9-|-----9------9--10\--------------------| 
|------12------8-----|-7-----11-----------------------------| 
|-0-------0------0---|---0------0---------0-0-0-0-0-0-0-0-0-| 
|--------------------|--------------------0-0-0-0-0-0-0-0-0-| 


PM--------|                                       PM------------------------| 
E E E E E E E  E  E E  E E E E E E E  E E Q   Q   E E E E E E E E E E E E E E 
|---------------------------------------------------------------------------------| 
|---------------------------------------------------------------------------------| 
|---------------10-------7-----5-----3--------------------------------------------| 
|-------------------7------3-----2------2-----------------------------------------| 
|-0-0-0-0-0-0-0-------0------0-----0------0-4---5\--0-0-0-0-0-0-0-0-0-0-0-0-0-0---| 
|-0-0-0-0-0-0---------------------------------------0-0-0-0-0-0-0-0-0-0-0-0-0-0---| 
| 
| PM--------|                                       PM------------------------| 
| E E E E E E E  E  E E  E E E E E E E  E E Q   Q   E E E E E E E E E E E E E E 
|---------------------------------------------------------------------------------| 
|---------------------------------------------------------------------------------| 
|---------------14------10-----9-----9------9--10\--------------------------------| 
|------------------12------8-----7-----11-----------------------------------------| 
|-0-0-0-0-0-0-0-------0------0-----0------0---------0-0-0-0-0-0-0-0-0-0-0-0-0-0---| 
|-0-0-0-0-0-0---------------------------------------0-0-0-0-0-0-0-0-0-0-0-0-0-0---| 


Gtr IV 
  S  S  S  S  S  S  S  S  S  T  T  S  S  S  S  S  S 
|----------------------------------------------------| 
|----------------------------------------------------| 
|----------------------------------------14-15-14-12-| 
|----------------------------15-17-15-14-------------| 
|-12-14-15-17-15-14-15-17-19-------------------------| 
|----------------------------------------------------| 
| 
| Gtrs I, II 
|        PM------------------------------| 
|  E     E     E     E     E        E     E     E 
|----------------------------------------------------| 
|----------------------------------------------------| 
|----------------------------------------------------| 
|--3--------------------------------------------3----| 
|--1--------------------------------------------1----| 
|--------0-----0-----0-----0--------0-----0----------| 


  S  S  S  S  S  S  S  S  S  S  S  S  S  S  S  S 
|--------------------------------------------------| 
|--------------------------------------------------| 
|-14-15-17-15-14-12-14-15-17-19-17-15-14-15-17-19--| 
|--------------------------------------------------| 
|--------------------------------------------------| 
|--------------------------------------------------| 
| 
|        PM---------------------------------| 
|  E     E     E     E     E     E     E     E 
|--------------------------------------------------| 
|--------------------------------------------------| 
|--------------------------------------------------| 
|--6-----------------------------------------6-----| 
|--4-----------------------------------------4-----| 
|--------0-----0-----0-----0-----0-----0-----------| 


  S  S  S  S  T  T  S  S  S  S  S  S  S  S  S  S  S  S  S  S  S  S  S  E  +H 
|----------17-------------------------------------------------------------------------| 
|-17-18-20----20-18-17----------------------------------------------------------------| 
|----------------------19-17-15-14-15-17-15-14-12-------------------------------------| 
|-------------------------------------------------15-17-15-14-12----------------------| 
|----------------------------------------------------------------15-14-12-(12)--------| 
|-------------------------------------------------------------------------------------| 
| 
|        PM------------------------------| 
|  E     E     E        E     E     E     E     E     E     E     E     E   E  E E E 
|-------------------------------------------------------------------------------------| 
|-------------------------------------------------------------------------------------| 
|-------------------------------------------------------------------------------------| 
|--7----------------------------------------------------------------------------------| 
|--5--------------------------------------------------5-----5-----5-----5---4--4-4-4--| 
|--------0-----0--------0-----0-----0-----0-----0-----3-----3-----3-----3---2--2-2-2--| 


  Q.      Q.      Q      H        H 
|----------------------|-------------------| 
|----------------------|-------------------| 
|----------------------|-------------------| 
|----------------------|-------------------| 
|----------------------|-------------------| 
|-14------15------12---|-14-------10-------| 
| 
|     PM----------|         PM-----------| 
|  E  E E  E  E E  E E    E E E E  E E E E 
|----------------------|-------------------| 
|----------------------|-------------------| 
|----------------------|-------------------| 
|--3-----------------3-|--6--------------6-| 
|--1-----------------1-|--4--------------4-| 
|-----0-0--0--0-0--0---|----0-0-0--0-0-0---| 


  S  S  S  S  S  S  S  S  S  S  S  S  S  S  S  S 
|-------------------------------------------------| 
|-------------------------------------------------| 
|----------12-14-15-14-12----------------12-14-15-| 
|-12-14-15----------------15-14-12-14-15----------| 
|-------------------------------------------------| 
|-------------------------------------------------| 
| 
|        PM---------------------------| 
|  E     E     E     E     E     E     E     E 
|-------------------------------------------------| 
|-------------------------------------------------| 
|-------------------------------------------------| 
|--7----------------------------------------------| 
|--5----------------------------------------------| 
|--------0-----0-----0-----0-----0-----0-----0----| 


  S  S  S  S  S  S  S  S  S  S  S  S  S  S  S  S 
|-------------------------------------------------| 
|-------------------------------------------------| 
|-14-12----------------12-14-15-14-12-------------| 
|-------15-14-12-14-15----------------15-14-12-14-| 
|-------------------------------------------------| 
|-------------------------------------------------| 
| 
|  E     E     E     E     E     E     E     E 
|-------------------------------------------------| 
|-------------------------------------------------| 
|-------------------------------------------------| 
|-------------------------------------------------| 
|--5-----5-----5-----5-----4-----4-----4-----4----| 
|--3-----3-----3-----3-----2-----2-----2-----2----| 


  S  S  S  S  S  S  S  S  S  S  S  S  S  S  S  S 
|-------------------------------------------------| 
|-------------------13----------------------------| 
|----------12-14-15----15-14-12----------------12-| 
|-12-14-15----------------------15-14-12-14-15----| 
|-------------------------------------------------| 
|-------------------------------------------------| 
| 
|        PM---------------------------| 
|  E     E     E     E     E     E     E     E 
|-------------------------------------------------| 
|-------------------------------------------------| 
|-------------------------------------------------| 
|--3-----------------------------------------3----| 
|--1-----------------------------------------1----| 
|--------0-----0-----0-----0-----0-----0----------| 


  S  S  S  S  S  S  S  S  S  S  S  S  S  S  S  S 
|-------------------------------------------------| 
|-------13-------------------------------------13-| 
|-14-15----15-14-12-12----------------12-14-15----| 
|----------------------15-14-12-14-15-------------| 
|-------------------------------------------------| 
|-------------------------------------------------| 
| 
|        PM---------------------------------| 
|  E     E     E     E     E     E     E     E 
|-------------------------------------------------| 
|-------------------------------------------------| 
|-------------------------------------------------| 
|--6-----------------------------------------6----| 
|--4-----------------------------------------4----| 
|--------0-----0-----0-----0-----0-----0----------| 


  S  S  S  S  S  S  S  S  S  S  S  S  S  S  S  S    H        H 
|-------------------------------------------------|-------------------| 
|-15-13-------------------------------------------|-------------------| 
|-------15-14-12-15-14-12-------------------------|-------------------| 
|-------------------------15-14-12-15-14-12-14-12-|-15-------14-------| 
|-------------------------------------------------|-------------------| 
|-------------------------------------------------|-------------------| 
| 
|        PM---------------------------| 
|  E     E     E     E     E     E     E     E       E E E E  E E E E 
|-------------------------------------------------|-------------------| 
|-------------------------------------------------|-------------------| 
|-------------------------------------------------|-------------------| 
|--7----------------------------------------------|-------------------| 
|--5----------------------------------------------|--5-5-5-5--4-4-4-4-| 
|--------0-----0-----0-----0-----0-----0-----0----|--3-3-3-3--2-2-2-2-| 


  S  S  S  S  S  S  S  S  S  S  S  S  S  S  S  S 
|-------------------------------------------------| 
|-------------------------------------------------| 
|-------------------------------------------------| 
|----------12-14-15-12-14-15-14-15-17-15-17-19-15-| 
|-12-14-15----------------------------------------| 
|-------------------------------------------------| 
| 
|        PM---------------------------| 
|  E     E     E     E     E     E     E     E 
|-------------------------------------------------| 
|-------------------------------------------------| 
|-------------------------------------------------| 
|--3-----------------------------------------3----| 
|--1-----------------------------------------1----| 
|--------0-----0-----0-----0-----0-----0----------| 


  S  S  S  S  S  S  S  S  S  S  S  S  S  S  S  S 
|-------------------------------------------------| 
|-------------------------------------------15-17-| 
|-------14-15-17-14-15-17-15-17-19-15-17-19-------| 
|-17-19-------------------------------------------| 
|-------------------------------------------------| 
|-------------------------------------------------| 
| 
|        PM---------------------------------| 
|  E     E     E     E     E     E     E     E 
|-------------------------------------------------| 
|-------------------------------------------------| 
|-------------------------------------------------| 
|--6-----------------------------------------6----| 
|--4-----------------------------------------4----| 
|--------0-----0-----0-----0-----0-----0----------| 


  S  S  S  S  S  S  S  S  S  S  S  S  S  S  S  S    H           H 
|-------------------------------17----------------|-18b20r======18b20r======| 
|-18-15-17-18-17-18-20-17-18-20----20-18-17-18-20-|-------------------------| 
|-------------------------------------------------|-------------------------| 
|-------------------------------------------------|-------------------------| 
|-------------------------------------------------|-------------------------| 
|-------------------------------------------------|-------------------------| 
| 
|        PM---------------------------| 
|  E     E     E     E     E     E     E     E       E    E E E  E    E E E 
|-------------------------------------------------|-------------------------| 
|-------------------------------------------------|-------------------------| 
|-------------------------------------------------|-------------------------| 
|--7----------------------------------------------|-------------------------| 
|--5----------------------------------------------|--5----5-5-5--4----4-4-4-| 
|--------0-----0-----0-----0-----0-----0-----0----|--3----3-3-3--2----2-2-2-| 


Q=100 
Gtr IV         Gtr V 
                            ~                    ~~ 
  W              Q   E Q  E Q     Q   Q   Q   E  E 
|-20b22--------|----------------|--------------------| 
|--------------|------6----6-6--|--------------------| 
|--------------|------7----7-7--|------7-------9--9--| 
|--------------|--7-----7-------|------8------10-10--| 
|--------------|--5-----5-------|--8------10---------| 
|--------------|----------------|--8------10---------| 
| 
| Gtr III 
|                            ~                    ~~ 
|  W              Q   E Q  E Q     Q   Q   Q   E  E 
|--------------|----------------|--------------------| 
|--------------|------6----6-6--|--------------------| 
|--------------|------7----7-7--|------7-------9--9--| 
|--------------|--7-----7-------|------8------10-10--| 
|--------------|--5-----5-------|--8------10---------| 
|--------------|----------------|--8------10---------| 
| 
| Gtrs I, II 
|  > 
|  W             +W               +W 
|--------------|----------------|--------------------| 
|--------------|----------------|--------------------| 
|--------------|----------------|--------------------| 
|--0-----------|-(0)------------|-(0)----------------| 
|--0-----------|-(0)------------|-(0)----------------| 
|--0-----------|-(0)------------|-(0)----------------| 


             ~                ~~ 
  Q   E Q  E Q     Q   Q   E  E   T  T  S  S  S 
|----------------|--------------------------------| 
|------6----6-6--|--------------------------------| 
|------7----7-7--|------7------9--14h15p14-12-10--| 
|--7-----7-------|------8-----10------------------| 
|--5-----5-------|--8------10---------------------| 
|----------------|--8------10---------------------| 
| 
|             ~                ~~ 
|  Q   E Q  E Q     Q   Q   E  E   T  T  S  S  S 
|----------------|--------------------------------| 
|------6----6-6--|--------------------------------| 
|------7----7-7--|------7------9---9h10p=9--7--5--| 
|--7-----7-------|------8-----10------------------| 
|--5-----5-------|--8------10---------------------| 
|----------------|--8------10---------------------| 
| 
| +W               +W 
|----------------|--------------------------------| 
|----------------|--------------------------------| 
|----------------|--------------------------------| 
|-(0)------------|-(0)----------------------------| 
|-(0)------------|-(0)----------------------------| 
|-(0)------------|-(0)----------------------------| 


   Q=175 
   Gtrs I, II 
   PM----|           PM----|           PM----|           PM----| 
   E E E Q  Q  +E    E E E Q  Q  +E    E E E Q  Q  +E    E E E Q  Q  +E    4x 
||------------------|-----------------|-----------------|-------------------|| 
||o-----------------|-----------------|-----------------|------------------o|| 
||------------------|-----------------|-----------------|-------------------|| 
||--0-0-0-0--0--(0)-|-0-0-0-0--0--(0)-|-8-8-8-8--8--(8)-|-7-7-7-7--7--(7)---|| 
||o-0-0-0-0--0--(0)-|-0-0-0-0--0--(0)-|-8-8-8-8--8--(8)-|-7-7-7-7--7--(7)--o|| 
||--0-0-0-0--0--(0)-|-0-0-0-0--0--(0)-|-8-8-8-8--8--(8)-|-7-7-7-7--7--(7)---|| 


   E E E E E E E E    E  E  E  E  E  E  E  E 
||------------------|-------------------------| 
||o-----------------|-------------------------| 
||------------------|-------------------------| 
||--8-8-8-8-8-8-8-8-|-10-10-10-10-10-10-10-10-| 
||o-8-8-8-8-8-8-8-8-|-10-10-10-10-10-10-10-10-| 
||--8-8-8-8-8-8-8-8-|-10-10-10-10-10-10-10-10-| 


  E  E  E  E  E  E  E  E   E E E E E E E E 
|-------------------------|------------------| 
|-------------------------|------------------| 
|-------------------------|------------------| 
|-12-12-12-12-12-12-12-12-|-7-7-7-7-7-7-7-7--| 
|-12-12-12-12-12-12-12-12-|-7-7-7-7-7-7-7-7--| 
|-12-12-12-12-12-12-12-12-|-7-7-7-7-7-7-7-7--| 


E E E E E E E E    E  E  E  E  E  E  E  E 
|-----------------|-------------------------| 
|-----------------|-------------------------| 
|-----------------|-------------------------| 
|-8-8-8-8-8-8-8-8-|-10-10-10-10-10-10-10-10-| 
|-8-8-8-8-8-8-8-8-|-10-10-10-10-10-10-10-10-| 
|-8-8-8-8-8-8-8-8-|-10-10-10-10-10-10-10-10-| 


PM   PM   PM  PM     PM 
Q  S S Q  S S Q    S S Q  E S S S S S S S S 
|------------------|-----------------------------|| 
|------------------|----------------------------o|| 
|------------------|-----------------------------|| 
|-0--0-0-0--0-0-0--|-0-0-0-----------------------|| 
|-0--0-0-0--0-0-0--|-0-0-0----------------------o|| 
|-0--0-0-0--0-0-0--|-0-0-0--0-0-0-0-0-0-0-0-0----|| 


Gtrs I, II 
E E E E E E E E    E  E  E  E  E  E  E  E 
|-----------------|-------------------------| 
|-----------------|-------------------------| 
|-----------------|-------------------------| 
|-8-8-8-8-8-8-8-8-|-10-10-10-10-10-10-10-10-| 
|-8-8-8-8-8-8-8-8-|-10-10-10-10-10-10-10-10-| 
|-8-8-8-8-8-8-8-8-|-10-10-10-10-10-10-10-10-| 


  E  E  E  E  E  E  E  E   E E E E E E E E 
|-------------------------|-----------------| 
|-------------------------|-----------------| 
|-------------------------|-----------------| 
|-12-12-12-12-12-12-12-12-|-7-7-7-7-7-7-7-7-| 
|-12-12-12-12-12-12-12-12-|-7-7-7-7-7-7-7-7-| 
|-12-12-12-12-12-12-12-12-|-7-7-7-7-7-7-7-7-| 


E E E E E E E E    E  E  E  E  E  E  E  E 
|-----------------|-------------------------| 
|-----------------|-------------------------| 
|-----------------|-------------------------| 
|-8-8-8-8-8-8-8-8-|-10-10-10-10-10-10-10-10-| 
|-8-8-8-8-8-8-8-8-|-10-10-10-10-10-10-10-10-| 
|-8-8-8-8-8-8-8-8-|-10-10-10-10-10-10-10-10-| 


PM   PM   PM  PM     PM 
Q  S S Q  S S Q    S S Q  E S S S S S S S S 
|------------------|----------------------------| 
|------------------|----------------------------| 
|------------------|----------------------------| 
|-0--0-0-0--0-0-0--|-0-0-0----------------------| 
|-0--0-0-0--0-0-0--|-0-0-0----------------------| 
|-0--0-0-0--0-0-0--|-0-0-0--0-0-0-0-0-0-0-0-0---| 


E E E E E E E E  E  E  E  E  E  E  E  E  E  E  E  E  E  E  E  E E E E E E E E E 
|----------------------------------------------------------------------------------| 
|----------------------------------------------------------------------------------| 
|----------------------------------------------------------------------------------| 
|-8-8-8-8-8-8-8-8-10-10-10-10-10-10-10-10-12-12-12-12-12-12-12-12-7-7-7-7-7-7-7-7--| 
|-8-8-8-8-8-8-8-8-10-10-10-10-10-10-10-10-12-12-12-12-12-12-12-12-7-7-7-7-7-7-7-7--| 
|-8-8-8-8-8-8-8-8-10-10-10-10-10-10-10-10-12-12-12-12-12-12-12-12-7-7-7-7-7-7-7-7--| 


E E E E E E E E    E  E  E  E  E  E  E  E 
|-----------------|-------------------------| 
|-----------------|-------------------------| 
|-----------------|-------------------------| 
|-8-8-8-8-8-8-8-8-|-10-10-10-10-10-10-10-10-| 
|-8-8-8-8-8-8-8-8-|-10-10-10-10-10-10-10-10-| 
|-8-8-8-8-8-8-8-8-|-10-10-10-10-10-10-10-10-| 


PM   PM   PM  PM     PM 
Q  S S Q  S S Q    S S Q  E S S S S S S S S 
|------------------|----------------------------| 
|------------------|----------------------------| 
|------------------|----------------------------| 
|-0--0-0-0--0-0-0--|-0-0-0----------------------| 
|-0--0-0-0--0-0-0--|-0-0-0----------------------| 
|-0--0-0-0--0-0-0--|-0-0-0--0-0-0-0-0-0-0-0-0---| 


Gtrs I, II 
> 
W          +W           +W           +W 
|----------|------------|------------|--------*| 
|----------|------------|------------|--------*| 
|----------|------------|------------|--------*| 
|-0--------|-(0)--------|-(0)--------|-(0)----*| 
|-0--------|-(0)--------|-(0)--------|-(0)----*| 
|-0--------|-(0)--------|-(0)--------|-(0)----*| 




-------------------------------------------------------------------------------- 


Duration Legend 
--------------- 
W - whole; H - half; Q - quarter; E - 8th; S - 16th; T - 32nd; X - 64th; a - acciaccatura 
+ - note tied to previous; . - note dotted; .. - note double dotted 
Uncapitalized letters represent notes that are staccato (1/2 duration) 
Irregular groupings are notated above the duration line 
Duration letters will always appear directly above the note/fret number it represents the 
duration for.  Duration letters with no fret number below them represent rests.  Multi- 
bar rests are notated in the form Wxn, where n is the number of bars to rest for.  Low 
melody durations appear below the staff 

Tablature Legend 
---------------- 
h   - hammer-on 
p   - pull-off 
b   - bend 
pb  - pre-bend 
r   - bend release (if no number after the r, then release immediately) 
/\  - slide into or out of (from/to "nowhere") 
s   - legato slide 
S   - shift slide 
<n> - natural harmonic 
[n]  - artificial harmonic 
n(n) - tapped harmonic 
~   - vibrato 
tr  - trill 
T   - tap 
TP  - trem. picking 
PM  - palm muting 
\n/  - tremolo bar dip; n = amount to dip 
\n  - tremolo bar down 
n/  - tremolo bar up 
/n\  - tremolo bar inverted dip 
=   - hold bend; also acts as connecting device for hammers/pulls 
<> - volume swell (louder/softer) 
x   - on rhythm slash represents muted slash 
o   - on rhythm slash represents single note slash 

Misc Legend 
----------- 
|  - bar 
||  - double bar 
||o - repeat start 
o|| - repeat end 
*|  - double bar (ending) 
:  - bar (freetime) 
$  - Segno 
&  - Coda 
Tempo markers - <E/E./Q/Q./H/H.> = BPM(8/16=s8/s16), where s8 = swing 8ths, s16 = swing 16ths 
comments
print report bad tab
12 comments total. Showing first comments.
0 reply
spencer Cr wrote on April 7 2007, 11:58 am

finnaly a good tab thank you

0 reply
The_Crowing_IV wrote on April 7 2007, 02:03 pm

Nice job, man.

0 reply
Carltonium wrote on April 8 2007, 12:56 am

hey man, just wanted to say thanks for putting out that departure tab. Ive been waiting forever for an accurate one to be put up seeing as its my favorite trivium song (for some odd reason), and you hit it right on through the whole thing. again, nice job and congratulations for making it good. the only thing i have to say about it is that during the "run away!!!" part, it sounds like there should be a use of the g string or just a higher guitar 2 part during the 8's and 7's. just let me know if you notice it. overall, awesome tab

I want to post or [tab]
guest
You may want to rate the tab now too:
select rating
Please do not post tabs as comments. Select "correction" instead!