Oops, an error
Loading. Please wait.

Detonation Tab

ver3
2,855 views 6 this week
13 commentsread comments
1 2 3 4 5
accurate
x 18
Autoscroll
+/-
esc
set tempo
stop
Contributor
Hey! There's an official Ultimate Guitar app which is ideal
for learning songs when you're away from computer. Get the app
WARNING: You are trying to view
                                    content from Ultimate-Guitar.com
                                    in an unauthorized application,
                                    which is prohibited.

                                    Please use an official Ultimate
                                    Guitar Tabs application for iPhone,
                                    iPad or Android to access legitimate
                                    chords, guitar, bass, and drum tabs
                                    from Ultimate-Guitar.com database.

                                    Type "ultimate guitar tabs" in Apple
                                    App Store's or Android Market's
                                    search to find the application.
Artist: Trivium
Song:   Detonation
Album:  The Crusade
Year:   2006
Part:   Rhythm


Intro:
   Guitar 1
E||--------------------|------------------------------|--------------------|
B||--------------------|------------------------------|--------------------|
G||--4--------3--------|--4--------3----6--6--6--6----|--4--------3--------|
D||--4--------3--------|--4--------3----6--6--6--6----|--4--------3--------|
A||--2--------1--------|--2--------1----4--4--4--4----|--2--------1--------|
E||--2--0--0--1--------|--2--0--0--1----4--4--4--4----|--2--0--0--1--------|
 ||
 ||
 ||Guitar 2
E||--------------------|------------------------------|--------------------|
B||--------------------|------------------------------|--------------------|
G||--7--------6--------|--7--------6----9--9--9--9----|--7--------6--------|
D||--------------------|------------------------------|--------------------|
A||--5--------4--------|--5--------4----7--7--7--7----|--5--------4--------|
E||-----0--0-----------|-----0--0---------------------|-----0--0-----------|


 Guitar 1
|--------------------------------------|--------------------|
|--------------------------------------|--------------------|
|--------------------------------------|--4--------3--------|
|--------4--6--4-----------4--7--5-----|--4--------3--------|
|-----2-----------2-----3-----------3--|--2--------1--------|
|--2-----------------3-----------------|--2--0--0--1--------|
|
|
|Guitar 2
|--------------------------------------|--------------------|
|--------------------------------------|--------------------|
|-----------6-----------------7--------|--7--------6--------|
|-----4--6-----6--4-----4--7-----7--4--|--------------------|
|--4-----------------5-----------------|--5--------4--------|
|--------------------------------------|-----0--0-----------|


 Guitar 1
|------------------------------|--------------------|
|------------------------------|--------------------|
|--4--------3----6--6--6--6----|--4--------3--------|
|--4--------3----6--6--6--6----|--4--------3--------|
|--2--------1----4--4--4--4----|--2--------1--------|
|--2--0--0--1----4--4--4--4----|--2--0--0--1--------|
|
|
|Guitar 2
|------------------------------|--------------------|
|------------------------------|--------------------|
|--7--------6----9--9--9--9----|--7--------6--------|
|------------------------------|--------------------|
|--5--------4----7--7--7--7----|--5--------4--------|
|-----0--0---------------------|-----0--0-----------|


 Guitar 1                               Intro pt. 2:
|--------------------------------------|--------------------------------------|
|--------------------------------------|--------------------------------------|
|--------------------------------------|--------------------------------------|
|--------4--6--4-----------4--7--5-----|--1--------1--------1--------2--1--2--|
|-----2-----------2-----3-----------3--|--1--------1--------1--------2--1--2--|
|--2-----------------3-----------------|-----0--0-----0--0-----0--0-----------|
|
|
|Guitar 2
|--------------------------------------|--------------------------------------|
|--------------------------------------|--------------------------------------|
|-----------6-----------------7--------|--------------------------------------|
|-----4--6-----6--4-----4--7-----7--4--|--1--------1--------------------------|
|--4-----------------5-----------------|--1--------1--------------------------|
|--------------------------------------|-----0--0-----------------------------|


 Guitar 1
|---------------------------------------|--------------------|
|---------------------------------------|--------------------|
|---------------------------------------|--------------------|
|--1--------1--------1--------5\--------|--------------------|
|--1--------1--------1--------5\--------|--------------------|
|-----0--0-----0--0-----0--0---------0--|--3--5--6--2--3--5--|
|
|
|Guitar 2
|---------------------------------------|--------------------|
|---------------------------------------|--------------------|
|---------------------------------------|--------------------|
|---------------------------------------|--------------------|
|---------------------------------------|--------------------|
|---------------------------------------|--------------------|


 Guitar 1
|--------------------------------------|----------------------|
|--------------------------------------|----------------------|
|--------------------------------------|----------------------|
|--1--------1--------1--------2--1--2--|--3----6----4----7----|
|--1--------1--------1--------2--1--2--|--1----4----2----5----|
|-----0--0-----0--0-----0--0-----------|--1----4----2----5----|
|
|
|Guitar 2
|---------------------------------------|----------------------|
|---------------------------------------|----------------------|
|---------------------------------------|----------------------|
|---------------------------------------|--3----6----4----7----|
|---------------------------------------|--1----4----2----5----|
|---------------------------------------|--1----4----2----5----|


Verse: (Both Guitars)
|--------------------------------------|---------------------------------------|
|--------------------------------------|---------------------------------------|
|--------------------------------------|---------------------------------------|
|--1--------1--------1--------2--1--2--|--1--------1--------1--------5\--------|
|--1--------1--------1--------2--1--2--|--1--------1--------1--------5\--------|
|-----0--0-----0--0-----0--0-----------|-----0--0-----0--0-----0--0---------0--|


|--------------------|--------------------------------------|
|--------------------|--------------------------------------|
|--------------------|--------------------------------------|
|--------------------|--1--------1--------1--------2--1--2--|
|--------------------|--1--------1--------1--------2--1--2--|
|--3--5--6--2--3--5--|-----0--0-----0--0-----0--0-----------|


|----------------------|--------------------------------------|
|----------------------|--------------------------------------|
|----------------------|--------------------------------------|
|--3----6----4----7----|--1--------1--------1--------2--1--2--|
|--1----4----2----5----|--1--------1--------1--------2--1--2--|
|--1----4----2----5----|-----0--0-----0--0-----0--0-----------|


|---------------------------------------|--------------------|
|---------------------------------------|--------------------|
|---------------------------------------|--------------------|
|--1--------1--------1--------5\--------|--------------------|
|--1--------1--------1--------5\--------|--------------------|
|-----0--0-----0--0-----0--0---------0--|--3--5--6--2--3--5--|


|--------------------------------------|----------------------|
|--------------------------------------|----------------------|
|--------------------------------------|----------------------|
|--1--------1--------1--------2--1--2--|--3----6----4----7----|
|--1--------1--------1--------2--1--2--|--1----4----2----5----|
|-----0--0-----0--0-----0--0-----------|--1----4----2----5----|


|--------------------------------------|---------------------------------------|
|--------------------------------------|---------------------------------------|
|--------------------------------------|---------------------------------------|
|--1--------1--------1--------2--1--2--|--1--------1--------1--------5\--------|
|--1--------1--------1--------2--1--2--|--1--------1--------1--------5\--------|
|-----0--0-----0--0-----0--0-----------|-----0--0-----0--0-----0--0---------0--|


|--------------------|--------------------------------------|
|--------------------|--------------------------------------|
|--------------------|--------------------------------------|
|--------------------|--1--------1--------1--------2--1--2--|
|--------------------|--1--------1--------1--------2--1--2--|
|--3--5--6--2--3--5--|-----0--0-----0--0-----0--0-----------|


 Guitar 1
|----------------------|--------------------------------------|
|----------------------|--------------------------------------|
|----------------------|--4--------3--------------------------|
|--3----6----4----7----|--4--------3--------------------------|
|--1----4----2----5----|--2--------1--------------------------|
|--1----4----2----5----|--2--0--0--1-------0--0-0-0--0--0--0--|
|
|
|Guitar 2
|----------------------|--------------------------------------|
|----------------------|--------------------------------------|
|----------------------|--7--------6--------------------------|
|--3----6----4----7----|--------------------------------------|
|--1----4----2----5----|--5--------4--------------------------|
|--1----4----2----5----|-----0--0----------0--0-0-0--0--0--0--|


|------------------------------|--------------------------------------|
|------------------------------|--------------------------------------|
|--4--------3----6--6--6--6----|--4--------3--------------------------|
|--4--------3----6--6--6--6----|--4--------3--------------------------|
|--2--------1----4--4--4--4----|--2--------1--------------------------|
|--2--0--0--1----4--4--4--4----|--2--0--0--1-------0--0-0-0--0--0--0--|
|
|
|
|------------------------------|--------------------------------------|
|------------------------------|--------------------------------------|
|--7--------6----9--9--9--9----|--7--------6--------------------------|
|------------------------------|--------------------------------------|
|--5--------4----7--7--7--7----|--5--------4--------------------------|
|-----0--0---------------------|-----0--0----------0--0-0-0--0--0--0--|


|--------------------------------------|--------------------------------------|
|--------------------------------------|--------------------------------------|
|--------------------------------------|--4--------3--------------------------|
|--------4--6--4-----------4--7--5-----|--4--------3--------------------------|
|-----2-----------2-----3-----------3--|--2--------1--------------------------|
|--2-----------------3-----------------|--2--0--0--1-------0--0-0-0--0--0--0--|
|
|
|
|--------------------------------------|--------------------------------------|
|--------------------------------------|--------------------------------------|
|-----------6-----------------7--------|--4--------3--------------------------|
|-----4--6-----6--4-----4--7-----7--4--|--4--------3--------------------------|
|--4-----------------5-----------------|--2--------1--------------------------|
|--------------------------------------|--2--0--0--1-------0--0-0-0--0--0--0--|


|------------------------------|--------------------------------------|
|------------------------------|--------------------------------------|
|--4--------3----6--6--6--6----|--4--------3--------------------------|
|--4--------3----6--6--6--6----|--4--------3--------------------------|
|--2--------1----4--4--4--4----|--2--------1--------------------------|
|--2--0--0--1----4--4--4--4----|--2--0--0--1-------0--0-0-0--0--0--0--|
|
|
|
|------------------------------|--------------------------------------|
|------------------------------|--------------------------------------|
|--7--------6----9--9--9--9----|--7--------6--------------------------|
|------------------------------|--------------------------------------|
|--5--------4----7--7--7--7----|--5--------4--------------------------|
|-----0--0---------------------|-----0--0----------0--0-0-0--0--0--0--|



|--------------------------------------|--------------------------------------|
|--------------------------------------|--------------------------------------|
|--------------------------------------|--------------------------------------|
|--------4--6--4-----------4--7--5-----|--1--------1--------1--------2--1--2--|
|-----2-----------2-----3-----------3--|--1--------1--------1--------2--1--2--|
|--2-----------------3-----------------|-----0--0-----0--0-----0--0-----------|
|
|
|
|--------------------------------------|--------------------------------------|
|--------------------------------------|--------------------------------------|
|-----------6-----------------7--------|--------------------------------------|
|-----4--6-----6--4-----4--7-----7--4--|--1--------1--------1--------2--1--2--|
|--4-----------------5-----------------|--1--------1--------1--------2--1--2--|
|--------------------------------------|-----0--0-----0--0-----0--0-----------|


 Both Guitars
|--------------------------------------|---------------------------------------|
|--------------------------------------|---------------------------------------|
|--------------------------------------|---------------------------------------|
|--1--------1--------1--------2--1--2--|--1--------1--------1--------5\--------|
|--1--------1--------1--------2--1--2--|--1--------1--------1--------5\--------|
|-----0--0-----0--0-----0--0-----------|-----0--0-----0--0-----0--0---------0--|


|--------------------|--------------------------------------|
|--------------------|--------------------------------------|
|--------------------|--------------------------------------|
|--------------------|--1--------1--------1--------2--1--2--|
|--------------------|--1--------1--------1--------2--1--2--|
|--3--5--6--2--3--5--|-----0--0-----0--0-----0--0-----------|


|----------------------|--------------------------------------|
|----------------------|--------------------------------------|
|----------------------|--------------------------------------|
|--3----6----4----7----|--1--------1--------1--------2--1--2--|
|--1----4----2----5----|--1--------1--------1--------2--1--2--|
|--1----4----2----5----|-----0--0-----0--0-----0--0-----------|


|---------------------------------------|--------------------|
|---------------------------------------|--------------------|
|---------------------------------------|--------------------|
|--1--------1--------1--------5\--------|--------------------|
|--1--------1--------1--------5\--------|--------------------|
|-----0--0-----0--0-----0--0---------0--|--3--5--6--2--3--5--|


|--------------------------------------|----------------------|
|--------------------------------------|----------------------|
|--------------------------------------|----------------------|
|--1--------1--------1--------2--1--2--|--3----6----4----7----|
|--1--------1--------1--------2--1--2--|--1----4----2----5----|
|-----0--0-----0--0-----0--0-----------|--1----4----2----5----|


|--------------------------------------|---------------------------------------|
|--------------------------------------|---------------------------------------|
|--------------------------------------|---------------------------------------|
|--1--------1--------1--------2--1--2--|--1--------1--------1--------5\--------|
|--1--------1--------1--------2--1--2--|--1--------1--------1--------5\--------|
|-----0--0-----0--0-----0--0-----------|-----0--0-----0--0-----0--0---------0--|


|--------------------|--------------------------------------|
|--------------------|--------------------------------------|
|--------------------|--------------------------------------|
|--------------------|--1--------1--------1--------2--1--2--|
|--------------------|--1--------1--------1--------2--1--2--|
|--3--5--6--2--3--5--|-----0--0-----0--0-----0--0-----------|


 Guitar 1
|----------------------|--------------------------------------|
|----------------------|--------------------------------------|
|----------------------|--4--------3--------------------------|
|--3----6----4----7----|--4--------3--------------------------|
|--1----4----2----5----|--2--------1--------------------------|
|--1----4----2----5----|--2--0--0--1-------0--0-0-0--0--0--0--|
|
|
|Guitar 2
|----------------------|--------------------------------------|
|----------------------|--------------------------------------|
|----------------------|--7--------6--------------------------|
|--3----6----4----7----|--------------------------------------|
|--1----4----2----5----|--5--------4--------------------------|
|--1----4----2----5----|-----0--0----------0--0-0-0--0--0--0--|


 Guitar 1
|------------------------------|--------------------------------------|
|------------------------------|--------------------------------------|
|--4--------3----6--6--6--6----|--4--------3--------------------------|
|--4--------3----6--6--6--6----|--4--------3--------------------------|
|--2--------1----4--4--4--4----|--2--------1--------------------------|
|--2--0--0--1----4--4--4--4----|--2--0--0--1-------0--0-0-0--0--0--0--|
|
|
|Guitar 2
|------------------------------|--------------------------------------|
|------------------------------|--------------------------------------|
|--7--------6----9--9--9--9----|--7--------6--------------------------|
|------------------------------|--------------------------------------|
|--5--------4----7--7--7--7----|--5--------4--------------------------|
|-----0--0---------------------|-----0--0----------0--0-0-0--0--0--0--|


 Guitar 1
|--------------------------------------|--------------------------------------|
|--------------------------------------|--------------------------------------|
|--------------------------------------|--4--------3--------------------------|
|--------4--6--4-----------4--7--5-----|--4--------3--------------------------|
|-----2-----------2-----3-----------3--|--2--------1--------------------------|
|--2-----------------3-----------------|--2--0--0--1-------0--0-0-0--0--0--0--|
|
|
|Guitar 2
|--------------------------------------|--------------------------------------|
|--------------------------------------|--------------------------------------|
|-----------6-----------------7--------|--4--------3--------------------------|
|-----4--6-----6--4-----4--7-----7--4--|--4--------3--------------------------|
|--4-----------------5-----------------|--2--------1--------------------------|
|--------------------------------------|--2--0--0--1-------0--0-0-0--0--0--0--|

 Guitar 1
|------------------------------|--------------------------------------|
|------------------------------|--------------------------------------|
|--4--------3----6--6--6--6----|--4--------3--------------------------|
|--4--------3----6--6--6--6----|--4--------3--------------------------|
|--2--------1----4--4--4--4----|--2--------1--------------------------|
|--2--0--0--1----4--4--4--4----|--2--0--0--1-------0--0-0-0--0--0--0--|
|
|
|Guitar 2
|------------------------------|--------------------------------------|
|------------------------------|--------------------------------------|
|--7--------6----9--9--9--9----|--7--------6--------------------------|
|------------------------------|--------------------------------------|
|--5--------4----7--7--7--7----|--5--------4--------------------------|
|-----0--0---------------------|-----0--0----------0--0-0-0--0--0--0--|


 Guitar 1
|--------------------------------------|--------------------------------------|
|--------------------------------------|--------------------------------------|
|--------------------------------------|--------------------------------------|
|--------4--6--4-----------4--7--5-----|--1--------1--------1--------2--1--2--|
|-----2-----------2-----3-----------3--|--1--------1--------1--------2--1--2--|
|--2-----------------3-----------------|-----0--0-----0--0-----0--0-----------|
|
|
|Guitar 2
|--------------------------------------|--------------------------------------|
|--------------------------------------|--------------------------------------|
|-----------6-----------------7--------|--------------------------------------|
|-----4--6-----6--4-----4--7-----7--4--|--1--------1--------1--------2--1--2--|
|--4-----------------5-----------------|--1--------1--------1--------2--1--2--|
|--------------------------------------|-----0--0-----0--0-----0--0-----------|

 Guitar 1                               Chorus:
|--------------------------------------|--------------------------------------|
|--------------------------------------|--------------------------------------|
|--------------------------------------|--------------------------------------|
|--------4--6--4-----------4--7--5-----|--------------------------------------|
|-----2-----------2-----3-----------3--|--1--1--1--1--------1--1--1--1--------|
|--2-----------------3-----------------|--0--0--0--0--------0--0--0--0--------|
|
|
|Guitar 2
|--------------------------------------|--------------------------------------|
|--------------------------------------|--------------------------------------|
|-----------6-----------------7--------|--------------------------------------|
|-----4--6-----6--4-----4--7-----7--4--|--------------------------------------|
|--4-----------------5-----------------|--1--1--1--1--------1--1--1--1--------|
|--------------------------------------|--0--0--0--0--------0--0--0--0--------|

Both guitars
|--------------------------------------|--------------------------------------|
|--------------------------------------|--------------------------------------|
|--------------------------------------|--------------------------------------|
|--------------------------------------|--------------------------------------|
|--1--1--1--1--------1--1--1--1--------|--1--1--1--1--------1--1--1--1--------|
|--0--0--0--0--------0--0--0--0--------|--0--0--0--0--------0--0--0--0--------|



|--------------------------------------|
|--------------------------------------|
|--------------------------------------|
|--------------------------------------|
|--1--1--1--1--------1--1--1--1--------|
|--0--0--0--0--------0--0--0--0--------|


 Guitar 1 
|-------------------------------------------|
|-------------------------------------------|
|-------------------------------------------|
|--3------------3s--6----------4------------|
|--1----1-1-1-1-1s--4--4-4-4-4-2----2-2-2-2-|
|-------------------------------------------|
|
|
|Guitar 2
|-------------------------------------------|
|-------------------------------------------|
|--6------------6s--9----------7------------|
|-------------------------------------------|
|--4----4-4-4-4-4s--7--7-7-7-7-5----5-5-5-5-|
|-------------------------------------------|


 Guitar 1
|---------------------------------------------|
|---------------------------------------------|
|---------------------------------------------|
|--4s--7----------3------------3s--6----------|
|--2s--5--5-5-5-5-1----1-1-1-1-1s--4--4-4-4-4-|
|---------------------------------------------|
|
|
|Guitar 2
|----------------------------------------------|
|----------------------------------------------|
|--7s--10----------6------------6s--9----------|
|----------------------------------------------|
|--5s---8--8-8-8-8-4----4-4-4-4-4s--7--7-7-7-7-|
|----------------------------------------------|


 Guitar 1
|--------------------------------------------|
|--------------------------------------------|
|--------------------------------------------|
|--4------------4s---7----------3------------|
|--2----2-2-2-2-2s---5--5-5-5-5-1----1-1-1-1-|
|--------------------------------------------|
|
|
|Guitar 2
|--------------------------------------------|
|--------------------------------------------|
|--7------------7s--10----------6------------|
|--------------------------------------------|
|--5----5-5-5-5-5s---8--8-8-8-8-4----4-4-4-4-|
|--------------------------------------------|


Guitar 1
|----------------------------------------------|
|----------------------------------------------|
|----------------------------------------------|
|--3s--6----------4------------4s---7----------|
|--1s--4--4-4-4-4-2----2-2-2-2-2s---5--5-5-5-5-|
|----------------------------------------------|
|
|
|Guitar 2
|----------------------------------------------|
|----------------------------------------------|
|--6s--9----------7------------7s--10----------|
|----------------------------------------------|
|--4s--7--7-7-7-7-5----5-5-5-5-5s---8--5-5-5-5-|
|----------------------------------------------|


Both Guitars:
|---------------------------------------------------------------------|
|---------------------------------------------------------------------|
|---8---8---8---8---8---8---8---8---8---11--11--11--11--11--11--11----|
|--10--10--10--10--10--10--10--10--10---13--13--13--13--13--13--13----|
|---------------------------------------------------------------------|
|---------------------------------------------------------------------|


 Guitar 1
|-------------------------------------------|
|-------------------------------------------|
|-------------------------------------------|
|--3------------3s--6----------4------------|
|--1----1-1-1-1-1s--4--4-4-4-4-2----2-2-2-2-|
|-------------------------------------------|
|
|
|Guitar 2
|-------------------------------------------|
|-------------------------------------------|
|--6------------6s--9----------7------------|
|-------------------------------------------|
|--4----4-4-4-4-4s--7--7-7-7-7-5----5-5-5-5-|
|-------------------------------------------|


 Guitar 1
|---------------------------------------------|
|---------------------------------------------|
|---------------------------------------------|
|--4s--7----------3------------3s--6----------|
|--2s--5--5-5-5-5-1----1-1-1-1-1s--4--4-4-4-4-|
|---------------------------------------------|
|
|
|Guitar 2
|----------------------------------------------|
|----------------------------------------------|
|--7s--10----------6------------6s--9----------|
|----------------------------------------------|
|--5s---8--8-8-8-8-4----4-4-4-4-4s--7--7-7-7-7-|
|----------------------------------------------|


 Guitar 1
|--------------------------------------------|
|--------------------------------------------|
|--------------------------------------------|
|--4------------4s---7----------3------------|
|--2----2-2-2-2-2s---5--5-5-5-5-1----1-1-1-1-|
|--------------------------------------------|
|
|
|Guitar 2
|--------------------------------------------|
|--------------------------------------------|
|--7------------7s--10----------6------------|
|--------------------------------------------|
|--5----5-5-5-5-5s---8--8-8-8-8-4----4-4-4-4-|
|--------------------------------------------|


 Guitar 1
|----------------------------------------------|
|----------------------------------------------|
|----------------------------------------------|
|--3s--6----------4------------4s---7----------|
|--1s--4--4-4-4-4-2----2-2-2-2-2s---5--5-5-5-5-|
|----------------------------------------------|
|
|
|Guitar 2
|----------------------------------------------|
|----------------------------------------------|
|--6s--9----------7------------7s--10----------|
|----------------------------------------------|
|--4s--7--7-7-7-7-5----5-5-5-5-5s---8--5-5-5-5-|
|----------------------------------------------|


 Both Guitars
|---------------------------------------------------------------------|
|---------------------------------------------------------------------|
|---8---8---8---8---8---8---8---8---8---11--11--11--11--11--11--11----|
|--10--10--10--10--10--10--10--10--10---13--13--13--13--13--13--13----|
|---------------------------------------------------------------------|
|---------------------------------------------------------------------|



  Both Guitars (play 5 times)
||----------------------------------|----------------------|
||----------------------------------|----------------------|
||----------------------------------|----------------------|
||----------------------------------|----------------------|
||----------------------------------|--8----8----8----8----|
||--0-0-0-0-0-0-0-0-0-0-0-0-0-0-0-0-|--6----6----6----6----|


|----------------------------------|----------------------||
|----------------------------------|----------------------||
|----------------------------------|----------------------||
|----------------------------------|----------------------||
|----------------------------------|--3----3----3----3----||
|--0-0-0-0-0-0-0-0-0-0-0-0-0-0-0-0-|--1----1----1----1----||


 Guitar 1
|-------------------------------------------|
|-------------------------------------------|
|-------------------------------------------|
|--3------------3s--6----------4------------|
|--1----1-1-1-1-1s--4--4-4-4-4-2----2-2-2-2-|
|-------------------------------------------|
|
|
|Guitar 2
|-------------------------------------------|
|-------------------------------------------|
|--6------------6s--9----------7------------|
|-------------------------------------------|
|--4----4-4-4-4-4s--7--7-7-7-7-5----5-5-5-5-|
|-------------------------------------------|


 Guitar 1
|---------------------------------------------|
|---------------------------------------------|
|---------------------------------------------|
|--4s--7----------3------------3s--6----------|
|--2s--5--5-5-5-5-1----1-1-1-1-1s--4--4-4-4-4-|
|---------------------------------------------|
|
|
|Guitar 2
|----------------------------------------------|
|----------------------------------------------|
|--7s--10----------6------------6s--9----------|
|----------------------------------------------|
|--5s---8--8-8-8-8-4----4-4-4-4-4s--7--7-7-7-7-|
|----------------------------------------------|


 Guitar 1
|--------------------------------------------|
|--------------------------------------------|
|--------------------------------------------|
|--4------------4s---7----------3------------|
|--2----2-2-2-2-2s---5--5-5-5-5-1----1-1-1-1-|
|--------------------------------------------|
|
|
|Guitar 2
|--------------------------------------------|
|--------------------------------------------|
|--7------------7s--10----------6------------|
|--------------------------------------------|
|--5----5-5-5-5-5s---8--8-8-8-8-4----4-4-4-4-|
|--------------------------------------------|


 Guitar 1
|----------------------------------------------|
|----------------------------------------------|
|----------------------------------------------|
|--3s--6----------4------------4s---7----------|
|--1s--4--4-4-4-4-2----2-2-2-2-2s---5--5-5-5-5-|
|----------------------------------------------|
|
|
|Guitar 2
|----------------------------------------------|
|----------------------------------------------|
|--6s--9----------7------------7s--10----------|
|----------------------------------------------|
|--4s--7--7-7-7-7-5----5-5-5-5-5s---8--5-5-5-5-|
|----------------------------------------------|


Both Guitars
|---------------------------------------------------------------------|
|---------------------------------------------------------------------|
|---8---8---8---8---8---8---8---8---8---11--11--11--11--11--11--11----|
|--10--10--10--10--10--10--10--10--10---13--13--13--13--13--13--13----|
|---------------------------------------------------------------------|
|---------------------------------------------------------------------|

 Guitar 1
|----------------------------------------------------------|
|----------------------------------------------------------|
|----------------------------------------------------------|
|--11--11--11--12--12--12--9--9--11--11--------------------|
|---9---9---9---9---9---9--9--9---9---9--9--9--9--9--9--9--|
|----------------------------------------------------------|
|
|
|Guitar 2
|----------------------------------------------------------|
|----------------------------------------------------------|
|----------------------------------------------------------|
|----------------------------------------------------------|
|----------------------------------------------------------|
|----------------------------------------------------------|

 Guitar 1
|--------------------------------------------------|
|--------------------------------------------------|
|--------------------------------------------------|
|--6--6--6--7--7--7--4--4--6--6--------------------|
|--4--4--4--4--4--4--4--4--4--4--4--4--4--4--4--4--|
|--------------------------------------------------|
|
|
|Guitar 2
|--------------------------------------------------|
|--------------------------------------------------|
|--------------------------------------------------|
|--------------------------------------------------|
|--------------------------------------------------|
|--------------------------------------------------|

 Guitar 1
|--------------------------------------------------|
|--------------------------------------------------|
|--------------------------------------------------|
|--6--6--6--7--7--7--4--4--6--6--------------------|
|--5--5--5--5--5--5--5--5--5--5--5--5--5--5--5--5--|
|--------------------------------------------------|
|
|
|Guitar 2
|--------------------------------------------------|
|--------------------------------------------------|
|--------------------------------------------------|
|--------------------------------------------------|
|--------------------------------------------------|
|--------------------------------------------------|


Both Guitars:
|------------------------------------|
|------------------------------------|
|------------------------------------|
|------------------------------------|
|--7----------------7----------------|
|--5----------------4----------------|



  Both Guitars (play 4 times)
||----------------------------------------------------------|
||----------------------------------------------------------|
||----------------------------------------------------------|
||--11--11--11--12--12--12--9--9--11--11--------------------|
||---9---9---9---9---9---9--9--9---9---9--9--9--9--9--9--9--|
||----------------------------------------------------------|


|--------------------------------------------------|
|--------------------------------------------------|
|--------------------------------------------------|
|--6--6--6--7--7--7--4--4--6--6--------------------|
|--4--4--4--4--4--4--4--4--4--4--4--4--4--4--4--4--|
|--------------------------------------------------|


|--------------------------------------------------|
|--------------------------------------------------|
|--------------------------------------------------|
|--6--6--6--7--7--7--4--4--6--6--------------------|
|--5--5--5--5--5--5--5--5--5--5--5--5--5--5--5--5--|
|--------------------------------------------------|


|--------------------------------------------------||
|--------------------------------------------------||
|--------------------------------------------------||
|--------------------------------------------------||
|--7--7--7--7--7--7--7--7--7--7--7--7--7--7--7--7--||
|--5--5--5--5--5--5--5--5--4--4--4--4--4--4--4--4--||




 Both Guitars: (play 7 times)
||------------------------------------------|
||------------------------------------------|
||------------------------------------------|
||------------------------------------------|
||--4----4----4----4----4----4----4----4----|
||--2----2----2----2----2----5----5----5----|


------------------------------------------||
------------------------------------------||
------------------------------------------||
------------------------------------------||
--2----2----2----2----2----2----2----2----||
--0----0----0----0----0----4----4----4----||



 Both Guitars:
|------------------------------------------|
|------------------------------------------|
|------------------------------------------|
|------------------------------------------|
|--4----4----4----4----4----4----4----4----|
|--2----2----2----2----2----5----5----5----|


  Q    Q    Q    Q    Q    Q    Q    Q     
------------------------------------------|
------------------------------------------|
------------------------------------------|
------------------------------------------|
--2--------------2---------2----2----2----|
--0----0----0----0----0----4----4----4----|


  Both Guitars (play 4 times)
||----------------------------------------------------------|
||----------------------------------------------------------|
||----------------------------------------------------------|
||--11--11--11--12--12--12--9--9--11--11--------------------|
||---9---9---9---9---9---9--9--9---9---9--9--9--9--9--9--9--|
||----------------------------------------------------------|


|--------------------------------------------------|
|--------------------------------------------------|
|--------------------------------------------------|
|--6--6--6--7--7--7--4--4--6--6--------------------|
|--4--4--4--4--4--4--4--4--4--4--4--4--4--4--4--4--|
|--------------------------------------------------|


|--------------------------------------------------|
|--------------------------------------------------|
|--------------------------------------------------|
|--6--6--6--7--7--7--4--4--6--6--------------------|
|--5--5--5--5--5--5--5--5--5--5--5--5--5--5--5--5--|
|--------------------------------------------------|


|--------------------------------------------------||
|--------------------------------------------------||
|--------------------------------------------------||
|--------------------------------------------------||
|--7--7--7--7--7--7--7--7--7--7--7--7--7--7--7--7--||
|--5--5--5--5--5--5--5--5--4--4--4--4--4--4--4--4--||

 Both guitars:
|-----------------------------------|-------------------|
|-----------------------------------|-------------------|
|-----------------------------------|-------------------|
|--4--------------------------------|-------------------|
|--4--------------------------------|-------------------|
|--2--------------------------------|-------------------|
comments
print report bad tab
13 comments total. Showing first comments.
0 reply
Andrew Zara wrote on October 7 2006, 10:42 am

It's nearly perfect few corrections needed some places but great tab. Looking for the solos though!

0 reply
shugo449 wrote on October 15 2006, 11:58 am

nice 5* wish ya had solos cause i dont see em good tab trivium rocks

0 reply
Kreuger wrote on October 15 2006, 01:30 pm

I grabbed this from a guitar pro file so I take no credit. The solos were rejected by UG.

I want to post or [tab]
guest
You may want to rate the tab now too:
select rating
Please do not post tabs as comments. Select "correction" instead!