Oops, an error
Loading. Please wait.

Detonation Tab

ver5
ver5
More versions @911Tabs.com
1,232 views 1 this week
1 commentread comment
1 2 3 4 5
accurate
x 4
Autoscroll
+/-
esc
set tempo
stop
Contributor
Difficulty
advanced
WARNING: You are trying to view
                                    content from Ultimate-Guitar.com
                                    in an unauthorized application,
                                    which is prohibited.

                                    Please use an official Ultimate
                                    Guitar Tabs application for iPhone,
                                    iPad or Android to access legitimate
                                    chords, guitar, bass, and drum tabs
                                    from Ultimate-Guitar.com database.

                                    Type "ultimate guitar tabs" in Apple
                                    App Store's or Android Market's
                                    search to find the application.
Gtr I (E A D G B E) - 'matt'
Gtr II (E A D G B E) - 'corey'
Gtr III (E A D G B E) - 'extra'


   Intro
    Q=140
   3/4          4/4
    Gtr I
      PM|          PM|
    |-3-|        |-3-|     |--3--|
    E E E H      E E E Q   E  E  E  Q
||-------------|-----------------------|
||o------------|-----------------------|
||-------------|-----------------------|
||--9-----8----|-9-----8--11-11-11-11--|
||o-x-----x----|-x-----x---x--x--x--x--|
||--7-0-0-6----|-7-0-0-6---9--9--9--9--|
|
|   Gtr II
|     PM|          PM|
|   |-3-|        |-3-|     |--3--|
|   E E E H      E E E Q   E  E  E  Q
||-------------|-----------------------|
||o------------|-----------------------|
||--7-----6----|-7-----6---9--9--9--9--|
||--x-----x----|-x-----x---x--x--x--x--|
||o-5-----4----|-5-----4---7--7--7--7--|
||----0-0------|---0-0-----------------|


 3/4          4/4
    PM|        PM|         PM|
  |-3-|        |-3-| |-3-| |-3-| |-3-|
  E E E H      E E E E E E E E E E E E
|------------|----------------------------||
|------------|---------------------------o||
|------------|----------------------------||
|-9-----8----|----------------------------||
|-x-----x----|-----4-7-4-------6-9-6-----o||
|-7-0-0-6----|-3-6-------6-5-9-------8----||
|
|   PM|        PM|         PM|
| |-3-|        |-3-| |-3-| |-3-| |-3-|
| E E E H      E E E E E E E E E E E E
|------------|----------------------------||
|------------|---------------------------o||
|-7-----6----|----------------------------||
|-x-----x----|----------------------------||
|-5-----4----|-----1-4-1-------3-6-3-----o||
|---0-0------|-0-3-------3-5-2-------5----||


    PM|   PM|   PM|          PM|   PM|   PM|
  |-3-| |-3-| |-3-|        |-3-| |-3-| |-3-|
  E E E E E E E E E S E.   E E E E E E E E E Q
|------------------------|----------------------|
|------------------------|----------------------|
|------------------------|----------------------|
|-1-----1-----1-----2-1--|-1-----1-----1-----4--|
|-1-----1-----1-----2-1--|-1-----1-----1-----4--|
|---0-0---0-0---0-0------|---0-0---0-0---0-0----|
|
| |-3-| |-3-|
| E E E E E E H            W
|------------------------|----------------------|
|------------------------|----------------------|
|------------------------|----------------------|
|------------------------|----------------------|
|-2-2-2-2----------------|----------------------|
|-0-0-0-0----------------|----------------------|


 2/4           4/4
                  PM|   PM|   PM|
  |-3-| |-3-|   |-3-| |-3-| |-3-|
  E E E E E E   E E E E E E E E E S E.   Q  Q  Q  Q
|-------------|------------------------|-------------|
|-------------|------------------------|-------------|
|-------------|------------------------|-------------|
|-------------|-1-----1-----1-----2-1--|-3--6--4--7--|
|-----1-----0-|-1-----1-----1-----2-1--|-1--4--2--5--|
|-0-3---0-3---|---0-0---0-0---0-0------|-1--4--2--5--|
|
| H             W                        Q  Q  Q  Q
|-------------|------------------------|-------------|
|-------------|------------------------|-------------|
|-------------|------------------------|-------------|
|-------------|------------------------|-3--6--4--7--|
|-------------|------------------------|-1--4--2--5--|
|-------------|------------------------|-1--4--2--5--|


  Gtrs I, II
          PM|   PM|          PM|   PM|   PM|
  |-3-| |-3-| |-3-|        |-3-| |-3-| |-3-|
  E E E E E E E E E S E.   E E E E E E E E E Q
|------------------------|----------------------|
|------------------------|----------------------|
|------------------------|----------------------|
|-1-----1-----1-----2-1--|-1-----1-----1-----4--|
|-1-----1-----1-----2-1--|-1-----1-----1-----4--|
|---0-0---0-0---0-0------|---0-0---0-0---0-0----|


 2/4           4/4
                  PM|   PM|   PM|
  |-3-| |-3-|   |-3-| |-3-| |-3-|
  E E E E E E   E E E E E E E E E S E.   Q  Q  Q  Q
|-------------|------------------------|-------------|
|-------------|------------------------|-------------|
|-------------|------------------------|-------------|
|-------------|-1-----1-----1-----2-1--|-3--6--4--7--|
|-----1-----0-|-1-----1-----1-----2-1--|-1--4--2--5--|
|-0-3---0-3---|---0-0---0-0---0-0------|-1--4--2--5--|


   Verse
            PM|   PM|          PM|   PM|   PM|
    |-3-| |-3-| |-3-|        |-3-| |-3-| |-3-|
    E E E E E E E E E S E.   E E E E E E E E E Q
||-------------------------|----------------------|
||o------------------------|----------------------|
||-------------------------|----------------------|
||--1-----1-----1-----2-1--|-1-----1-----1-----4--|
||o-1-----1-----1-----2-1--|-1-----1-----1-----4--|
||----0-0---0-0---0-0------|---0-0---0-0---0-0----|


 2/4           4/4
                  PM|   PM|   PM|
  |-3-| |-3-|   |-3-| |-3-| |-3-|
  E E E E E E   E E E E E E E E E S E.   Q  Q  Q  Q
|-------------|------------------------|----------------||
|-------------|------------------------|---------------o||
|-------------|------------------------|----------------||
|-------------|-1-----1-----1-----2-1--|-3--6--4--7-----||
|-----1-----0-|-1-----1-----1-----2-1--|-1--4--2--5----o||
|-0-3---0-3---|---0-0---0-0---0-0------|-1--4--2--5-----||


    Gtr I
          PM----------|
          |3| |3| |-3-|          |--3--|
    q  Q  E S S E E E E   q  Q   E  E  E  Q
||----------------------|--------------------|
||o---------------------|--------------------|
||----------------------|--------------------|
||--9--8----------------|-9--8--11-11-11-11--|
||o-x--x----------------|-x--x---x--x--x--x--|
||--7--6--0-0-0-0-0-0-0-|-7--6---9--9--9--9--|
|
|   Gtr II
|         PM----------|
|         |3| |3| |-3-|          |--3--|
|   q  Q  E S S E E E E   q  Q   E  E  E  Q
||----------------------|--------------------|
||o---------------------|--------------------|
||--7--6----------------|-7--6---9--9--9--9--|
||--x--x----------------|-x--x---x--x--x--x--|
||o-5--4----------------|-5--4---7--7--7--7--|
||--------0-0-0-0-0-0-0-|--------------------|


        PM----------------|         PM|
        |3| |3| |-3-|   |-3-| |-3-| |-3-| |-3-|
  q  Q  E S S E E E E   E E E E E E E E E E E E
|---------------------|--------------------------||
|---------------------|-------------------------o||
|---------------------|--------------------------||
|-9--8----------------|--------------------------||
|-x--x----------------|-----4-7-4-------6-9-6---o||
|-7--6--0-0-0-0-0-0-0-|-3-6-------6-5-9-------8--||
|
|       PM----------------|         PM|
|       |3| |3| |-3-|   |-3-| |-3-| |-3-| |-3-|
| q  Q  E S S E E E E   E E E E E E E E E E E E
|---------------------|--------------------------||
|---------------------|-------------------------o||
|-7--6----------------|--------------------------||
|-x--x----------------|--------------------------||
|-5--4----------------|-----1-4-1-------3-6-3---o||
|-------0-0-0-0-0-0-0-|-0-3-------3-5-2-------5--||


   Verse 2
    Gtrs I, II
            PM|   PM|          PM|   PM|   PM|
    |-3-| |-3-| |-3-|        |-3-| |-3-| |-3-|
    E E E E E E E E E S E.   E E E E E E E E E Q
||-------------------------|----------------------|
||o------------------------|----------------------|
||-------------------------|----------------------|
||--1-----1-----1-----2-1--|-1-----1-----1-----4--|
||o-1-----1-----1-----2-1--|-1-----1-----1-----4--|
||----0-0---0-0---0-0------|---0-0---0-0---0-0----|


 2/4           4/4
                  PM|   PM|   PM|
  |-3-| |-3-|   |-3-| |-3-| |-3-|
  E E E E E E   E E E E E E E E E S E.   Q  Q  Q  Q
|-------------|------------------------|----------------||
|-------------|------------------------|---------------o||
|-------------|------------------------|----------------||
|-------------|-1-----1-----1-----2-1--|-3--6--4--7-----||
|-----1-----0-|-1-----1-----1-----2-1--|-1--4--2--5----o||
|-0-3---0-3---|---0-0---0-0---0-0------|-1--4--2--5-----||


    Gtr I
          PM----------|
          |3| |3| |-3-|          |--3--|
    q  Q  E S S E E E E   q  Q   E  E  E  Q
||----------------------|--------------------|
||o---------------------|--------------------|
||----------------------|--------------------|
||--9--8----------------|-9--8--11-11-11-11--|
||o-x--x----------------|-x--x---x--x--x--x--|
||--7--6--0-0-0-0-0-0-0-|-7--6---9--9--9--9--|
|
|   Gtr II
|         PM----------|
|         |3| |3| |-3-|          |--3--|
|   q  Q  E S S E E E E   q  Q   E  E  E  Q
||----------------------|--------------------|
||o---------------------|--------------------|
||--7--6----------------|-7--6---9--9--9--9--|
||--x--x----------------|-x--x---x--x--x--x--|
||o-5--4----------------|-5--4---7--7--7--7--|
||--------0-0-0-0-0-0-0-|--------------------|


        PM----------------|         PM|
        |3| |3| |-3-|   |-3-| |-3-| |-3-| |-3-|
  q  Q  E S S E E E E   E E E E E E E E E E E E
|---------------------|--------------------------||
|---------------------|-------------------------o||
|---------------------|--------------------------||
|-9--8----------------|--------------------------||
|-x--x----------------|-----4-7-4-------6-9-6---o||
|-7--6--0-0-0-0-0-0-0-|-3-6-------6-5-9-------8--||
|
|       PM----------------|         PM|
|       |3| |3| |-3-|   |-3-| |-3-| |-3-| |-3-|
| q  Q  E S S E E E E   E E E E E E E E E E E E
|---------------------|--------------------------||
|---------------------|-------------------------o||
|-7--6----------------|--------------------------||
|-x--x----------------|--------------------------||
|-5--4----------------|-----1-4-1-------3-6-3---o||
|-------0-0-0-0-0-0-0-|-0-3-------3-5-2-------5--||


 De-to-na-tion
  Q=150
  Gtrs I, II
  |-3-| |-3-| |-3-| |-3-|   |-3-| |-3-| |-3-| |-3-|
  E E E E E E E E E E E E   E E E E E E E E E E E E
|-------------------------|-------------------------|
|-------------------------|-------------------------|
|-------------------------|-------------------------|
|-------------------------|-------------------------|
|-2-2-2-2-----2-2-2-2-----|-2-2-2-2-----2-2-2-2-----|
|-0-0-0-0-----0-0-0-0-----|-0-0-0-0-----0-0-0-0-----|


  |-3-| |-3-| |-3-| |-3-|   |-3-| |-3-| |-3-| |-3-|
  E E E E E E E E E E E E   E E E E E E E E E E E E
|-------------------------|----------------------------|
|-------------------------|----------------------------|
|-------------------------|----------------------------|
|-------------------------|----------------------------|
|-2-2-2-2-----2-2-2-2-----|-2-2-2-2-----2-2-2-2--------|
|-0-0-0-0-----0-0-0-0-----|-0-0-0-0-----0-0-0-0--------|


    Q=120
    Gtrs I, II
      PM|     PM|   PM|      PM|
    E S S S S S S E S S S  S S S
||-------------------------------|
||o------------------------------|
||--4-----6s9-----7-----7s10-----|
||--x-----x-x-----x-----x--x-----|
||o-2-----4s7-----5-----5s=8-----|
||----0-0-----0-0---0-0------0-0-|


    PM|     PM|   PM|      PM|     PM|     PM|   PM|      PM|
  E S S S S S S E S S S  S S S   E S S S S S S E S S S  S S S
|------------------------------|--------------------------------|
|------------------------------|--------------------------------|
|-4-----6s9-----7-----7s10-----|-4-----6s9-----7-----7s10-------|
|-x-----x-x-----x-----x--x-----|-x-----x-x-----x-----x--x-------|
|-2-----4s7-----5-----5s=8-----|-2-----4s7-----5-----5s=8-------|
|---0-0-----0-0---0-0------0-0-|---0-0-----0-0---0-0------0-0---|


  Q=210
  H.      Q    H    H
|------------|------------||
|-7-------7--|-8----8----o||
|-8-------8--|-9----9-----||
|-8-------8--|-9----9-----||
|-6-------6--|-7----7----o||
|------------|------------||


 Matt's Guitar Solo
  Gtr I
   /2\     /2\     /2\     /2\     /2\      /2\     /2\     /2\     /2\     /2\
   E.     +E.     +E.     +E.     +Q        E.     +E.     +E.     +E.     +Q
|----------------------------------------|----------------------------------------|
|-15-----(15)----(15)----(15)----(15)----|-15-----(15)----(15)----(15)----(15)----|
|----------------------------------------|----------------------------------------|
|----------------------------------------|----------------------------------------|
|----------------------------------------|----------------------------------------|
|----------------------------------------|----------------------------------------|
|
| Gtr III
|  W                                        W
|----------------------------------------|----------------------------------------|
|----------------------------------------|----------------------------------------|
|----------------------------------------|----------------------------------------|
|----------------------------------------|----------------------------------------|
|----------------------------------------|----------------------------------------|
|----------------------------------------|----------------------------------------|
|
| Gtr II
|  E   E       E   E   E       E   E   E    E   E       E   E   E       E   E   E
|----------------------------------------|----------------------------------------|
|----------------------------------------|----------------------------------------|
|----------------------------------------|----------------------------------------|
|----------------------------------------|--2---1-----------1-----------1-------1-|
|----------------------------------------|--2---1-----------1-----------1-------1-|
|--0---0-------0---0---0-------0---0---0-|----------------------------------------|


   /1________________________________________|
   W                    +H.            +E   +E
|-20-----------------|-(20)-----------(20)-(20)-|
|--------------------|--------------------------|
|--------------------|--------------------------|
|--------------------|--------------------------|
|--------------------|--------------------------|
|--------------------|--------------------------|
|
|  /1________________________________________|
|  W                    +H.            +E   +E
|-22-----------------|-(22)-----------(22)-(22)-|
|--------------------|--------------------------|
|--------------------|--------------------------|
|--------------------|--------------------------|
|--------------------|--------------------------|
|--------------------|--------------------------|
|
|  E   E E E E E E E     E  E E E E E   E    E
|--------------------|--------------------------|
|--------------------|--------------------------|
|--------------------|--------------------------|
|--------------------|---1--2---2---2--------2--|
|--------------------|---1--2---2---2--------2--|
|--0---0-0-0-0-0-0-0-|--------------------------|


  Gtr I
  \1        /           /         \1
  H        +H          +H        +H
|--------------------|---------------------|
|--------------------|---------------------|
|--------------------|---------------------|
|--------------------|---------------------|
|-2--------(2)-------|-(2)-------(2)-------|
|-0--------(0)-------|-(0)-------(0)-------|
|
| Gtr II
| E  E E E  E  E E E    E  E E E  E  E E E
|--------------------|---------------------|
|--------------------|---------------------|
|--------------------|---------------------|
|--------------------|--2--1---1-----1---1-|
|--------------------|--2--1---1-----1---1-|
|-0--0-0-0--0--0-0-0-|---------------------|


   /                   \2        /2\  /2\  /2\  /2\
  +W                  +H         E   +E   +E   +E
|-------------------|-------------------------------|
|-------------------|-----------[9]--(9)--(9)--(9)--|
|-------------------|-------------------------------|
|-------------------|-------------------------------|
|-(2)---------------|-(2)---------------------------|
|-(0)---------------|-(0)---------------------------|
|
|  E  E E E E E E E    E  E E E  E    E    E    E
|-------------------|-------------------------------|
|-------------------|-------------------------------|
|-------------------|-------------------------------|
|-------------------|--1--2---2-------2---------2---|
|-------------------|--1--2---2-------2---------2---|
|--0--0-0-0-0-0-0-0-|-------------------------------|


 Corey's Guitar Solo
   E     E     E     E     E     E     E     E
|-------------------------------------------------|
|-------------------------------------------------|
|-------------------------------------------------|
|-------------------------------------------------|
|-------------------------------------------------|
|--0-----0-----0-----0-----0-----0-----0-----0----|
|
|  S  S  S  S  S  S  S  S  S  S  S  S  S  S  S  S
|-------------------13-16-19-16-15-16-15-13-12-13-|
|----------------13-------------------------------|
|-------------13----------------------------------|
|----------15-------------------------------------|
|-15-13-15----------------------------------------|
|-------------------------------------------------|


   E     E     E     E     E     E     E     E       E     E     E     E     E     E     E     E
|-------------------------------------------------|-------------------------------------------------|
|-------------------------------------------------|-------------------------------------------------|
|-------------------------------------------------|-------------------------------------------------|
|--2-----1-----------1-----------1-----------1----|-------------------------------------------------|
|--2-----1-----------1-----------1-----------1----|-------------------------------------------------|
|-------------------------------------------------|--0-----0-----0-----0-----0-----0-----0-----0----|
|
|  S  S  S  S  S  S  S  S  S  S  S  S  S  S  S  S    S  S  S  S  S  S  S  S  S  S  S  S  S  S  S  S
|-16-15-12-13-------------------------------------|-------------------------------------------------|
|-------------15-13-------------------------------|-------------------------------------------------|
|-------------------14-13-------------------------|----------------12-------------------------------|
|-------------------------15-14-12----14----14-12-|-14-12----12-14----14-12-14----------------12-14-|
|----------------------------------12----12-------|-------14-------------------14-12----12-14-------|
|-------------------------------------------------|----------------------------------15-------------|


   E     E     E     E     E E E E    E     E     E     E     E     E     E     E
|----------------------------------|-------------------------------------------------|
|----------------------------------|-------------------------------------------------|
|----------------------------------|-------------------------------------------------|
|--1-----2-----------2-------2---2-|-------------------------------------------------|
|--1-----2-----------2-------2---2-|-------------------------------------------------|
|----------------------------------|--0-----0-----0-----0-----0-----0-----0-----0----|
|
|                          ~~
|  S  S  S  S  S  S  S  S  H          S  S  S  S  S  S  S  S  S  S  S  S  S  S  S  S
|----------------------------------|-------------------------------------------------|
|----------------------------------|-------------------------------------------------|
|-12-14-12-------------------------|-13-12-13----13-12-13-12-13-12-13----13-12-13-15-|
|----------14-12-14----14-14-------|----------14----------------------14-------------|
|-------------------15-------------|-------------------------------------------------|
|----------------------------------|-------------------------------------------------|


   E     E     E     E     E E E E
|------------------------------------|
|------------------------------------|
|------------------------------------|
|--2-----1-----------1-------1---1---|
|--2-----1-----------1-------1---1---|
|------------------------------------|
|
|                          ~~
|  S  S  S  S  S  S  S  S  H
|------------------------------------|
|------------------------------------|
|-13-12----12-13-12-------13---------|
|-------14----------14-12------------|
|------------------------------------|
|------------------------------------|


   E     E     E        E     E     E     E           E
|----------------------------------------------------------------|
|----------------------------------------------------------------|
|----------------------------------------------------------------|
|----------------------------------------------------------------|
|----------------------------------------------------------------|
|--0-----0-----0--------0-----0-----0-----0-----------0----------|
|
|  S  S  S  S  T  T  S  S  S  S  S  S  S  T  T  T  T  T  T  T  T
|-------------16-19-16-------------------15-18-15----------------|
|----------17----------17-------------16----------16-------------|
|-------16-------------------------15----------------15----------|
|----18-------------------17----17----------------------17-15----|
|-19-------------------------18-------------------------------17-|
|----------------------------------------------------------------|


                                  Q=120
                                     PM|     PM|   PM|      PM|
   E E    E    E  E E    E    E    E S S S S S S E S S S  S S S
|-------------------------------|--------------------------------|
|-------------------------------|--------------------------------|
|-------------------------------|--4-----6s9-----7-----7s10------|
|--1-2---------2----2---------2-|--x-----x-x-----x-----x--x------|
|--1-2---------2----2---------2-|--2-----4s7-----5-----5s=8------|
|-------------------------------|----0-0-----0-0---0-0------0-0--|
|
|                                  ~~
|  |----3----|    |----3----|
|  Q    Q    Q    Q    Q    Q      W
|-20---19---17---19---17--------|--------------------------------|
|--------------------------20---|-19-----------------------------|
|-------------------------------|--------------------------------|
|-------------------------------|--------------------------------|
|-------------------------------|--------------------------------|
|-------------------------------|--------------------------------|


  Gtrs I, II
      PM    PM|   PM|      PM|
  E S S S S S S E S S S  S S S
|------------------------------|
|------------------------------|
|-4-----6s9-----7-----7s10-----|
|-x-----x-x-----x-----x--x-----|
|-2-----4s7-----5-----5s=8-----|
|---0-0-----0-0---0-0------0-0-|


                                 Q=210
    PM|     PM|   PM|      PM|
  E S S S S S S E S S S  S S S   H.      Q    H    H
|------------------------------|------------|-----------|
|------------------------------|-7-------7--|-8----8----|
|-4-----6s9-----7-----7s10-----|-8-------8--|-9----9----|
|-x-----x-x-----x-----x--x-----|-8-------8--|-9----9----|
|-2-----4s7-----5-----5s=8-----|-6-------6--|-7----7----|
|---0-0-----0-0---0-0------0-0-|------------|-----------|


 Tempo Change
  Q=105
  Gtr I
   S  S S  S S S S  S S S S S S S S S   S S S S S S S S S S S S S S S S
|-------------------------------------|---------------------------------|
|-------------------------------------|---------------------------------|
|--------------9----------------------|-----------4---------------------|
|-11-11---12-------11-----------------|-6-6---7-------6-----------------|
|--9--9-9--9-9-9-9--9-9-9-9-9-9-9-9-9-|-4-4-4-4-4-4-4-4-4-4-4-4-4-4-4-4-|
|-------------------------------------|---------------------------------|
|
| Gtr II
|  H                  H                 W
|-------------------------------------|---------------------------------|
|-------------------------------------|---------------------------------|
|-------------------------------------|---------------------------------|
|-11----------------------------------|---------------------------------|
|--9----------------------------------|---------------------------------|
|-------------------------------------|---------------------------------|


  S S S S S S S S S S S S S S S S   Q.   E Q  E E
|---------------------------------|---------------|
|---------------------------------|---------------|
|-----------4---------------------|-2----2--------|
|-6-6---7-------6-----------------|-2----2-2--2-2-|
|-5-5-5-5-5-5-5-5-5-5-5-5-5-5-5-5-|-0----0-2--2-2-|
|---------------------------------|--------4--0-0-|
|
| W                                 Q.   E Q  E E
|---------------------------------|---------------|
|---------------------------------|---------------|
|---------------------------------|-2----2--------|
|---------------------------------|-2----2-2--2-2-|
|---------------------------------|-0----0-2--2-2-|
|---------------------------------|--------4--0-0-|


    Gtrs I, II
     S  S S  S S S S  S S S S S S S S S   S S S S S S S S S S S S S S S S
||--------------------------------------|---------------------------------|
||o-------------------------------------|---------------------------------|
||---------------9----------------------|-----------4---------------------|
||--11-11---12-------11-----------------|-6-6---7-------6-----------------|
||o--9--9-9--9-9-9-9--9-9-9-9-9-9-9-9-9-|-4-4-4-4-4-4-4-4-4-4-4-4-4-4-4-4-|
||--------------------------------------|---------------------------------|


  S S S S S S S S S S S S S S S S   Q.   E Q  E E
|---------------------------------|-------------------||
|---------------------------------|------------------o||
|-----------4---------------------|-2----2------------||
|-6-6---7-------6-----------------|-2----2-2--2-2-----||
|-5-5-5-5-5-5-5-5-5-5-5-5-5-5-5-5-|-0----0-2--2-2----o||
|---------------------------------|--------4--0-0-----||


 Corey's Guitar Solo 2
  Q=210
  Gtr I
   E  E  E  E  E  E  E  E    E  E  E  E  E  E  E  E
|-------------------------|-------------------------|
|-------------------------|-------------------------|
|-----------------9-------|-------------------------|
|-11-11----12----------11-|-------------------------|
|--9--9--9--9--9--9--9--9-|--9--9--9--9--9--9--9--9-|
|-------------------------|-------------------------|
|
| Gtr II
|  E  E  E  E  E  E  E  E    E  E  E  E  E  E  E  E
|-------------------------|-------------------------|
|-------------------------|-------------15-14-12----|
|-------------------14-13-|----------------------14-|
|----------11----11-------|-14-11-14-11-------------|
|--9-11-12----12----------|-------------------------|
|-------------------------|-------------------------|


   E  E  E  E  E  E  E  E    E     E E E    E     E E E
|-------------------------|----------------------------------|
|-------------------------|----------------------------------|
|-----------------4-------|----------------------------------|
|--6--6-----7-----------6-|----------------------------------|
|--4--4--4--4--4--4--4--4-|--4-----4-4-4----4-----4-4-4------|
|-------------------------|----------------------------------|
|
|  E  E  E  E  E  E  E  E    S  Q.        E    Q.        +S
|-------------------------|-14-16--------16s==17--------(17)-|
|-------------------------|----------------------------------|
|-13-14-13----13----13----|----------------------------------|
|----------16----16----16-|----------------------------------|
|-------------------------|----------------------------------|
|-------------------------|----------------------------------|


   E E  E  E  E E  E  E    E    E E E   E     E E   E
|-----------------------|---------------------------------|
|-----------------------|---------------------------------|
|---------------4-------|---------------------------------|
|--6-6-----7----------6-|---------------------------------|
|--5-5--5--5--5-5--5--5-|--5----5-5-5---5-----5-5---5-----|
|-----------------------|---------------------------------|
|
|  Q    E  Q.      E  E    H           +Q.         +S   S
|-16--------------16-17-|-19b21r======(19)b21-----(19)-17-|
|------17---------------|---------------------------------|
|---------18------------|---------------------------------|
|-----------------------|---------------------------------|
|-----------------------|---------------------------------|
|-----------------------|---------------------------------|


   H.                                  Q        H                 Q        Q
|--------------------------------------------|------------------------------------|
|--------------------------------------------|------------------------------------|
|--2-----------------------------------2-----|------------------------------------|
|--2-----------------------------------2-----|--2-----------------2--------2------|
|--0-----------------------------------0-----|--2-----------------2--------2------|
|--------------------------------------------|--4-----------------0--------0------|
|
|                                               |--3--|  |--3--|  |--3--|
|  S   S  S  S  S  S  S  S  S  S  S  E    E.    E  E  E  E  E  E  E  E  E  E  E
|-21--17----------------------14-17----------|------------------------------------|
|--------19----------------17----------------|------------------------------------|
|-----------18----------18-------------------|------------------------------------|
|--------------19-18-19-------------18s==14--|-------14-16-18-14------------------|
|--------------------------------------------|-16-17-------------17-16-14-16-14---|
|--------------------------------------------|------------------------------------|


  Gtr I
   E  E E  E E   E     E  E        E  E E E E E  E  E
|------------------------------|----------------------|
|------------------------------|----------------------|
|----------------9-------------|----------------------|
|-11-11---12-------------11----|----------------------|
|--9--9-9--9-9---9-----9--9----|---9--9-9-9-9-9--9--9-|
|------------------------------|----------------------|
|
| Gtr II
|                            ~~~~~~~~~
|  E  Q    Q    +S   Q       S    +H.            E  E
|------------------------------|----------------------|
|------------------------------|----------------------|
|------------------------------|----------------14-14-|
|------------------------------|----------------------|
|--9-11---12---(12)-14------11-|-(11)-----------------|
|------------------------------|----------------------|
|
| Gtr III
|                                  H.            E  E
|------------------------------|----------------------|
|------------------------------|----------------14-14-|
|------------------------------|----------------------|
|------------------------------|----------------------|
|------------------------------|----------------------|
|------------------------------|----------------------|


   E  E  E  E  E  E  E  E    E E E E  E E  E E
|-------------------------|--------------------|
|-------------------------|--------------------|
|-----------------4-------|--------------------|
|--6--6-----7-----------6-|--------------------|
|--4--4--4--4--4--4--4--4-|--4-4-4-4--4-4--4-4-|
|-------------------------|--------------------|
|
|  E  E  E  E  E  E  E  E    E E Q    Q    Q
|-------------------------|--------------------|
|-------------------------|--------------------|
|-14-13-13-13-13-11-11-11-|-11-9-9-------------|
|-------------------------|----------11--------|
|-------------------------|---------------11---|
|-------------------------|--------------------|
|
|  E  E  E  E  E  E  E  E    E E Q    Q    Q
|-------------------------|--------------------|
|-14-12-12-12-12-10-10-10-|-10-9-9----9--------|
|-------------------------|--------------------|
|-------------------------|--------------------|
|-------------------------|--------------------|
|-------------------------|--------------------|


   E     E     E     E     E     E     E     E       E     E     E     E     E     E     E E
|-------------------------------------------------|------------------------------------------|
|-------------------------------------------------|------------------------------------------|
|--------------------------------4----------------|------------------------------------------|
|--6-----6-----------7-----------------------6----|------------------------------------------|
|--5-----5-----5-----5-----5-----5-----5-----5----|--5-----5-----5-----5-----5-----5-----5-5-|
|-------------------------------------------------|------------------------------------------|
|
|  S  S  S  S  S  S  S  S  S  S  S  S  S  S  S  S    S  S  S  S  S  S  S  S  S  S  S  S  Q
|----------------------------------------------12-|----------------------------15-14-15-17---|
|----------------------------------------12-14----|----------14-12-14-15-17-19---------------|
|----------------------------------11-13----------|-11-14-16---------------------------------|
|-------------------12-14-15-12-14----------------|------------------------------------------|
|----------12-14-15-------------------------------|------------------------------------------|
|-12-14-15----------------------------------------|------------------------------------------|


   H.                    Q       H         Q      Q
|-----------------------------|------------------------|
|-----------------------------|------------------------|
|--2---------------------2----|------------------------|
|--2---------------------2----|--2---------2------2----|
|--0---------------------0----|--2---------2------2----|
|-----------------------------|--4---------0------0----|
|
|  |--3--|      |--3--|
|  E   E E  Q   E  E  E  E  E    H        +H
|-12--10-9-----14-12-10-------|------------------------|
|----------12-----------14-14-|-12b14r===(12)b14-------|
|-----------------------------|------------------------|
|-----------------------------|------------------------|
|-----------------------------|------------------------|
|-----------------------------|------------------------|


  Q=110
   Q     S S E   E  E E E     Q   S S E E E E E
|-------------------------|---------------------|
|-------------------------|---------------------|
|-------------------------|---------------------|
|-------------------------|---------------------|
|--4-----4-4-4---4--4-2-6-|---2---2-2-2-2-2-4-6-|
|--2-----2-2-2---2--2-0-4-|---0---0-0-0-0-0-2-4-|
|
|  H            +H           +W
|-12b14--------(12)-------|-(12)----------------|
|-------------------------|---------------------|
|-------------------------|---------------------|
|-------------------------|---------------------|
|-------------------------|---------------------|
|-------------------------|---------------------|


    Gtrs I, II
    Q  S S E E E E E   Q  S S E E E E E
||-------------------|-------------------||
||o------------------|------------------o||
||-------------------|-------------------||
||-------------------|-------------------||
||o-4--4-4-4-4-4-2-6-|-2--2-2-2-2-2-4-6-o||
||--2--2-2-2-2-2-0-4-|-0--0-0-0-0-0-2-4--||
|
|   W                  W
||-------------------|-------------------||
||o------------------|------------------o||
||-------------------|-------------------||
||-------------------|-------------------||
||o------------------|------------------o||
||-------------------|-------------------||


  Gtrs I, II
                     PM-------------|
  Q  S S E E E E E   Q  S S E E E E E
|------------------|------------------|
|------------------|------------------|
|------------------|------------------|
|------------------|------------2-2---|
|-4--4-4-4-4-4-2-6-|-2--2-2-2-2-0-0-2-|
|-2--2-2-2-2-2-0-4-|-0--0-0-0-0-----4-|
|
|------------------|------------------|
|------------------|------------------|
|------------------|------------------|
|------------------|------------------|
|------------------|------------------|
|------------------|------------------|


 Matt's Guitar Solo 2
  Q=210
 8/4
  Gtr I
                                                                          ~~
   E  E  E  S  S  E  E  E  S  S  E  E  E  S  S  H        H.         E  E  W
|----------------------------------------------17-----|-16---------12----14------------|
|-10-------------14-------------17--------------------|---------------14---------------|
|----11-------------14-------------18-----------------|--------------------------------|
|-------11----11-------16----16-------19----19--------|--------------------------------|
|----------12-------------16-------------21-----------|--------------------------------|
|-----------------------------------------------------|--------------------------------|
|
| Gtr II
|  H              E  E  Q        Q     Q        Q  Q     H     E E  Q     Q  Q  Q  Q
|-----------------------------------------------------|--------------------------------|
|-----------------------------------------------------|--------------------------------|
|-----------------------------------------------------|--------------------------------|
|-----------------------------------------------------|--------------------------------|
|--4--------------4--4--4--------4-----4--------2--6--|--2-----2-2--2-----2--2--4--6---|
|--2--------------2--2--2--------2-----2--------0--4--|--0-----0-0--0-----0--0--2--4---|


   E  E  E  S  S  E  E  E  E  E  E  E  S  S  E  E  E  E
|----------------14-------------------------14----------|
|-------------14-------------------------14----14-------|
|----------14-------14----------------14----------14----|
|-------16-------------16----------16----------------16-|
|----16-------------------16----16----------------------|
|-17-------------------------17-------------------------|
|
|  H              E  E  Q     Q     Q        Q     Q
|-------------------------------------------------------|
|-------------------------------------------------------|
|-------------------------------------------------------|
|-------------------------------------------------------|
|--4--------------4--4--4-----4-----4--------2-----6----|
|--2--------------2--2--2-----2-----2--------0-----4----|


   E  E  E  S  S  E  E  E  E  E  E  E  S  S  E  E  E  E
|----------------12-------------------------16----------|
|-------------12----12-------------------17----17-------|
|----------13----------13-------------16----------16----|
|-------14----------------14-------16----------------16-|
|----14-------------------------17----------------------|
|-16-------------------------19-------------------------|
|
|  PM---------------------------------------------|
|  H              E  E  Q     Q     Q        Q     Q
|-------------------------------------------------------|
|-------------------------------------------------------|
|-------------------------------------------------------|
|-----------------------------------2--------2----------|
|--2--------------2--2--2-----2-----0--------0-----2----|
|--0--------------0--0--0-----0--------------------4----|


   E  E  E  S  S  E  E  E  S  S  E  E  E  S  S  H
|----------------------------------------------17-----|
|-10-------------14-------------17--------------------|
|----11-------------14-------------18-----------------|
|-------11----11-------16----16-------19----19--------|
|----------12-------------16-------------21-----------|
|-----------------------------------------------------|
|
|  H              E  E  Q        Q     Q        Q  Q
|-----------------------------------------------------|
|-----------------------------------------------------|
|-----------------------------------------------------|
|-----------------------------------------------------|
|--4--------------4--4--4--------4-----4--------2--6--|
|--2--------------2--2--2--------2-----2--------0--4--|


                    ~~
   H.         E  E  W
|-16---------16----19------------|
|---------------17---------------|
|--------------------------------|
|--------------------------------|
|--------------------------------|
|--------------------------------|
|
|  H     E E  Q     Q  Q  Q  Q
|--------------------------------|
|--------------------------------|
|--------------------------------|
|--------------------------------|
|--2-----2-2--2-----2--2--4--6---|
|--0-----0-0--0-----0--0--2--4---|


   E  E  E  S  S  E  E  E  E  E  E  E  S  S  E  E  E  E
|----------------14-------------------------14----------|
|-------------14-------------------------14----14-------|
|----------14-------14----------------14----------14----|
|-------16-------------16----------16----------------16-|
|----16-------------------16----16----------------------|
|-17-------------------------17-------------------------|
|
|  H              E  E  Q     Q     Q        Q     Q
|-------------------------------------------------------|
|-------------------------------------------------------|
|-------------------------------------------------------|
|-------------------------------------------------------|
|--4--------------4--4--4-----4-----4--------2-----6----|
|--2--------------2--2--2-----2-----2--------0-----4----|


   E  E  E  S  S  E  E  E  E  E  E  E  S  S  E  E  E  E
|----------------12-------------------------16----------|
|-------------12----12-------------------17----17-------|
|----------13----------13-------------16----------16----|
|-------14----------------14-------16----------------16-|
|----14-------------------------17----------------------|
|-16-------------------------19-------------------------|
|
|  PM---------------------------------------------|
|  H              E  E  Q     Q     Q        Q     Q
|-------------------------------------------------------|
|-------------------------------------------------------|
|-------------------------------------------------------|
|-----------------------------------2--------2----------|
|--2--------------2--2--2-----2-----0--------0-----2----|
|--0--------------0--0--0-----0--------------------4----|


   Chorus
     Q=105
   4/4
    Gtr I
      S  S  S  S  S   S S  S  S S S S S   S  S S   S S S S S  S S  S S S S S S S S   S
||-----------------------------------------------|--------------------------------------|
||o----------------------------------------------|--------------------------------------|
||--------------------9--------------------------|------------4-------------------------|
||---11-11----12----------11---------------------|-6-6---7---------6--------------------|
||o---9--9--9--9--9---9-9--9--9-9-9-9-9---9--9-9-|-4-4-4-4-4--4-4--4-4-4-4-4-4-4-4---4--|
||-----------------------------------------------|--------------------------------------|
|
|    Gtr II
|     E     E     S   E    Q.             E.       E   E   S  E    H                +S
||-----------------------------------------------|--------------------------------------|
||o----------------------------------------------|--------------------------------------|
||---14----14----14--13---13--------------6\-----|-9---9---9-11---11---------------(11)-|
||-----------------------------------------------|--------------------------------------|
||o--12----12----12--11---11------------(11)-----|-7---7---7--9----9----------------(9)-|
||-----------------------------------------------|--------------------------------------|


   S S  S S  S   S S  S  S S S S S   S  S S     Q.             E    Q  E E
|--------------------------------------------|-----------------------------------||
|--------------------------------------------|----------------------------------o||
|----------------4---------------------------|--2--------------2-----------------||
|--6-6----7-----------6----------------------|--2--------------2----2--2-2-------||
|--5-5--5-5--5---5-5--5--5-5-5-5-5---5--5-5--|--0--------------0----2--2-2------o||
|--------------------------------------------|----------------------4--0-0-------||
|
|  E    E    S   E    Q.             E.         E    E   S   E    H         +S
|--------------------------------------------|-----------------------------------||
|--------------------------------------------|-14---14--14--12---12--------(12)-o||
|-14---14---14--13---13--------------6\------|-----------------------------------||
|--------------------------------------------|-11---11--11---9----9---------(9)--||
|-12---12---12--11---11------------(11)------|----------------------------------o||
|--------------------------------------------|-----------------------------------||


   Harmony Solo/Outro
    Q=210
    Gtr I
     E  E  E  E  E  E E  E     E  E E E  E  E  E  E
||-------------------------|------------------------|
||o------------------------|------------------------|
||------------------9------|------------------------|
||--11-11----12---------11-|------------------------|
||o--9--9--9--9--9--9-9--9-|---9--9-9-9--9--9--9--9-|
||-------------------------|------------------------|
|
|   Gtr II
|    Q     Q     E  Q    E    +H         E  E  E  E
||-------------------------|------------------------|
||o------------------------|------------------------|
||--14----14----14-13---13-|-(13)-------13-14-13----|
||-------------------------|---------------------16-|
||o------------------------|------------------------|
||-------------------------|------------------------|
|
|   Gtr III
|    Q     Q     E  Q    E    +H         E  E  E  E
||-------------------------|------------------------|
||o-14----14----14-12---12-|-(12)-------12-14-12----|
||-------------------------|---------------------14-|
||-------------------------|------------------------|
||o------------------------|------------------------|
||-------------------------|------------------------|


   E E  E  E E  E E  E     E  E E E E E E E
|----------------------|---------------------|
|----------------------|---------------------|
|---------------4------|---------------------|
|--6-6-----7---------6-|---------------------|
|--4-4--4--4-4--4-4--4-|---4--4-4-4-4-4-4-4--|
|----------------------|---------------------|
|
|  Q    E  Q    Q    E    +W
|----------------------|---------------------|
|----------------------|---------------------|
|----------------------|---------------------|
|-14---14-14---16---16-|-(16)----------------|
|----------------------|---------------------|
|----------------------|---------------------|
|
|  Q    E  Q    Q    E    +W
|----------------------|---------------------|
|----------------------|---------------------|
|-13---13-13---14---14-|-(14)----------------|
|----------------------|---------------------|
|----------------------|---------------------|
|----------------------|---------------------|


   E E  E E  E  E E  E     E  E E E  E  E  E  E
|----------------------|------------------------|
|----------------------|------------------------|
|---------------4------|------------------------|
|--6-6----7----------6-|------------------------|
|--5-5--5-5--5--5-5--5-|---5--5-5-5--5--5--5--5-|
|----------------------|------------------------|
|
|  Q    Q    E  Q    E    +H         E  E  E  E
|----------------------|------------------------|
|----------------------|------------------------|
|-14---14---14-13---13-|-(13)-------13-14-13----|
|----------------------|---------------------16-|
|----------------------|------------------------|
|----------------------|------------------------|
|
|  Q    Q    E  Q    E    +H         E  E  E  E
|----------------------|------------------------|
|-14---14---14-12---12-|-(12)-------12-14-12----|
|----------------------|---------------------14-|
|----------------------|------------------------|
|----------------------|------------------------|
|----------------------|------------------------|


                        1.
   H.            Q        H     Q  Q
|---------------------|----------------||
|---------------------|---------------o||
|--2-------------2----|----------------||
|--2-------------2----|---2-----2--2---||
|--0-------------0----|---2-----2--2--o||
|---------------------|---4-----0--0---||
|
|  Q    Q   E  Q    E    +W
|---------------------|----------------||
|-14---14--14-12---12-|-(12)----------o||
|---------------------|----------------||
|---------------------|----------------||
|---------------------|---------------o||
|---------------------|----------------||
|
|  Q    Q   E  Q    E    +W
|-12---12--12-14---14-|-(14)-----------||
|---------------------|---------------o||
|---------------------|----------------||
|---------------------|----------------||
|---------------------|---------------o||
|---------------------|----------------||


  2.
    E  E E E  E E  E E     W            +W            +W
|----------------------|-------------|-------------|---------|
|----------------------|-------------|-------------|---------|
|----------------------|-------------|-------------|---------|
|---2--2-2-2--2-2--2-2-|---4---------|--(4)--------|--(4)----|
|---2--2-2-2--2-2--2-2-|---4---------|--(4)--------|--(4)----|
|---4--4-4-4--4-4--4-4-|---2---------|--(2)--------|--(2)----|
|
|  +Q    Q    Q    Q       W            +W            +W
|----------------------|-------------|-------------|---------|
|-(12)---9---10----9---|---7---------|--(7)--------|--(7)----|
|----------------------|-------------|-------------|---------|
|----------------------|-------------|-------------|---------|
|----------------------|-------------|-------------|---------|
|----------------------|-------------|-------------|---------|
|
|  +H.             Q      +W            +W            +W
|-(14)------------16---|-(16)--------|-(16)--------|-(16)----|
|----------------------|-------------|-------------|---------|
|----------------------|-------------|-------------|---------|
|----------------------|-------------|-------------|---------|
|----------------------|-------------|-------------|---------|
|----------------------|-------------|-------------|---------|




--------------------------------------------------------------------------------


Duration Legend
---------------
W - whole; H - half; Q - quarter; E - 8th; S - 16th; T - 32nd; X - 64th; a - acciaccatura
+ - note tied to previous; . - note dotted; .. - note double dotted
Uncapitalized letters represent notes that are staccato (1/2 duration)
Irregular groupings are notated above the duration line
Duration letters will always appear directly above the note/fret number it represents the
duration for.  Duration letters with no fret number below them represent rests.  Multi-
bar rests are notated in the form Wxn, where n is the number of bars to rest for.  Low
melody durations appear below the staff

Tablature Legend
----------------
 h   - hammer-on
 p   - pull-off
 b   - bend
 pb  - pre-bend
 r   - bend release (if no number after the r, then release immediately)
 /\  - slide into or out of (from/to "nowhere")
 s   - legato slide
 S   - shift slide
 - natural harmonic
[n]  - artificial harmonic
n(n) - tapped harmonic
 ~   - vibrato
 tr  - trill
 T   - tap
 TP  - trem. picking
 PM  - palm muting
\n/  - tremolo bar dip; n = amount to dip
 \n  - tremolo bar down
 n/  - tremolo bar up
/n\  - tremolo bar inverted dip
 =   - hold bend; also acts as connecting device for hammers/pulls
 <> - volume swell (louder/softer)
 x   - on rhythm slash represents muted slash
 o   - on rhythm slash represents single note slash

Misc Legend
-----------
 |  - bar
||  - double bar
||o - repeat start
o|| - repeat end
*|  - double bar (ending)
 :  - bar (freetime)
 $  - Segno
 &  - Coda
Tempo markers -  = BPM(8/16=s8/s16), where s8 = swing 8ths, s16 = swing 16ths


comments
print report bad tab
1 comment total.
0 reply
Kooldood wrote on February 4 2008, 10:31 am

Awsome!
*****

I want to post or [tab]
guest
You may want to rate the tab now too:
select rating
Please do not post tabs as comments. Select "correction" instead!