Oops, an error
Loading. Please wait.

Down From The Sky Tab

ver2
19,153 views 34 this week
2 commentsread comments
1 2 3 4 5
accurate
x 4
Autoscroll
+/-
esc
set tempo
stop
Contributor
Difficulty
intermediate
Hey! There's an official Ultimate Guitar app which is ideal
for learning songs when you're away from computer. Get the app
WARNING: You are trying to view
                                    content from Ultimate-Guitar.com
                                    in an unauthorized application,
                                    which is prohibited.

                                    Please use an official Ultimate
                                    Guitar Tabs application for iPhone,
                                    iPad or Android to access legitimate
                                    chords, guitar, bass, and drum tabs
                                    from Ultimate-Guitar.com database.

                                    Type "ultimate guitar tabs" in Apple
                                    App Store's or Android Market's
                                    search to find the application.
#----------------------------------PLEASE NOTE---------------------------------#
#This file is the author's own work and represents their interpretation of the #
#song. You may only use this file for private study, scholarship, or research. #
#------------------------------------------------------------------------------##

                                DOWN FROM THE SKY
                             As recorded by Trivium
                          (From the 2008 Album SHOGUN)

Words and Music by Trivium
Transcribed by GuitarHero_JP

Gtr I (B E A D G B E) - 'Matt Heafy'
Gtr II (B E A D G B E) - 'Corey Beauleau'
Gtr III (B E A D G B E) - 'Extra Guitar'
Gtr IV (B E A D G B E) - 'Solo Guitar I'
Gtr V (B E A D G B E) - 'Solo Guitar II'

   Intro
    Q=160
   4/4
    Gtr I
                             |-3-|                                 |-3-|
    E E Q  Q  E E    E  E Q  E E E Q     E  E Q  Q  E E    E  E Q  E E E Q
||----------------|-------------------|-----------------|-------------------|
||----------------|-------------------|-----------------|-------------------|
||o---------------|----------6h7p6----|-----------------|-------------------|
||--7h9-9--9--9-9-|----------------7--|--7h=9-9--9--9-9-|-------------------|
||o---------------|--7p=5-------------|-----------------|--7p=5----4h5p4----|
||----------------|-------7-----------|-----------------|-------7--------5--|
||----------------|-------------------|-----------------|-------------------|
|
|   Gtr II
|   W               +W                  +W                +W
||----------------|-------------------|-----------------|-------------------|
||----------------|-------------------|-----------------|-------------------|
||o---------------|-------------------|-----------------|-------------------|
||----------------|-------------------|-----------------|-------------------|
||o-2-------------|-(2)---------------|-(2)-------------|-(2)---------------|
||--2-------------|-(2)---------------|-(2)-------------|-(2)---------------|
||--0-------------|-(0)---------------|-(0)-------------|-(0)---------------|


                           |-3-|
  E E Q  Q  E E    E  E Q  E E E Q     E  E Q  Q  E E    E  E E E E E E E
|---------------|-------------------|-----------------|--------------------|
|---------------|-------------------|-----------------|--------------------|
|---------------|----------6h7p6----|-----------------|-------6-6-7-7-9-9--|
|-7h9-9--9--9-9-|----------------7--|--7h=9-9--9--9-9-|--9--9-9-9-9-9-9-9--|
|---------------|--7p=5-------------|-----------------|--------------------|
|---------------|-------7-----------|-----------------|--------------------|
|---------------|-------------------|-----------------|--------------------|
|
| W               +W                  +W                +W
|---------------|-------------------|-----------------|--------------------|
|---------------|-------------------|-----------------|--------------------|
|---------------|-------------------|-----------------|--------------------|
|---------------|-------------------|-----------------|--------------------|
|-2-------------|-(2)---------------|-(2)-------------|-(2)----------------|
|-2-------------|-(2)---------------|-(2)-------------|-(2)----------------|
|-0-------------|-(0)---------------|-(0)-------------|-(0)----------------|


                           |-3-|                                   |-3-|
  E E Q  Q  E E    E  E Q  E E E Q     E E  Q  Q  E  E     E  E Q  E E E Q
|---------------|--------------------|------------------|--------------------|
|---------------|--------------------|------------------|--------------------|
|---------------|----------6h7p6-----|------------------|--------------------|
|-7h9-9--9--9-9-|----------------7---|-7h9--9--9--9--9--|--------------------|
|---------------|--7p=5--------------|------------------|--7p=5----4h5p4-----|
|---------------|-------7------------|------------------|-------7--------5---|
|---------------|--------------------|------------------|--------------------|
|
|                                PM|                                     PM|
| W               +H.            E E   E H.         +E    +H.            E E
|---------------|--------------------|------------------|--------------------|
|---------------|--------------------|------------------|--------------------|
|---------------|--------------------|------------------|--------------------|
|-7-------------|-(7)----------------|-7\5----------(5)-|-(5)----------------|
|-7-------------|-(7)----------------|-7\5----------(5)-|-(5)----------------|
|-5-------------|-(5)------------5-5-|-5\3----------(3)-|-(3)------------3-3-|
|---------------|--------------------|------------------|--------------------|


                                         1.
                              |-3-|
  E E  Q  Q  E  E     E  E Q  E E E Q    E E Q  Q  E E    E  E E E E E E E
|------------------|-------------------|---------------|---------------------||
|------------------|-------------------|---------------|---------------------||
|------------------|----------6h7p6----|---------------|-------6-6-7-7-9-9--o||
|-7h9--9--9--9--9--|----------------7--|-7h9-9--9--9-9-|--9--9-9-9-9-9-9-9---||
|------------------|--7p=5-------------|---------------|--------------------o||
|------------------|-------7-----------|---------------|---------------------||
|------------------|-------------------|---------------|---------------------||
|
| E H.         +E    +W                  W               +W
|------------------|-------------------|---------------|---------------------||
|------------------|-------------------|---------------|---------------------||
|------------------|-------------------|---------------|--------------------o||
|-5/7----------(7)-|-(7)---------------|-2-------------|-(2)-----------------||
|-5/7----------(7)-|-(7)---------------|-2-------------|-(2)----------------o||
|-3/5----------(5)-|-(5)---------------|-0-------------|-(0)-----------------||
|------------------|-------------------|---------------|---------------------||


  2.
   Q   Q   Q   Q     E  E E E E E E E
|-----------------|-------------------|
|-----------------|-------------------|
|-11--11--11--11--|-11-11-9-7-9-6-7---|
|--9---9---9---9--|--9--9-----------7-|
|-----------------|-------------------|
|-----------------|-------------------|
|-----------------|-------------------|
|
|      PM---------------------------|
|  Q   Q   Q   Q     E  E E E E E E E
|-----------------|-------------------|
|-----------------|-------------------|
|-----------------|-------------------|
|--2--------------|-------------------|
|--2---2---2---2--|--2--2-2-2-2-2-2-2-|
|--0---0---0---0--|--0--0-0-0-0-0-0-0-|
|-----------------|-------------------|


   Verse
    Gtrs I, II
    PM----|                       PM----|
    S S S S E H    E   W          S S S S  E H    E   W
||-------------------|----------|-------------------|------|
||-------------------|----------|-------------------|------|
||o------------------|----------|-------------------|------|
||-------------------|----------|-------------------|------|
||o---------9--------|----------|---------10--------|------|
||--7-7-7-7-7--------|----------|-7-7-7-7--7--------|------|
||-------------------|----------|-------------------|------|


  Gtr I
  PM----|
  S S S S H.        +W
|-----------------|------------|
|-----------------|------------|
|-----------------|------------|
|---------5-------|-(5)--------|
|---------5-------|-(5)--------|
|-3-3-3-3-3-------|-(3)--------|
|-----------------|------------|
|
| Gtr II
| PM----|
| S S S S H.        +W
|-----------------|------------|
|-----------------|------------|
|-----------------|------------|
|---------5-------|-(5)--------|
|---------5-------|-(5)--------|
|-3-3-3-3-3-------|-(3)--------|
|-----------------|------------|


  1.
  PM----|
  S S S S H.                +W
|-------------------------|---------------------------||
|-------------------------|---------------------------||
|-------------------------|--------------------------o||
|---------2---------------|-(2)-----------------------||
|---------2---------------|-(2)----------------------o||
|-0-0-0-0-0---------------|-(0)-----------------------||
|-------------------------|---------------------------||
|
| E   E E E   E  E   E  E    E   E  E  E  E  E  E  E
|-------------------------|---------------------------||
|-------------------------|---------------------------||
|-------------------------|--------------------------o||
|-9---9-9-9--11-11--11-11-|-12--12-12-12-14-14-14-14--||
|-------------------------|--------------------------o||
|-7---7-7-7---9--9---9--9-|-10--10-10-10-12-12-12-12--||
|-------------------------|---------------------------||


  2.
  PM----|                     PM------------------|
  S S S S H.                  E  E  E  E  E  E  E  E
|--------------------------|-------------------------|
|--------------------------|-------------------------|
|--------------------------|-------------------------|
|---------2----------------|-------------------------|
|---------2----------------|--2--2--2--2--2--2--2--2-|
|-0-0-0-0-0----------------|--0--0--0--0--0--0--0--0-|
|--------------------------|-------------------------|
|
| E   E   E  E  E  E  E  E    E  E  E  E  E  E  E  E
|--------------------------|-------------------------|
|--------------------------|-------------------------|
|--------------------------|-------------------------|
|-9---9---9--9-11-11-11-11-|-12-12-12-12-14-14-14-14-|
|--------------------------|-------------------------|
|-7---7---7--7--9--9--9--9-|-10-10-10-10-12-12-12-12-|
|--------------------------|-------------------------|


   Pre-Chorus
   3/4
    Gtrs I, II
          PM--|         PM--|         PM--|
    E E E E E E   E E E E E E   E E E E E E   Q  Q  Q
||--------------|-------------|-------------|----------|
||--------------|-------------|-------------|----------|
||o-------------|-------------|-------------|----------|
||--------------|-------------|-------------|----------|
||o-------------|-------------|-------------|----------|
||--7-5-7-------|-7-5-7-------|-7-5-7-------|----------|
||--------0-0-0-|-------0-0-0-|-------0-0-0-|-2--3--5--|


                                           2/4
        PM--|         PM--|         PM--|      ~
  E E E E E E   E E E E E E   E E E E E E    Q Q
|-------------|-------------|-------------|--------||
|-------------|-------------|-------------|--------||
|-------------|-------------|-------------|-------o||
|-------------|-------------|-------------|--------||
|-------------|-------------|-5-4-5-0-0-0-|-/7-4--o||
|-3-2-3-0-0-0-|-3-2-3-0-0-0-|-------------|--------||
|-------------|-------------|-------------|--------||


 Pre-Chorus Pt. 2
 4/4
  Gtr I
  E E E E E E E E   E E E E  E  E  E  E
|-----------------|---------------------|
|-----------------|---------------------|
|-----------------|---------------------|
|-5-5-5-5-5-5-5-5-|-5-5-5-5--5--5--5--5-|
|-5-5-5-5-5-5-5-5-|-5-5-5-5--5--5--5--5-|
|-3-3-3-3-3-3-3-3-|-3-3-3-3--3--3--3--3-|
|-----------------|---------------------|
|
| Gtr II
| E E E E E E E E   E E E E  E  E  E  E
|-----------------|---------------------|
|-----------------|---------------------|
|-----------------|---------------------|
|-5-5-5-5-7-7-7-7-|-9-9-9-9-11-11-11-11-|
|-----------------|---------------------|
|-3-3-3-3-5-5-5-5-|-7-7-7-7--9--9--9--9-|
|-----------------|---------------------|


  E E E E E E E E    E  E  E  E  E  E  E  E
|-----------------|--------------------------|
|-----------------|--------------------------|
|-----------------|--------------------------|
|-7-7-7-7-7-7-7-7-|--7--7--7--7--7--7--7--7--|
|-7-7-7-7-7-7-7-7-|--7--7--7--7--7--7--7--7--|
|-5-5-5-5-5-5-5-5-|--5--5--5--5--5--5--5--5--|
|-----------------|--------------------------|
|
| E E E E E E E E    E  E  E  E  E  E  E  E
|-----------------|--------------------------|
|-----------------|--------------------------|
|-----------------|--------------------------|
|-7-7-7-7-9-9-9-9-|-11-11-11-11-12-12-12-12--|
|-----------------|--------------------------|
|-5-5-5-5-7-7-7-7-|--9--9--9--9-10-10-10-10--|
|-----------------|--------------------------|


   Chorus
    Gtr III
      E E  E  E  E  E  E  E     E  E E E E E E E
||--------------------------|--------------------|
||--------------------------|--------------------|
||o---7-7--7--7--7--7--7--7-|---7--7-7-7-7-7-7-7-|
||----9-9--9--9--9--9--9--9-|---9--9-9-9-9-9-9-9-|
||o---9-9--9--9--9--9--9--9-|---9--9-9-9-9-9-9-9-|
||----7-7--7--7--7--7--7--7-|---7--7-7-7-7-7-7-7-|
||--------------------------|--------------------|
|
|   Gtr I
|                         ~~~~~~~~~
|     Q    E  E  E  E  E  E    +W
||--------------------------|--------------------|
||------------7--7--7--7--5-|--(5)---------------|
||o--/4----4----------------|--------------------|
||--------------------------|--------------------|
||o-------------------------|--------------------|
||--------------------------|--------------------|
||--------------------------|--------------------|
|
|   Gtr II
|                         ~~~~~~~~~
|     Q    E  E  E  E  E  E    +W
||-----------14-14-14-14-12-|-(12)---------------|
||--/12---12----------------|--------------------|
||o-------------------------|--------------------|
||--------------------------|--------------------|
||o-------------------------|--------------------|
||--------------------------|--------------------|
||--------------------------|--------------------|


    E  E  E  E  E  E  E  E    E  E  E  E   E   E  E  E
|--------------------------|----------------------------|
|--------------------------|----------------------------|
|---7--7--7--7--7--7--7--7-|--7--7--7--7---7---7--7--7--|
|---9--9--9--9--9--9--9--9-|--9--9--9--9---9---9--9--9--|
|--10-10-10-10-10-10-10-10-|-10-10-10-10--10--10-10-10--|
|---7--7--7--7--7--7--7--7-|--7--7--7--7---7---7--7--7--|
|--------------------------|----------------------------|
|
|                                      ~~~~~~~
|   Q     E  E  E  E  E  E    E  Q     E  +H
|--------------------------|----------------------------|
|------------7--7--5--5--7-|--7--8-----7--(7)-----------|
|--/4-----4----------------|----------------------------|
|--------------------------|----------------------------|
|--------------------------|----------------------------|
|--------------------------|----------------------------|
|--------------------------|----------------------------|
|
|                                      ~~~~~~~
|   Q     E  E  E  E  E  E    E  Q     E  +H
|-----------14-14-12-12-14-|-14-15----14-(14)-----------|
|-/12----12----------------|----------------------------|
|--------------------------|----------------------------|
|--------------------------|----------------------------|
|--------------------------|----------------------------|
|--------------------------|----------------------------|
|--------------------------|----------------------------|


    E E  E  E  E  E  E  E     E  E E E E E E E
|-------------------------|--------------------|
|-------------------------|--------------------|
|---6-6--6--6--7--7--7--7-|---6--6-6-6-7-7-7-7-|
|---7-7--7--7--7--7--7--7-|---7--7-7-7-7-7-7-7-|
|---7-7--7--7--7--7--7--7-|---7--7-7-7-7-7-7-7-|
|---5-5--5--5--5--5--5--5-|---5--5-5-5-5-5-5-5-|
|-------------------------|--------------------|
|
|                       ~~~~~~~~~
|   Q    E  E  E  E  E  E    +W
|-------------------------|--------------------|
|-----------5--5--5--5--3-|--(3)---------------|
|-------------------------|--------------------|
|--/7----7----------------|--------------------|
|-------------------------|--------------------|
|-------------------------|--------------------|
|-------------------------|--------------------|
|
|                       ~~~~~~~~~
|   Q    E  E  E  E  E  E    +W
|----------12-12-12-12-10-|-(10)---------------|
|-/10---10----------------|--------------------|
|-------------------------|--------------------|
|-------------------------|--------------------|
|-------------------------|--------------------|
|-------------------------|--------------------|
|-------------------------|--------------------|


  1.
                                          ~
   E  Q S  S  E Q  S  S   E  Q  S  S  E E Q
|-----------------------|---------------------||
|-----------------------|---------------------||
|-----------------------|--------------------o||
|-----------------------|---------------------||
|--5----------4---------|-2-----------4-1-2--o||
|-----3-3--3----2--2--2-|----0--0--0----------||
|-----------------------|---------------------||
|
|                                     ~~
|  E  E E  E  E E  E  E   E  E  E  E  H
|-----------------------|---------------------||
|-----------------------|---------------------||
|--7\=6----6\=4----4/=6-|----4--3--4--6------o||
|-------0-------0-------|-0-------------------||
|-----------------------|--------------------o||
|-----------------------|---------------------||
|-----------------------|---------------------||
|
|                                     ~~
|  E  E E  E  E E  E  E   E  E  E  E  H
|-----------------------|---------------------||
|-15\14---14\12---12/14-|---12-11-12-14-------||
|-----------------------|--------------------o||
|-------0-------0-------|---------------------||
|-----------------------|-0------------------o||
|-----------------------|---------------------||
|-----------------------|---------------------||


  2.
                                                     ~~
   E  Q     S S  E  Q     S S    E  Q     S S  E  E  Q
|-----------------------------|-------------------------|
|-----------------------------|-------------------------|
|-----------------------------|-------------------------|
|-----------------------------|-------------------------|
|--5-------------4------------|--2-------------4--1--2--|
|-----3-----3-3-----2-----2-2-|-----0-----0-0-----------|
|-----------------------------|-------------------------|
|
|                                                    ~~
|  E  E  E  E    E  E  E  E      E  E  E  E    E  E  Q
|-15------------12------------|-14----------------------|
|----15-14-15------15-14-15---|----15-14-15---14-11-12--|
|-----------------------------|-------------------------|
|-----------------------------|-------------------------|
|-----------------------------|-------------------------|
|-----------------------------|-------------------------|
|-----------------------------|-------------------------|
|
|                                                    ~~
|  E  E  E  E    E  E  E  E      E  E  E  E    E  E  Q
|-----------------------------|-------------------------|
|-----------------------------|-------------------------|
|-12-------------9------------|-11----------------------|
|----12-11-12------12-11-12---|----12-11-12---11--8--9--|
|-----------------------------|-------------------------|
|-----------------------------|-------------------------|
|-----------------------------|-------------------------|


   Verse
    Gtrs I, II
    PM----|                          PM----|
    S S S S E H    E   E E H.        S S S S  E H    E   E E H.
||-------------------|-------------|-------------------|-----------|
||-------------------|-------------|-------------------|-----------|
||o------------------|-------------|-------------------|-----------|
||-------------------|-------------|-------------------|-----------|
||o---------9--------|-------------|---------10--------|-----------|
||--7-7-7-7-7--------|-------------|-7-7-7-7--7--------|-----------|
||-----------------x-|-x-----------|-----------------x-|-x---------|


  Gtr I
  PM----|
  S S S S H.        +W
|-----------------|------------|
|-----------------|------------|
|-----------------|------------|
|---------5-------|-(5)--------|
|---------5-------|-(5)--------|
|-3-3-3-3-3-------|-(3)--------|
|-----------------|------------|
|
| Gtr II
| PM----|
| S S S S H.        +W
|-----------------|------------|
|-----------------|------------|
|-----------------|------------|
|---------5-------|-(5)--------|
|---------5-------|-(5)--------|
|-3-3-3-3-3-------|-(3)--------|
|-----------------|------------|


  1.
  PM----|
  S S S S H.                 +W
|--------------------------|---------------------------||
|--------------------------|---------------------------||
|--------------------------|--------------------------o||
|---------2----------------|-(2)-----------------------||
|---------2----------------|-(2)----------------------o||
|-0-0-0-0-0----------------|-(0)-----------------------||
|--------------------------|---------------------------||
|
| E   E   E  E  E  E  E  E    E   E  E  E  E  E  E  E
|--------------------------|---------------------------||
|--------------------------|---------------------------||
|--------------------------|--------------------------o||
|-9---9---9--9-11-11-11-11-|-12--12-12-12-14-14-14-14--||
|--------------------------|--------------------------o||
|-7---7---7--7--9--9--9--9-|-10--10-10-10-12-12-12-12--||
|--------------------------|---------------------------||


  2.
  PM----|                     PM------------------|
  S S S S H.                  E  E  E  E  E  E  E  E
|--------------------------|---------------------------|
|--------------------------|---------------------------|
|--------------------------|---------------------------|
|---------2----------------|---------------------------|
|---------2----------------|--2--2--2--2--2--2--2--2---|
|-0-0-0-0-0----------------|--0--0--0--0--0--0--0--0---|
|--------------------------|---------------------------|
|
| E   E   E  E  E  E  E  E    E  E  E  E  E  E  E  E
|--------------------------|---------------------------|
|--------------------------|---------------------------|
|--------------------------|---------------------------|
|-9---9---9--9-11-11-11-11-|-12-12-12-12-14-14-14-14---|
|--------------------------|---------------------------|
|-7---7---7--7--9--9--9--9-|-10-10-10-10-12-12-12-12---|
|--------------------------|---------------------------|

Pre-Chorus
Pre-Chorus Pt. 2
Chorus

 Breakdown
  Gtr II
         ~      PM----|
  H      H      E E E E E Q.
|-------------|--------------|
|-------------|--------------|
|-------------|--------------|
|-------------|--------------|
|-------------|---------6----|
|-------------|-3-4-5-3-4-6--|
|-6b7----3----|-1-2-3-1---4--|


    Gtrs I, II
           ~      PM----|
    H      H      E E E E E Q.    5x
||--------------|-----------------||
||--------------|-----------------||
||o-------------|----------------o||
||--------------|-----------------||
||o-------------|---------6------o||
||--------------|-3-4-5-3-4-6-----||
||--6b7----3----|-1-2-3-1---4-----||


    Gtr I
    W             +W              +W              +W
||--------------|---------------|---------------|---------------||
||--------------|---------------|---------------|---------------||
||o-------------|---------------|---------------|--------------o||
||--------------|---------------|---------------|---------------||
||o-2-----------|-(2)-----------|-(2)-----------|-(2)----------o||
||--2-----------|-(2)-----------|-(2)-----------|-(2)-----------||
||--0-----------|-(0)-----------|-(0)-----------|-(0)-----------||
|
|   Gtr II
|   Q  Q  Q  Q     Q   Q  Q  Q     Q   Q  Q  Q     Q   Q  Q  Q
||--------------|---------------|---------------|---------------||
||--------------|---------------|---------------|---------------||
||o-------------|---------------|---------------|--------------o||
||--------------|---------------|---------------|---------------||
||o----2--------|--2------1-----|------2--------|--2------1--4-o||
||--------2--3--|---------------|---------2--3--|---------------||
||--0-----------|------3-----2--|--0------------|------3--------||


  Gtrs I, II
  PM----------------------------------------------|
  S S E S S E S S E S S E   S S E S S E S S E S S E
|-------------------------|-------------------------|
|-------------------------|-------------------------|
|-------------------------|-------------------------|
|-------------------------|-------------------------|
|-------2-2-2-------------|-2-2-2-------1-1-1-------|
|-------------2-2-2-3-3-3-|-------------------------|
|-0-0-0-------------------|-------3-3-3-------2-2-2-|


  PM----------------------------------------------|
  S S E S S E S S E S S E   S S E S S E S S E S S E
|-------------------------|-------------------------|
|-------------------------|-------------------------|
|-------------------------|-------------------------|
|-------------------------|-------------------------|
|-------2-2-2-------------|-2-2-2-------1-1-1-4-4-4-|
|-------------2-2-2-3-3-3-|-------------------------|
|-0-0-0-------------------|-------3-3-3-------------|


  TP TP TP TP   TP TP TP TP   TP TP TP TP   TP TP TP TP
  Q  Q  Q  Q    Q  Q  Q  Q    Q  Q  Q  Q    Q  Q  Q  Q
|-------------|-------------|-------------|-------------|
|-------------|-------------|-------------|-------------|
|-------------|-------------|-------------|-------------|
|-------------|-------------|-------------|-------------|
|----2--------|-2-----1-----|----2--------|-2-----1--4--|
|-------2--3--|-------------|-------2--3--|-------------|
|-0-----------|----3-----2--|-0-----------|----3--------|


 Solo (Play Breakdown behind it)
  Gtr IV
   ~~~~~~~~                           ~~~~~~
                 |--3--|  |--3--|
   H     H       E  E  E  E  E  E  E  Q.
|-13----------|----------------13-16-------|
|-------15----|----------12-15-------16----|
|-------------|----10-13-------------------|
|-------------|-12-------------------------|
|-------------|----------------------------|
|-------------|----------------------------|
|-------------|----------------------------|


 ~~~~~~~~~~                           ~~~
                 |--3--|  |--3--|
   H     H       E  E  E  E  E  E  E  Q.
|-20----------|----------------17-20-------|
|-------19----|----------16-19-------19----|
|-------------|----14-17-------------------|
|-------------|-16-------------------------|
|-------------|----------------------------|
|-------------|----------------------------|
|-------------|----------------------------|
|
|Guitar V
|  ~~~~~~~~
|  H     H       W
|-17----------|----------------------------|
|-------16----|----------------------------|
|-------------|----------------------------|
|-------------|----------------------------|
|-------------|----------------------------|
|-------------|----------------------------|
|-------------|----------------------------|


   |-----------9-----------|  |-----------9-----------|
   E  E  E  E  E  E  E  E  E  E  E  E  E  E  E  E  E  E
|-15-14-10-15-14-10-15-14-10-15-14-10-15-14-10-15-14--9-|
|-------------------------------------------------------|
|-------------------------------------------------------|
|-------------------------------------------------------|
|-------------------------------------------------------|
|-------------------------------------------------------|
|-------------------------------------------------------|
|
|  |-----------9-----------|  |-----------9-----------|
|  E  E  E  E  E  E  E  E  E  E  E  E  E  E  E  E  E  E
|-19-18-14-19-18-14-19-18-14-19-18-14-19-18-14-19-18-13-|
|-------------------------------------------------------|
|-------------------------------------------------------|
|-------------------------------------------------------|
|-------------------------------------------------------|
|-------------------------------------------------------|
|-------------------------------------------------------|


   |-----------9-----------|  |-----------9-----------|
   E  E  E  E  E  E  E  E  E  E  E  E  E  E  E  E  E  E
|-15-14--9-15-14--9-15-14--9-15-14--9-15-14--9-15-14--8-|
|-------------------------------------------------------|
|-------------------------------------------------------|
|-------------------------------------------------------|
|-------------------------------------------------------|
|-------------------------------------------------------|
|-------------------------------------------------------|
|
|  |-----------9-----------|  |-----------9-----------|
|  E  E  E  E  E  E  E  E  E  E  E  E  E  E  E  E  E  E
|-19-18-13-19-18-13-19-18-13-19-18-13-19-18-13-19-18-12-|
|-------------------------------------------------------|
|-------------------------------------------------------|
|-------------------------------------------------------|
|-------------------------------------------------------|
|-------------------------------------------------------|
|-------------------------------------------------------|


   |-----------9-----------|  |-----------9-----------|
   E  E  E  E  E  E  E  E  E  E  E  E  E  E  E  E  E  E
|-15-14--8-15-14--8-15-14--8-15-14--8-15-14--8-15-14--8-|
|-------------------------------------------------------|
|-------------------------------------------------------|
|-------------------------------------------------------|
|-------------------------------------------------------|
|-------------------------------------------------------|
|-------------------------------------------------------|
|
|  |-----------9-----------|  |-----------9-----------|
|  E  E  E  E  E  E  E  E  E  E  E  E  E  E  E  E  E  E
|-19-18-12-19-18-12-19-18-12-19-18-12-19-18-12-19-18-12-|
|-------------------------------------------------------|
|-------------------------------------------------------|
|-------------------------------------------------------|
|-------------------------------------------------------|
|-------------------------------------------------------|
|-------------------------------------------------------|


  |-3--| |-3--| |--3--|  |--3--|
  E E  E E E  E E  E  E  E  E  E
|---------------------------------|
|---------------------------------|
|-----------------------10-11-13--|
|---------------9-10-12-----------|
|--------8-9-11-------------------|
|-7-9-10--------------------------|
|---------------------------------|
|
|---------------------------------|
|---------------------------------|
|---------------------------------|
|---------------------------------|
|---------------------------------|
|---------------------------------|
|---------------------------------|


                                           \1______
   |--3--|  |--3--|
   E  E  E  E  E  E  E  Q.       E    E    H.
|----------13-14-15-16-------|-[16]---------------|
|-12-13-15-------------16----|------[16]----------|
|----------------------------|-----------[16]-----|
|----------------------------|--------------------|
|----------------------------|--------------------|
|----------------------------|--------------------|
|----------------------------|--------------------|

Pre-Chorus


 Solo 2 (Play Pre-Chorus Pt. 2 Behind it)
  Gtr IV
  PM---------------------|            ~~~~
  E  E  E E  E  E E  E    E E  E  E   H
|----------------------|--------------------|
|----------------------|--------------------|
|----------------------|------------[11]----|
|----------------------|----9-11-12---------|
|-----------------9-10-|-12-----------------|
|---------9-10-12------|--------------------|
|-8-10-12--------------|--------------------|


  Gtr IV
   S S S S  S S S S  S S  S  S  S  S  S S
|-----------------------------------------|
|-10p7------------7-12p8----------------8-|
|------7--------7---------9-----------9---|
|--------7----7--------------9-----9------|
|-----------9------------------10---------|
|-----------------------------------------|
|-----------------------------------------|
|
| Gtr V
|  S S S S  S S S S  S S  S  S  S  S  S S
|-----------------------------------------|
|-----------------------------------------|
|-11p7------------7-12p9----------------9-|
|------9--------9--------11----------11---|
|--------9----9-------------10----10------|
|----------10------------------12---------|
|-----------------------------------------|


   S  S  S  S  S  S  S  S  S  S  S  S  S  S  S  S
|-12p=9-----------------9-14p10----------------10-|
|-------10----------10----------12----------12----|
|-----------9-----9----------------11----11-------|
|-------------11----------------------12----------|
|-------------------------------------------------|
|-------------------------------------------------|
|-------------------------------------------------|
|
|  S  S  S  S  S  S  S  S  S  S  S  S  S  S  S  S
|-------------------------------------------------|
|-14p10----------------10-15p12----------------12-|
|-------11----------11----------12----------12----|
|----------11----11----------------12----12-------|
|-------------12----------------------14----------|
|-------------------------------------------------|
|-------------------------------------------------|


   ~~
   W
|-14----||
|-------||
|-------||
|-------||
|-------||
|-------||
|-------||
|
|  ~~
|  W
|-------||
|-15----||
|-------||
|-------||
|-------||
|-------||
|-------||

Chorus


 Outro
  Gtrs I, II
         ~      PM----|      PM       PM     PM
  H      H      E E E E E Q  E   E Q  E E Q  E   E E +H.
|-------------|----------------|---------------|--------------|
|-------------|----------------|---------------|--------------|
|-------------|----------------|---------------|--------------|
|-------------|----------------|---------------|--------------|
|-------------|---------6------|-6------6------|-6------------|
|-------------|-3-4-5-3-4-6----|-4-6----4-6----|-4------------|
|-6b7----3----|-1-2-3-1---4--4-|---4--4---4--4-|---4-(4)b5----|


  +W              W
|---------------|------*|
|---------------|------*|
|---------------|------*|
|---------------|------*|
|---------------|-2----*|
|---------------|-2----*|
|-(4)pb5--------|-0----*|


Duration Legend
---------------
W - whole; H - half; Q - quarter; E - 8th; S - 16th; T - 32nd; X - 64th; a - acciaccatura
+ - note tied to previous; . - note dotted; .. - note double dotted
Uncapitalized letters represent notes that are staccato (1/2 duration)
Irregular groupings are notated above the duration line
Duration letters will always appear directly above the note/fret number it represents the
duration for.  Duration letters with no fret number below them represent rests.  Multi-
bar rests are notated in the form Wxn, where n is the number of bars to rest for.  Low
melody durations appear below the staff

Tablature Legend
----------------
 h   - hammer-on
 p   - pull-off
 b   - bend
 pb  - pre-bend
 r   - bend release (if no number after the r, then release immediately)
 /\  - slide into or out of (from/to "nowhere")
 s   - legato slide
 S   - shift slide
  - natural harmonic
[n]  - artificial harmonic
n(n) - tapped harmonic
 ~   - vibrato
 tr  - trill
 T   - tap
 TP  - trem. picking
 PM  - palm muting
\n/  - tremolo bar dip; n = amount to dip
 \n  - tremolo bar down
 n/  - tremolo bar up
/n\  - tremolo bar inverted dip
 =   - hold bend; also acts as connecting device for hammers/pulls
 <>  - volume swell (louder/softer)
 x   - on rhythm slash represents muted slash
 o   - on rhythm slash represents single note slash

Misc Legend
-----------
 |  - bar
||  - double bar
||o - repeat start
o|| - repeat end
*|  - double bar (ending)
 :  - bar (freetime)
 $  - Segno
 &  - Coda
Tempo markers -  = BPM(8/16=s8/s16), where s8 = swing 8ths, s16 = swing 16ths


***************************************************************************************
* Generated using Power Tab Editor by Brad Larsen - http://powertab.guitarnetwork.org *
***************************************************************************************
comments
print report bad tab
2 comments total.
+1 reply
jbswreckfest wrote on September 6 2009, 08:55 pm

excelent job. this is the only down from the sky tab that seemed entirely accurate. learned nearly the whole song in less than 15 minutes.

0 reply
joshflynn8 wrote on September 21 2009, 03:03 pm

well if you watch the video for this they play it on 6 stringed guitars

I want to post or [tab]
guest
You may want to rate the tab now too:
select rating
Please do not post tabs as comments. Select "correction" instead!