Oops, an error
Loading. Please wait.

Down From The Sky Tab

ver5
ver5
More versions @911Tabs.com
14,147 views 33 this week
2 commentsread comments
1 2 3 4 5
excellent!
x 7
Autoscroll
+/-
esc
set tempo
stop
Contributor
Difficulty
advanced
WARNING: You are trying to view
                                    content from Ultimate-Guitar.com
                                    in an unauthorized application,
                                    which is prohibited.

                                    Please use an official Ultimate
                                    Guitar Tabs application for iPhone,
                                    iPad or Android to access legitimate
                                    chords, guitar, bass, and drum tabs
                                    from Ultimate-Guitar.com database.

                                    Type "ultimate guitar tabs" in Apple
                                    App Store's or Android Market's
                                    search to find the application.
Band:  Trivium
Song:  Down From The Sky
Album: Shogun

this song is played on a seven string (B,E,A,D,G,B,E) LOW TO HIGH
ive ripped this straight from my shogun album but there has been much
improvement from the album version. comments are welcome and
please rate :)
fyi this tab is for a friend who is learning the song :)

the links for the song, where i figured out this tab is...

DOWN FROM THE SKY LESSON PART1:
http://www.youtube.com/watch?
v=rKdVcRlW0II&feature=PlayList&p=4AD3667FCE43A981&playnext=1&playnext_from=PL&index=21

DOWN FROM THE SKY LESSON PART2:
http://www.youtube.com/watch?v=Kz5waqX5oeY&feature=PlayList&p=4AD3667FCE43A981&index=22

Lengend:
hammer on:              h
pull off:               p
slide up:               /
slide down:             \
pinch harmonic:         PH
pick slide:             /x\
bend up:                BU
artifical harmonic:     AH
tremelo pick:           TR
vibrato:                ~~~
lower whammy bar pitch: WBL



Intro
Guitar 1
E||----------------------------------------------------------------------|
B||-0---0---0---0-0---------0----------0---0---0---0-0-------------------|
G||-2h4-4---4---4-4---------6h7p6------2h4-4---4---4-4-------------------|
D||-----------------2p0-----------7--------------------2p0---------------|
A||---------------------2----------------------------------2---4h5p4-----|
E||------------------------------------------------------------------5---|
B||----------------------------------------------------------------------|

E||----------------------------------------------------------------------|
B||-0---0---0---0-0---------0----------0---0---0---0-0-0-0-0-0-0-0-0-0---|
G||-2h4-4---4---4-4---------6h7p6------2h4-4---4---4-4-4-4-6-6-7-7-9-9---|
D||-----------------2p0-----------7--------------------------------------|
A||---------------------2------------------------------------------------|
E||----------------------------------------------------------------------|
B||----------------------------------------------------------------------|

E||----------------------------------------------------------------------|
B||-0---0---0---0-0---------0----------0---0---0---0-0-------------------|
G||-2h4-4---4---4-4---------6h7p6------2h4-4---4---4-4-------------------|
D||-----------------2p0-----------7--------------------2p0---------------|
A||---------------------2----------------------------------2---4h5p4-----|
E||------------------------------------------------------------------5---|
B||----------------------------------------------------------------------|

E||----------------------------------------------------------------------|
B||-0---0---0---0-0---------0-----------0---0---0---0---0--0-0-0-0-0-0-0-|
G||-2h4-4---4---4-4---------6h7p6------11--11--11--11--11-11-9-7-9-6-7-9-|
D||-----------------2p0-----------7--------------------------------------|
A||---------------------2------------------------------------------------|
E||----------------------------------------------------------------------|
B||----------------------------------------------------------------------|

Guitar 2 
(this is the rhythm that is played throughout the intro)
E||----------------------------------------------------------|
B||----------------------------------------------------------|
G||----------------------------------------------------------|
D||-9--------9--------7--------7\5--------5/7-----2----------|
A||-9--------9--------7--------7\5--------5/7-----2----------|
E||-7--------7--------5----5-5-5\3----3-3-3/5-----0----------|
B||----------------------------------------------------------|


Verse 1
Guitar 1
E||-----------------------------------|--------------------------------------|
B||-----------------------------------|--------------------------------------|
G||-----------------------------------|--------------------------------------|
D||-----------------------------------|--------------------------------------|
A||---------9-------------------------|---------10---------------------------|
E||---------7-------------------------|---------7----------------------------|
B||-0-0-0-0-0-------------------------|-0-0-0-0-0----------------------------|

E||-----------------------------------|--------------------------------------|
B||-----------------------------------|--------------------------------------|
G||-----------------------------------|---------6---6-6-6-6-7-7-7-7-9-9-9-9--|
D||---------5-------------------------|--------------------------------------|
A||---------5-------------------------|---------4---4-4-4-4-5-5-5-5-7-7-7-7--|
E||-3-3-3-3-3-------------------------|-0-0-0-0-0----------------------------|
B||-----------------------------------|--------------------------------------|

E||-----------------------------------|--------------------------------------|
B||-----------------------------------|--------------------------------------|
G||-----------------------------------|--------------------------------------|
D||-----------------------------------|--------------------------------------|
A||---------9-------------------------|---------10---------------------------|
E||---------7-------------------------|---------7----------------------------|
B||-0-0-0-0-0-------------------------|-0-0-0-0-0----------------------------|

E||--------------------------------|---------------------------------------------|
B||--------------------------------|---------------------------------------------|
G||--------------------------------|---------9---9-9-9-9-10-10-10-10-16-16-16-16-|
D||---------5----------------------|---------------------------------------------|
A||---------5----------------------|---------7---7-7-7-7--9--9--9--9-14-14-14-14-|
E||-3-3-3-3-3----------------------|-0-0-0-0-0-----------------------------------|
B||--------------------------------|---------------------------------------------|

In verse 2 there is a little chug thing.
It goes like this... 

E||-----------------------------------|--------------------------------------|
B||-----------------------------------|--------------------------------------|
G||-----------------------------------|--------------------------------------|
D||-----------------------------------|--------------------------------------|
A||---------9---------2-2-------------|---------10---------2-2---------------|
E||---------7---------2-2-------------|---------7----------2-2---------------|
B||-0-0-0-0-0---------0-0-------------|-0-0-0-0-0----------0-0---------------|


Verse 3
Both guitars
E||-------------------------|-------------------------|
B||-------------------------|-------------------------|
G||-------------------------|-------------------------|
D||-------------------------|-------------------------|
A||-------------------------|-------------------------|
E||-7-5-7-------7-5-7-------|-7-5-7-------------------|
B||-------0-0-0-------0-0-0-|-------0-0-0-2-2-3-3-5-5-|

E||-------------------------|---------------------|
B||-------------------------|---------------------|
G||-------------------------|---------------------|
D||-------------------------|---------------------|
A||-------------------------|-5-4-5-0-0-0-/7---4~-|
E||-3-2-3-0-0-0-3-2-3-0-0-0-|---------------------|
B||-------------------------|---------------------|


Pre-Chorus
Guitar 1
E||-------------------------------------|-----------------------------------------|
B||-------------------------------------|-----------------------------------------|
G||-------------------------------------|-----------------------------------------|
D||-5-5-5-5-7-7-7-7-9-9-9-9-11-11-11-11-|-7-7-7-7-9-9-9-9-11-11-11-11-12-12-12-12-|
A||-------------------------------------|-----------------------------------------|
E||-3-3-3-3-5-5-5-5-7-7-7-7--9--9--9--9-|-5-5-5-5-7-7-7-7--9--9--9--9-10-10-10-10-|
B||-------------------------------------|-----------------------------------------|

Guitar 2
E||---------------------------------|---------------------------------|
B||---------------------------------|---------------------------------|
G||---------------------------------|---------------------------------|
D||-5-5-5-5-5-5-5-5-5-5-5-5-5-5-5-5-|-7-7-7-7-7-7-7-7-7-7-7-7-7-7-7-7-|
A||-5-5-5-5-5-5-5-5-5-5-5-5-5-5-5-5-|-7-7-7-7-7-7-7-7-7-7-7-7-7-7-7-7-|
E||-3-3-3-3-3-3-3-3-3-3-3-3-3-3-3-3-|-5-5-5-5-5-5-5-5-5-5-5-5-5-5-5-5-|
B||---------------------------------|---------------------------------|


Chorus
Guitar 1
E||-----------------------------------|-----------------------------------|
B||-----------------------------------|-----------------------------------|
G||---------11----11----9~~~~---------|---------11--9--11--12--11~~~~-----|
D||-/9---9----------------------------|-/9---9----------------------------|
A||-----------------------------------|-----------------------------------|
E||-----------------------------------|-----------------------------------|
B||-----------------------------------|-----------------------------------|

E||-----------------------------------|-----------------------------------|
B||-----------------------------------|-----------------------------------|
G||---------9----9----7~~~~-----------|-7\6---6\4---4/6---4\3/4/6~~~~-----|
D||-/7---7----------------------------|-----------------------------------|
A||-----------------------------------|-----------------------------------|
E||-----------------------------------|-----------------------------------|
B||-----------------------------------|-----------------------------------|

E||-----------------------------------|-----------------------------------|
B||-----------------------------------|-----------------------------------|
G||---------11----11----9~~~~---------|---------11--9--11--12--11~~~~-----|
D||-/9---9----------------------------|-/9---9----------------------------|
A||-----------------------------------|-----------------------------------|
E||-----------------------------------|-----------------------------------|
B|------------------------------------|-----------------------------------|

E||-----------------------------------|-----------------------------------|
B||-----------------------------------|-8-------5-------7-------2---------|
G||---------9----9----7~~~~-----------|---7-6-7---7-6-4---6-4-3---3-4PH~~-|
D||-/7---7----------------------------|-----------------------------------|
A||-----------------------------------|-----------------------------------|
E||-----------------------------------|-----------------------------------|
B||-----------------------------------|-----------------------------------|

Guitar 2
(This rhythm is played throughout the chorus)
E||----------------------------------|-----------------------------|
B||----------------------------------|-----------------------------|
G||o-8-------9------6-----7-----6----|----------------------------o|
D||--9-------9------7-----7-----7----|-5------2--------------------|
A||o-9-x16--10-x16--7-x3--7-x4--7-x9-|---------------5-------4--5-o|
E||--7-------7------5-----5-----5----|---3-33---0-00---2-22--5--7--|
B||----------------------------------|-----------------------------|

Middle Section:
Part 1: Elephant Riff
Both guitars
E||---------------------------------|---------------------------------|
B||---------------------------------|---------------------------------|
G||---------------------------------|---------------------------------|
D||---------------------------------|---------------------------------|
A||-------------------------6-------|-------------------------6-------|
E||-----------------3-4-5---4-6-----|-----------------3-4-5---4-6-----|
B||-6BU(7)-3~~~-----1-2-3-0---4---0-|-6BU(7)-3~~~-----1-2-3-0---4---0-|

Part 2: Elephant Riff
Guitar 1
E||---------------------------------|---------------------------------|
B||---------------------------------|---------------------------------|
G||---------------------------------|---------------------------------|
D||---------------------------------|---------------------------------|
A||---------------------------------|---------------------------------|
E||----/7---2---3--/7------/6-------|----/7---2---3--/7------/6-------|
B||-0-------------------3-------2---|-0-------------------3-------2---|

E||---------------------------------|---------------------------------|
B||---------------------------------|---------------------------------|
G||---------------------------------|---------------------------------|
D||---------------------------------|---------------------------------|
A||---------------------------------|---------------------------------|
E||----/7---2---3--/7------/6-------|----/7---2---3--/7------/6-------|
B||-0-------------------3-------2---|-0-------------------3-------2---|

Guitar 2
E||---------------------------------|
B||---------------------------------|
G||---------------------------------|
D||---------------------------------|
A||-2-------------------------------|
E||-2-------------------------------|
B||-0-------------------------------|

E||---------------------------------|---------------------------------|
B||---------------------------------|---------------------------------|
G||---------------------------------|---------------------------------|
D||---------------------------------|---------------------------------|
A||---------------------------------|---------------------------------|
E||-2-2-2-2-2-2-2-2-2-2-2-2-2-2-2-2-|-2-2-2-2-2-2-2-2-2-2-2-2---------|
B||-0-0-0-0-0-0-0-0-0-0-0-0-0-0-0-0-|-0-0-0-0-0-0-0-0-0-0-0-0-/x\-----|

Both guitars
E||-------------------------------------------------------|
B||-------------------------------------------------------|
G||-------------------------------------------------------|
D||-------------------------------------------------------|
A||-------------------------------------------------------|
E||---------7-7-7---2-2-2---3-3-3-----------6-6-6---------|
B||-0-0-0---------------------------3-3-3-----------2-2-2-|

E||-------------------------------------------------------|
B||-------------------------------------------------------|
G||-------------------------------------------------------|
D||-------------------------------------------------------|
A||-------------------------------------------------------|
E||---------7-7-7---2-2-2---3-3-3-----------6-6-6---------|
B||-0-0-0---------------------------3-3-3-----------2-2-2-|

Both guitars
    TR---------------------------------------------------
E||-------------------------------------------------------|
B||-------------------------------------------------------|
G||-------------------------------------------------------|
D||-------------------------------------------------------|
A||-------------------------------------------------------|
E||---------7-------2-------3---------------6-------------|
B||-0-------------------------------3---------------2-----|

    TR---------------------------------------------------
E||-------------------------------------------------------|
B||-------------------------------------------------------|
G||-------------------------------------------------------|
D||-------------------------------------------------------|
A||-------------------------------------------------------|
E||---------7-------2-------3---------------6-------------|
B||-0-------------------------------3---------------2-----|


Solo
MKH
E||-13~~~~~~~~----10~~~~~~~~------------------13-16~~~~~--|
B||-16BU(18)~~----13BU(15)~~---------------15-------16~~--|
G||----------------------------------13h16----------------|
D||----------------------------12h15----------------------|
A||-------------------------------------------------------|
E||-------------------------------------------------------|
B||-------------------------------------------------------|

E||-20~~~~~~~~~~~-----------------------------17-20~~~~~--|
B||---------------19~~~~~~~~~~-------------19-------19~~--|
G||----------------------------------17h20----------------|
D||----------------------------16h19----------------------|
A||-------------------------------------------------------|
E||-------------------------------------------------------|
B||-------------------------------------------------------|
 
E||-------------------------------------------------------|
B||-19-18-15-19-18-15-19-18-15-19-18-15-19-18-15-19-18-15-|
G||-------------------------------------------------------|
D||-------------------------------------------------------|
A||-------------------------------------------------------|
E||-------------------------------------------------------|
B||-------------------------------------------------------|
 
E||-------------------------------------------------------|
B||-19-18-14-19-18-14-19-18-14-19-18-14-19-18-14-19-18-14-|
G||-------------------------------------------------------|
D||-------------------------------------------------------|
A||-------------------------------------------------------|
E||-------------------------------------------------------|
B||-------------------------------------------------------|
 
E||-------------------------------------------------------|
B||-19-18-13-19-18-13-19-19-13-19-18-13-19-18-13-19-18-13-|
G||-------------------------------------------------------|
D||-------------------------------------------------------|
A||-------------------------------------------------------|
E||-------------------------------------------------------|
B||-------------------------------------------------------|

E||--------------------------------------------|
B||--------------------------------------------|
G||--------------------------------10--11--13--|
D||---------------------9--10--12--------------|
A||-----------8--9--11-------------------------|
E||-7--8--10-----------------------------------|
B||--------------------------------------------|

                                       AH--------
E||-------------13--14--15-16~~~~~~~---16---------(16)WBL--|
B||-12--13--15------------------16~~-------16-----(16)WBL--|
G||--------------------------------------------16-(16)WBL--|
D||--------------------------------------------------------|
A||--------------------------------------------------------|
E||--------------------------------------------------------|
B||--------------------------------------------------------|

This is the harmony to the solo
E||-17------------------------5-8-------|
B||---------16--------------7-----7~~~~-|
G||---------------------5h8-------------|
D||-----------------4h7-----------------|
A||-------------------------------------|
E||-------------------------------------|
B||-------------------------------------|

E||-24------------------------5-8-------|
B||---------23--------------7-----7~~~~-|
G||---------------------5h8-------------|
D||-----------------4h7-----------------|
A||-------------------------------------|
E||-------------------------------------|
B||-------------------------------------|
 
E||-19-18-15-19-18-15-19-18-15-19-18-15-19-18-15-19-18-15-|
B||-------------------------------------------------------|
G||-------------------------------------------------------|
D||-------------------------------------------------------|
A||-------------------------------------------------------|
E||-------------------------------------------------------|
B||-------------------------------------------------------|
 
E||-19-18-14-19-18-14-19-18-14-19-18-14-19-18-14-19-18-14-|
B||-------------------------------------------------------|
G||-------------------------------------------------------|
D||-------------------------------------------------------|
A||-------------------------------------------------------|
E||-------------------------------------------------------|
B||-------------------------------------------------------|
 
E||-19-18-13-19-18-13-19-18-13-19-18-13-19-18-13-19-18-13-|
B||-------------------------------------------------------|
G||-------------------------------------------------------|
D||-------------------------------------------------------|
A||-------------------------------------------------------|
E||-------------------------------------------------------|
B||-------------------------------------------------------|

E||--------------------------------------------|
B||--------------------------------------------|
G||--------------------------------10--11--13--|
D||---------------------9--10--12--------------|
A||-----------8--9--11-------------------------|
E||-7--8--10-----------------------------------|
B||--------------------------------------------|

                                       AH--------
E||-------------13--14--15-16~~~~~~~---16---------(16)WBL--|
B||-12--13--15------------------16~~-------16-----(16)WBL--|
G||--------------------------------------------16-(16)WBL--|
D||--------------------------------------------------------|
A||--------------------------------------------------------|
E||--------------------------------------------------------|
B||--------------------------------------------------------|

The rhythm behind the solo and solo harmony is the
Elephant riff: part 1

Pre-Chorus: with Corey Solo
E||----------------------------------------------|
B||----------------------------------------------|
G||----------------------------4--6--7--6PH~~~~~-|
D||-------------------4--5--7--------------------|
A||----------4--5--7-----------------------------|
E||-3--5--7--------------------------------------|
B||----------------------------------------------|

E||--------------------------------------7h9p7---------7-9-10-|
B||-------------------7h8p7-------7-8-10-------10-8-10--------|
G||-6h7p6-------6-7-9-------9-7-9-----------------------------|
D||-------9-7-9-----------------------------------------------|
A||-----------------------------------------------------------|
E||-----------------------------------------------------------|
B||-----------------------------------------------------------|

E||-12-10-9----9-10-12-14-/19~~~-|
B||---------12-------------------|
G||------------------------------|
D||------------------------------|
A||------------------------------|
E||------------------------------|
B||------------------------------|


Elephant Riff: part 1/outro
E||------------------------------|-----------------------------|
B||------------------------------|-----------------------------|
G||------------------------------|-----------------------------|
D||------------------------------|-----------------------------|
A||----------------------6-------|-6-------6-------6-----------|
E||--------------3-4-5---4-6-----|-4-6-----4-6-----4-----------|
B||-6BU(7)--3~~--1-2-3-0---4---0-|---4---0---4---0---4BU---(7)-|

E||---------------------------------------------|
B||---------------------------------------------|
G||---------------------------------------------|
D||---------------------------------------------|
A||-2----this-last-note-gets-allot-of-feedback--|
E||-2-------------------------------------------|
B||-0-------------------------------------------|

Song played in order:
Intro
Verse 1
Verse 3
Pre-chorus
Chorus
Verse 2
Verse 3
Pre-chorus
Chorus
Middle section:
Part 1 elephant riff
Part 2 elephant riff
Solo: Matt
Verse 3
Pre-chorus with Corey’s solo
Chorus
Part 2 elephant riff (gallop part)
Part 1 elephant riff: outro
comments
print report bad tab
2 comments total.
0 reply
Minivirus2 wrote on August 7 2012, 01:34 pm

During the the triplet/tremolo picked portion, it sounds as though it's an 8 note pattern (following the "elephant riff" formation), but the tab is missing a 6th string B note.

0 reply
slipknot836 wrote on August 8 2012, 07:00 am

So it is xD I missed out the 7th fret on the E

Here you go

E||---------------------------------------------------------------|
B||---------------------------------------------------------------|
G||---------------------------------------------------------------|
D||---------------------------------------------------------------|
A||---------------------------------------------------------------|
E||---------7-7-7---2-2-2---3-3-3---7-7-7-----------6-6-6---------|
B||-0-0-0-----------------------------------3-3-3-----------2-2-2-|

I want to post or [tab]
guest
You may want to rate the tab now too:
select rating
Please do not post tabs as comments. Select "correction" instead!