Oops, an error
Loading. Please wait.

Down From The Sky Tab

ver6
ver6
More versions @911Tabs.com
1,799 views 6 this week
1 commentread comment
1 2 3 4 5
accurate
x 2
Autoscroll
+/-
esc
set tempo
stop
Contributor
WARNING: You are trying to view
                                    content from Ultimate-Guitar.com
                                    in an unauthorized application,
                                    which is prohibited.

                                    Please use an official Ultimate
                                    Guitar Tabs application for iPhone,
                                    iPad or Android to access legitimate
                                    chords, guitar, bass, and drum tabs
                                    from Ultimate-Guitar.com database.

                                    Type "ultimate guitar tabs" in Apple
                                    App Store's or Android Market's
                                    search to find the application.
Down from the sky by trivium


~: vibrato
h: hammer-on
p: pull-of
PM..: palm-muting (the dots indicate for how much)
(2): sustaining note
ph: pinch-harmonic
/: slide-up
\: slide-down
db: dive-bomb
\X/ or /x\: slide

Intro:

Melody: Guitar 3

first time
E-----------------------------------|-----------------------------------|
B-0---0---0---0-0---------0--(0)----|-0---0---0---0-0-------------------|
G-2h4-4---4---4-4---------6h7p6-----|-2h4-4---4---4-4-------------------|
D-----------------2p0-----------7---|-----------------2p0---------------|
A---------------------2-------------|---------------------2---4h5p4-----|
E-----------------------------------|-------------------------------5---|
B-----------------------------------|-----------------------------------|

E-----------------------------------|-----------------------------------|
B-0---0---0---0-0---------0--(0)----|-0---0---0---0-0-0-0-0-0-0-0-0-0---|
G-2h4-4---4---4-4---------6h7p6-----|-2h4-4---4---4-4-4-4-6-6-7-7-9-9---|
D-----------------2p0-----------7---|-----------------------------------|
A---------------------2-------------|-----------------------------------|
E-----------------------------------|-----------------------------------|
B-----------------------------------|-----------------------------------|

E-----------------------------------|-----------------------------------|
B-0---0---0---0-0---------0--(0)----|-0---0---0---0-0-------------------|
G-2h4-4---4---4-4---------6h7p6-----|-2h4-4---4---4-4-------------------|
D-----------------2p0-----------7---|-----------------2p0---------------|
A---------------------2-------------|---------------------2---4h5p4-----|
E-----------------------------------|-------------------------------5---|
B-----------------------------------|-----------------------------------|

E-----------------------------------|-----------------------------------|
B-0---0---0---0-0---------0--(0)----|-0---0---0---0-0-0-0-0-0-0-0-0-0---|
G-2h4-4---4---4-4---------6h7p6-----|-2h4-4---4---4-4-4-4-6-6-7-7-9-9---|
D-----------------2p0-----------7---|-----------------------------------|
A---------------------2-------------|-----------------------------------|
E-----------------------------------|-----------------------------------|
B-----------------------------------|-----------------------------------|

2nd time
E-----------------------------------|-----------------------------------|
B-0---0---0---0-0---------0--(0)----|-0---0---0---0-0-------------------|
G-2h4-4---4---4-4---------6h7p6-----|-2h4-4---4---4-4-------------------|
D-----------------2p0-----------7---|-----------------2p0---------------|
A---------------------2-------------|---------------------2---4h5p4-----|
E-----------------------------------|-------------------------------5---|
B-----------------------------------|-----------------------------------|

E-----------------------------------|-----------------------------------|
B-0---0---0---0-0---------0--(0)----|-0---0---0---0-0-0-0-0-0-0-0-0-0---|
G-2h4-4---4---4-4---------6h7p6-----|-2h4-4---4---4-4-4-4-6-6-7-7-9-9---|
D-----------------2p0-----------7---|-----------------------------------|
A---------------------2-------------|-----------------------------------|
E-----------------------------------|-----------------------------------|
B-----------------------------------|-----------------------------------|

E-----------------------------------|-----------------------------------|
B-0---0---0---0-0---------0--(0)----|-0---0---0---0-0-------------------|
G-2h4-4---4---4-4---------6h7p6-----|-2h4-4---4---4-4-------------------|
D-----------------2p0-----------7---|-----------------2p0---------------|
A---------------------2-------------|---------------------2---4h5p4-----|
E-----------------------------------|-------------------------------5---|
B-----------------------------------|-----------------------------------|

E-----------------------------------|-----------------------------------|
B-0---0---0---0-0---------0--(0)----|--0---0---0---0---0--0-0-0-0-0-0-0-|
G-2h4-4---4---4-4---------6h7p6-----|-11--11--11--11--11-11-9-7-9-6-7-9-|
D-----------------2p0-----------7---|-----------------------------------|
A---------------------2-------------|-----------------------------------|
E-----------------------------------|-----------------------------------|
B-----------------------------------|-----------------------------------|

Rhythm: Guitars 1 and 2

1st time
E-----------------------------------|-----------------------------------|
B-----------------------------------|-----------------------------------|
G-----------------------------------|-----------------------------------|
D-----------------------------------|-----------------------------------|
A-9---------------------------------|-(9)-------------------------------|
E-7---------------------------------|-(7)-------------------------------|
B-0---------------------------------|-(0)-------------------------------|

E-----------------------------------|-----------------------------------|
B-----------------------------------|-----------------------------------|
G-----------------------------------|-----------------------------------|
D-----------------------------------|-----------------------------------|
A-9---------------------------------|-(9)-------------------------------|
E-7---------------------------------|-(7)-------------------------------|
B-0---------------------------------|-(0)-------------------------------|

E-----------------------------------|-----------------------------------|
B-----------------------------------|-----------------------------------|
G-----------------------------------|-----------------------------------|
D-----------------------------------|-----------------------------------|
A-7-----------------------------7-7-|-7\5---------------------------5-5-|
E-5-----------------------------5-5-|-5\3---------------------------3-3-|
B-----------------------------------|-----------------------------------|
                                PM.                                 PM.

E-----------------------------------|-----------------------------------|
B-----------------------------------|-----------------------------------|
G-----------------------------------|-----------------------------------|
D-----------------------------------|-----------------------------------|
A-5/7-------------------------------|-2---------------------------------|
E-3/5-------------------------/X\---|-0---------------------------------|
B-----------------------------/X\---|-----------------------------------|

2nd time
E-----------------------------------|-----------------------------------|
B-----------------------------------|-----------------------------------|
G-----------------------------------|-----------------------------------|
D-----------------------------------|-----------------------------------|
A-9---------------------------------|-(9)-------------------------------|
E-7---------------------------------|-(7)-------------------------------|
B-0---------------------------------|-(0)-------------------------------|

E-----------------------------------|-----------------------------------|
B-----------------------------------|-----------------------------------|
G-----------------------------------|-----------------------------------|
D-----------------------------------|-----------------------------------|
A-9---------------------------------|-(9)-------------------------------|
E-7---------------------------------|-(7)-------------------------------|
B-0---------------------------------|-(0)-------------------------------|

E-----------------------------------|-----------------------------------|
B-----------------------------------|-----------------------------------|
G-----------------------------------|-----------------------------------|
D-----------------------------------|-----------------------------------|
A-7-----------------------------7-7-|-7\5---------------------------5-5-|
E-5-----------------------------5-5-|-5\3---------------------------3-3-|
B-----------------------------------|-----------------------------------|
                                PM.                                 PM.

E-----------------------------------|---------------------------------|
B-----------------------------------|---------------------------------|
G-----------------------------------|---------------------------------|
D-----------------------------------|---------------------------------|
A-5/7-------------------------------|-2---2---2---2---2-2-2-2-2-2-2-2-|
E-3/5-------------------------------|-0---0---0---0---0-0-0-0-0-0-0-0-|
B-----------------------------/X\---|---------------------------------|
                                          PM.........................


Verse: 8/8

Guitar 1
E-----------------------------------|--------------------------------------|
B-----------------------------------|--------------------------------------|
G-----------------------------------|--------------------------------------|
D-----------------------------------|--------------------------------------|
A---------9-------------------------|---------10---------------------------|
E-7-7-7-7-7-------------------------|-7-7-7-7-7----------------------------|
B-----------------------------------|--------------------------------------|
  PM.....                             PM.....

E-----------------------------------|--------------------------------------|
B-----------------------------------|--------------------------------------|
G-----------------------------------|---------6---6-6-6-6-7-7-7-7-9-9-9-9--|
D-----------------------------------|--------------------------------------|
A---------5-------------------------|---------4---4-4-4-4-5-5-5-5-7-7-7-7--|
E-3-3-3-3-3-------------------------|-0-0-0-0-0------------------------(0)-|
B-----------------------------------|--------------------------------------|
  PM.....

E-----------------------------------|--------------------------------------|
B-----------------------------------|--------------------------------------|
G-----------------------------------|--------------------------------------|
D-----------------------------------|--------------------------------------|
A---------9-------------------------|---------10---------------------------|
E-7-7-7-7-7-------------------------|-7-7-7-7-7----------------------------|
B-----------------------------------|--------------------------------------|
  PM.....                             PM.....

E-----------------------------------|--------------------------------------|
B-----------------------------------|--------------------------------------|
G-----------------------------------|---------6---6-6-6-6-7-7-7-7-9-9-9-9--|
D-----------------------------------|--------------------------------------|
A---------5-------------------------|---------4---4-4-4-4-5-5-5-5-7-7-7-7--|
E-3-3-3-3-3-------------------------|-0-0-0-0-0------------------------(0)-|
B-----------------------------------|--------------------------------------|
  PM.....                             PM.....

Guitar 2
E-----------------------------------|--------------------------------------|
B-----------------------------------|--------------------------------------|
G-----------------------------------|--------------------------------------|
D-----------------------------------|--------------------------------------|
A---------9-------------------------|---------10---------------------------|
E-7-7-7-7-7-------------------------|-7-7-7-7-7----------------------------|
B-----------------------------------|--------------------------------------|
  PM.....                             PM.....

E-----------------------------------|--------------------------------------|
B-----------------------------------|--------------------------------------|
G-----------------------------------|---------6---6-6-6-6-7-7-7-7-9-9-9-9--|
D-----------------------------------|--------------------------------------|
A---------5-------------------------|---------4---4-4-4-4-5-5-5-5-7-7-7-7--|
E-3-3-3-3-3-------------------------|-0-0-0-0-0------------------------(0)-|
B-----------------------------------|--------------------------------------|
  PM.....                             PM.....

E-----------------------------------|--------------------------------------|
B-----------------------------------|--------------------------------------|
G-----------------------------------|--------------------------------------|
D-----------------------------------|--------------------------------------|
A---------9-------------------------|---------10---------------------------|
E-7-7-7-7-7-------------------------|-7-7-7-7-7----------------------------|
B-----------------------------------|--------------------------------------|
  PM.....                             PM.....

E-----------------------------------|---------------------------------------------|
B-----------------------------------|---------------------------------------------|
G-----------------------------------|---------9---9-9-9-9-10-10-10-10-16-16-16-16-|
D-----------------------------------|---------------------------------------------|
A---------5-------------------------|---------7---7-7-7-7--9--9--9--9-14-14-14-14-|
E-3-3-3-3-3-------------------------|-0-0-0-0-0-------------------------------(0)-|
B-----------------------------------|---------------------------------------------|
  PM.....                             PM.....


In verse 2 just add low B5 chord chugs in the first two bars of each
run through the verse (so only after the B power chords): they are done
by a separate guitar on the middle channel

E-----------------------------------|--------------------------------------|
B-----------------------------------|--------------------------------------|
G-----------------------------------|--------------------------------------|
D-----------------------------------|--------------------------------------|
A---------9---------2-2-------------|---------10---------2-2---------------|
E-7-7-7-7-7---------2-2-------------|-7-7-7-7-7----------2-2---------------|
B-------------------0-0-------------|--------------------0-0---------------|
  PM.....           PM.               PM.....            PM.


Theme:

Guitars 1 and 2

 6/8                       6/8
E-------------------------|-------------------------|
B-------------------------|-------------------------|
G-------------------------|-------------------------|
D-------------------------|-------------------------|
A-------------------------|-------------------------|
E-7-5-7-------7-5-7-------|-7-5-7-------------------|
B-------0-0-0-------0-0-0-|-------0-0-0-2-2-3-3-5-5-|
          PM.         PM.           PM.

 6/8                       5/8
E-------------------------|---------------------|
B-------------------------|---------------------|
G-------------------------|---------------------|
D-------------------------|---------------------|
A-------------------------|-5-4-5-0-0-0-/7---4~-|
E-3-2-3-0-0-0-3-2-3-0-0-0-|---------------------|
B-------------------------|---------------------|
          PM.         PM.           PM.

 6/8                       6/8
E-------------------------|-------------------------|
B-------------------------|-------------------------|
G-------------------------|-------------------------|
D-------------------------|-------------------------|
A-------------------------|-------------------------|
E-7-5-7-------7-5-7-------|-7-5-7-------------------|
B-------0-0-0-------0-0-0-|-------0-0-0-2-2-3-3-5-5-|
          PM.         PM.           PM.

 6/8                       5/8
E-------------------------|---------------------|
B-------------------------|---------------------|
G-------------------------|---------------------|
D-------------------------|---------------------|
A-------------------------|-5-4-5-0-0-0-/7---4~-|
E-3-2-3-0-0-0-3-2-3-0-0-0-|---------------------|
B-------------------------|---------------------|
          PM.         PM.           PM.

Pre-Chorus: 8/8

Melody: Guitar 4
E-------------------------------------|-----------------------------------------|
B-------------------------------------|-----------------------------------------|
G-------------------------------------|-----------------------------------------|
D-5-5-5-5-7-7-7-7-9-9-9-9-11-11-11-11-|-7-7-7-7-9-9-9-9-11-11-11-11-12-12-12-12-|
A-------------------------------------|-----------------------------------------|
E-3-3-3-3-5-5-5-5-7-7-7-7--9--9--9--9-|-5-5-5-5-7-7-7-7--9--9--9--9-10-10-10-10-|
B-------------------------------------|-----------------------------------------|

Rhythm: Guitars 1 and 2
E---------------------------------|---------------------------------|
B---------------------------------|---------------------------------|
G---------------------------------|---------------------------------|
D-5-5-5-5-5-5-5-5-5-5-5-5-5-5-5-5-|-7-7-7-7-7-7-7-7-7-7-7-7-7-7-7-7-|
A-5-5-5-5-5-5-5-5-5-5-5-5-5-5-5-5-|-7-7-7-7-7-7-7-7-7-7-7-7-7-7-7-7-|
E-3-3-3-3-3-3-3-3-3-3-3-3-3-3-3-3-|-5-5-5-5-5-5-5-5-5-5-5-5-5-5-5-5-|
B---------------------------------|---------------------------------|


Chorus: 8/8


Melody:

Guitar 5
E-----------------------------------|-----------------------------------|
B-----------------------------------|-----------------------------------|
G---------11----11----9~~~~---------|---------11--9--11--12--11~~~~-----|
D-/9---9----------------------------|-/9---9----------------------------|
A-----------------------------------|-----------------------------------|
E-----------------------------------|-----------------------------------|
B-----------------------------------|-----------------------------------|

E-----------------------------------|-----------------------------------|
B-----------------------------------|-----------------------------------|
G---------9----9----7~~~~-----------|-7\6---6\4---4/6---4\3/4/6~~~~-----|
D-/7---7----------------------------|-----------------------------------|
A-----------------------------------|-----------------------------------|
E-----------------------------------|-----------------------------------|
B-----------------------------------|-----------------------------------|

E-----------------------------------|-----------------------------------|
B-----------------------------------|-----------------------------------|
G---------11----11----9~~~~---------|---------11--9--11--12--11~~~~-----|
D-/9---9----------------------------|-/9---9----------------------------|
A-----------------------------------|-----------------------------------|
E-----------------------------------|-----------------------------------|
B-----------------------------------|-----------------------------------|

                                     on the second round this isn't played
E-----------------------------------|-----------------------------------|
B-----------------------------------|-8-------5-------7-------2---------|
G---------9----9----7~~~~-----------|---7-6-7---7-6-4---6-4-3---3-4ph~~-|
D-/7---7----------------------------|-----------------------------------|
A-----------------------------------|-----------------------------------|
E-----------------------------------|-----------------------------------|
B-----------------------------------|-----------------------------------|

Guitar 6:
E-----------14---14---12~~~~--------|-----------14--12--14-/22--21~~~~--|
B-/12---12--------------------------|-/12---12--------------------------|
G-----------------------------------|-----------------------------------|
D-----------------------------------|-----------------------------------|
A-----------------------------------|-----------------------------------|
E-----------------------------------|-----------------------------------|
B-----------------------------------|-----------------------------------|

E-----------12---12---10~~~~--------|-----------------------------------|
B-/10---10--------------------------|-----------------------------------|
G-----------------------------------|-----------------------------------|
D-----------------------------------|-----------------------------------|
A-----------------------------------|-----------------------------------|
E-----------------------------------|-----------------------------------|
B-----------------------------------|-----------------------------------|

E-----------14---14---12~~~~--------|-----------14--12--14-/22--21~~~~--|
B-/12---12--------------------------|-/12---12--------------------------|
G-----------------------------------|-----------------------------------|
D-----------------------------------|-----------------------------------|
A-----------------------------------|-----------------------------------|
E-----------------------------------|-----------------------------------|
B-----------------------------------|-----------------------------------|

E-----------12---12---10~~~~--------|-----------------------------------|
B-/10---10--------------------------|-----------------------------------|
G-----------------------------------|-----------------------------------|
D-----------------------------------|-----------------------------------|
A-----------------------------------|-----------------------------------|
E-----------------------------------|-----------------------------------|
B-----------------------------------|-----------------------------------|

Rhythm: Guitars 1 and 2

the first chorus do this twice
E--7--7--7--7--7--7--7--7--7--7--7--7--7--7--7--7-|
B--7--7--7--7--7--7--7--7--7--7--7--7--7--7--7--7-|
G--7--7--7--7--7--7--7--7--7--7--7--7--7--7--7--7-|
D--9--9--9--9--9--9--9--9--9--9--9--9--9--9--9--9-|
A--9--9--9--9--9--9--9--9--9--9--9--9--9--9--9--9-|
E--7--7--7--7--7--7--7--7--7--7--7--7--7--7--7--7-|
B-------------------------------------------------|

E--7--7--7--7--7--7--7--7--7--7--7--7--7--7--7--77--|
B--7--7--7--7--7--7--7--7--7--7--7--7--7--7--7--77--|
G--7--7--7--7--7--7--7--7--7--7--7--7--7--7--7--77--|
D--9--9--9--9--9--9--9--9--9--9--9--9--9--9--9--99--|
A-10-10-10-10-10-10-10-10-10-10-10-10-10-10-10-1010-|
E--7--7--7--7--7--7--7--7--7--7--7--7--7--7--7--77--|
B---------------------------------------------------|

E--5--5--5--55-5--5--5--55-5--5--5--5--5--5--5-----|
B--5--5--5--55-5--5--5--55-5--5--5--5--5--5--5-----|
G--6--6--6--66-7--7--7--77-6--6--6--6--6--6--6-----|
D--7--7--7--77-7--7--7--77-7--7--7--7--7--7--7-----|
A--7--7--7--77-7--7--7--77-7--7--7--7--7--7--7-3-3-|
E--5--5--5--55-5--5--5--55-5--5--5--5--5--5--5-----|
B--------------------------------------------------|
                                               PM.

E----------------------------------------------|
B----------------------------------------------|
G----------------------------------------------|
D--5-----------2-------------------------------|
A-----3-------------------5----------4-----5\--|
E----------0-0----0---0-0----2---6-6----6--7\--|
B----------------------------------------------|
           PM.        PM.        PM.    PM

the second chorus do the previous part once
with this part following
E--7--7--7--7--7--7--7--7--7--7--7--7--7--7--7--7-|
B--7--7--7--7--7--7--7--7--7--7--7--7--7--7--7--7-|
G--7--7--7--7--7--7--7--7--7--7--7--7--7--7--7--7-|
D--9--9--9--9--9--9--9--9--9--9--9--9--9--9--9--9-|
A--9--9--9--9--9--9--9--9--9--9--9--9--9--9--9--9-|
E--7--7--7--7--7--7--7--7--7--7--7--7--7--7--7--7-|
B-------------------------------------------------|

E--7--7--7--7--7--7--7--7--7--7--7--7--7--7--7--7-|
B--7--7--7--7--7--7--7--7--7--7--7--7--7--7--7--7-|
G--7--7--7--7--7--7--7--7--7--7--7--7--7--7--7--7-|
D--9--9--9--9--9--9--9--9--9--9--9--9--9--9--9--9-|
A-10-10-10-10-10-10-10-10-10-10-10-10-10-10-10-10-|
E--7--7--7--7--7--7--7--7--7--7--7--7--7--7--7--7-|
B-------------------------------------------------|

E--5--5--5--55-5--5--5--55-5--5--5--5--5--5--5-----|
B--5--5--5--55-5--5--5--55-5--5--5--5--5--5--5-----|
G--6--6--6--66-7--7--7--77-6--6--6--6--6--6--6-----|
D--7--7--7--77-7--7--7--77-7--7--7--7--7--7--7-----|
A--7--7--7--77-7--7--7--77-7--7--7--7--7--7--7-3-3-|
E--5--5--5--55-5--5--5--55-5--5--5--5--5--5--5-----|
B--------------------------------------------------|
                                               PM.

E--------------------------------------------|
B--------------------------------------------|
G--------------------------------------------|
D--5-----------2-----------------------------|
A-----3----3-3------------5----------4--4--4-|
E-----------------0---0-0----2---2-2-6--6--6-|
B--------------------------------------------|
           PM.        PM.        PM.

Middle Section:

Part 1: Elephant Riff
E-----------------------------|-----------------------------|
B-----------------------------|-----------------------------|
G-----------------------------|-----------------------------|
D-----------------------------|-----------------------------|
A---------------------6-------|---------------------6-------|
E-------------3-4-5---4-6-----|-------------3-4-5---4-6-----|
B-6b1/4--3----1-2-3-0---4---0-|-6b1/4--3----1-2-3-0---4---0-|
                PM.....     PM                PM.....     PM

E-----------------------------|-----------------------------|
B-----------------------------|-----------------------------|
G-----------------------------|-----------------------------|
D-----------------------------|-----------------------------|
A---------------------6-------|---------------------6-------|
E-------------3-4-5---4-6-----|-------------3-4-5---4-6-----|
B-6b1/4--3----1-2-3-0---4---0-|-6b1/4--3----1-2-3-0---4---0-|
                PM.....     PM                PM.....     PM

E-----------------------------|-----------------------------|
B-----------------------------|-----------------------------|
G-----------------------------|-----------------------------|
D-----------------------------|-----------------------------|
A---------------------6-------|---------------------6-------|
E-------------3-4-5---4-6-----|-------------3-4-5---4-6-----|
B-6b1/4--3----1-2-3-0---4---0-|-6b1/4--3----1-2-3-0---4---0-|
                PM.....     PM                PM.....     PM


Part 2: Black Metal Part

"They pump us..."
Guitar 7:
E---------------------------------|---------------------------------|
B---------------------------------|---------------------------------|
G---------------------------------|---------------------------------|
D---------------------------------|---------------------------------|
A---------------------------------|---------------------------------|
E----/7---2---3--/7------/6-------|----/7---2---3--/7------/6-------|
B-0-------------------3-------2---|-0-------------------3-------2---|

E---------------------------------|---------------------------------|
B---------------------------------|---------------------------------|
G---------------------------------|---------------------------------|
D---------------------------------|---------------------------------|
A---------------------------------|---------------------------------|
E----/7---2---3--/7------/6-------|----/7---2---3--/7------/6-------|
B-0-------------------3-------2---|-0-------------------3-------2---|

Guitars 1 and 2:
E---------------------------------|---------------------------------|
B---------------------------------|---------------------------------|
G---------------------------------|---------------------------------|
D---------------------------------|---------------------------------|
A-2-------------------------------|-(2)-----------------------------|
E-2-------------------------------|-(2)-----------------------------|
B-0-------------------------------|-(0)-----------------------------|

E---------------------------------|---------------------------------|
B---------------------------------|---------------------------------|
G---------------------------------|---------------------------------|
D---------------------------------|---------------------------------|
A---------------------------------|---------------------------------|
E-2-2-2-2-2-2-2-2-2-2-2-2-2-2-2-2-|-2-2-2-2-2-2-2-2-2-2-2-2---------|
B-0-0-0-0-0-0-0-0-0-0-0-0-0-0-0-0-|-0-0-0-0-0-0-0-0-0-0-0-0-/x\-----|
  PM.......................................................

Guitar 8:
E---------------------------------|---------------------------------|
B---------------------------------|---------------------------------|
G---------------------------------|---------------------------------|
D---------------------------------|---------------------------------|
A---------------------------------|---------------------------------|
E---------------------------------|---------------------------------|
B---------------------------------|---------------------------------|

32nd note strums (very fast) through to next bar (with a wah pedal
sweeping from really bassy to middy)
E-7-------------------------------|---------------------------------|
B-7-------------------------------|---------------------------------|
G-7-------------------------------|---------------------------------|
D-9-------------------------------|---------------------------------|
A-9-------------------------------|---------------------------------|
E-7-------------------------------|---------------------------------|
B---------------------------------|---------------------------------|


"Annihilate..."
Guitars 1 and 2:
E-------------------------------------------------------|
B-------------------------------------------------------|
G-------------------------------------------------------|
D-------------------------------------------------------|
A-------------------------------------------------------|
E---------7-7-7---2-2-2---3-3-3-----------6-6-6---------|
B-0-0-0---------------------------3-3-3-----------2-2-2-|
  PM...................................................

E-------------------------------------------------------|
B-------------------------------------------------------|
G-------------------------------------------------------|
D-------------------------------------------------------|
A-------------------------------------------------------|
E---------7-7-7---2-2-2---3-3-3-----------6-6-6---------|
B-0-0-0---------------------------3-3-3-----------2-2-2-|
  PM...................................................

"Obliterate..."
Guitars 1 and 2:
E-------------------------------------------------------|
B-------------------------------------------------------|
G-------------------------------------------------------|
D-------------------------------------------------------|
A-------------------------------------------------------|
E---------7-------2-------3---------------6-------------|
B-0-------------------------------3---------------2-----|
 T.P....................................................

E-------------------------------------------------------|
B-------------------------------------------------------|
G-------------------------------------------------------|
D-------------------------------------------------------|
A-------------------------------------------------------|
E---------7-------2-------3---------------6-------------|
B-0-------------------------------3---------------2-----|
 T.P....................................................


Part 3: 8/8

Solo: Matt


E-13--(13)~~~~--10--------------------------13-16-------|
B-16bu(18)~~~~--13bu(15)~~~~-------------15-------16~~~-|
G----------------------------------13h16----------------|
D----------------------------12h15----------------------|
A-------------------------------------------------------|
E-------------------------------------------------------|
B-------------------------------------------------------|

E-20~~~~~~~~~~~-----------------------------17-20-------|
B---------------19~~~~~~~~~~-------------19-------19~~~-|
G----------------------------------17h20----------------|
D----------------------------16h19----------------------|
A-------------------------------------------------------|
E-------------------------------------------------------|
B-------------------------------------------------------|

  |------------9-----------| |------------9-----------|
E-------------------------------------------------------
B-19-18-15-19-18-15-19-18-15-19-18-15-19-18-15-19-18-15-
G-------------------------------------------------------
D-------------------------------------------------------
A-------------------------------------------------------
E-------------------------------------------------------
B-------------------------------------------------------

  |------------9-----------| |------------9-----------|
E-------------------------------------------------------|
B-19-18-14-19-18-14-19-18-14-19-18-14-19-18-14-19-18-14-|
G-------------------------------------------------------|
D-------------------------------------------------------|
A-------------------------------------------------------|
E-------------------------------------------------------|
B-------------------------------------------------------|

  |------------9-----------| |------------9-----------|
E-------------------------------------------------------
B-19-18-13-19-18-13-19-18-13-19-18-13-19-18-13-19-18-13-
G-------------------------------------------------------
D-------------------------------------------------------
A-------------------------------------------------------
E-------------------------------------------------------
B-------------------------------------------------------

E-------------------------------------------|
B-------------------------------------------|
G-------------------------------10--11--13--|
D--------------------9--10--12--------------|
A-2--3--5--8--9--11-------------------------|
E-------------------------------------------|
B-------------------------------------------|

                                     |---AH---|
E-------------13--14--15--16---------16---------(16)db--|
B-12--13--15------------------16~~~~-----16-----(16)db--|
G--------------------------------------------16-(16)db--|
D-------------------------------------------------------|
A-------------------------------------------------------|
E-------------------------------------------------------|
B-------------------------------------------------------|

Harmonies:


(the slashes here indicate that those notes are played at the 
same time, along with the notes above, so the 17th, 20th, and 24th
fret are played at the same time, by three separate guitars of course)
E-17/24~~~~~~~~------------------------5-8-------|
B---------------16/23~~~~~~~---------7-----7~~~~-|
G--------------------------------5h8-------------|
D----------------------------4h7-----------------|
A------------------------------------------------|
E------------------------------------------------|
B------------------------------------------------|

It was hard to hear this harmony, but it's close:

  |------------9-----------| |------------9-----------|
E-19-18-15-19-18-15-19-18-15-19-18-15-19-18-15-19-18-15-
B-------------------------------------------------------
G-------------------------------------------------------
D-------------------------------------------------------
A-------------------------------------------------------
E-------------------------------------------------------
B-------------------------------------------------------

  |------------9-----------| |------------9-----------|
E-18-17-14-18-17-14-18-17-14-18-17-14-18-17-14-18-17-14-|
B-------------------------------------------------------|
G-------------------------------------------------------|
D-------------------------------------------------------|
A-------------------------------------------------------|
E-------------------------------------------------------|
B-------------------------------------------------------|

  |------------9-----------| |------------9-----------|
E-17-16-13-17-16-13-17-16-13-17-16-13-17-16-13-17-16-13-
B-------------------------------------------------------
G-------------------------------------------------------
D-------------------------------------------------------
A-------------------------------------------------------
E-------------------------------------------------------
B-------------------------------------------------------

this is doubled (the same thing is played twice)
E-------------------------------------------|
B-------------------------------------------|
G-------------------------------10--11--13--|
D--------------------9--10--12--------------|
A-2--3--5--8--9--11-------------------------|
E-------------------------------------------|
B-------------------------------------------|

                                     |---AH---|
E-------------13--14--15--16---------16---------(16)db--|
B-12--13--15------------------16~~~~-----16-----(16)db--|
G--------------------------------------------16-(16)db--|
D-------------------------------------------------------|
A-------------------------------------------------------|
E-------------------------------------------------------|
B-------------------------------------------------------|


Rhythm:
E-----------------------------|-----------------------------|
B-----------------------------|-----------------------------|
G-----------------------------|-----------------------------|
D-----------------------------|-----------------------------|
A---------------------6-------|---------------------6-------|
E-------------3-4-5---4-6-----|-------------3-4-5---4-6-----|
B-6b1/4--3----1-2-3-0---4---0-|-6b1/4--3----1-2-3-0---4---0-|
                PM.....     PM                PM.....     PM

E-----------------------------|-----------------------------|
B-----------------------------|-----------------------------|
G-----------------------------|-----------------------------|
D-----------------------------|-----------------------------|
A---------------------6-------|---------------------6-------|
E-------------3-4-5---4-6-----|-------------3-4-5---4-6-----|
B-6b1/4--3----1-2-3-0---4---0-|-6b1/4--3----1-2-3-0---4---0-|
                PM.....     PM                PM.....     PM

E-----------------------------|
B-----------------------------|
G-----------------------------|
D-----------------------------|
A-6-------6-------6-----------|
E-4-6-----4-6-----4-----------|
B---4---0---4---0---4bu---(7)-|


Theme:

Guitars 1 and 2

 6/8                       6/8
E-------------------------|-------------------------|
B-------------------------|-------------------------|
G-------------------------|-------------------------|
D-------------------------|-------------------------|
A-------------------------|-------------------------|
E-7-5-7-------7-5-7-------|-7-5-7-------------------|
B-------0-0-0-------0-0-0-|-------0-0-0-2-2-3-3-5-5-|
          PM.         PM.           PM.

 6/8                       5/8
E-------------------------|---------------------|
B-------------------------|---------------------|
G-------------------------|---------------------|
D-------------------------|---------------------|
A-------------------------|-5-4-5-0-0-0-/7---4~-|
E-3-2-3-0-0-0-3-2-3-0-0-0-|---------------------|
B-------------------------|---------------------|
          PM.         PM.           PM.

 6/8                       6/8
E-------------------------|-------------------------|
B-------------------------|-------------------------|
G-------------------------|-------------------------|
D-------------------------|-------------------------|
A-------------------------|-------------------------|
E-7-5-7-------7-5-7-------|-7-5-7-------------------|
B-------0-0-0-------0-0-0-|-------0-0-0-2-2-3-3-5-5-|
          PM.         PM.           PM.

 6/8                       5/8
E-------------------------|---------------------|
B-------------------------|---------------------|
G-------------------------|---------------------|
D-------------------------|---------------------|
A-------------------------|-5-4-5-0-0-0-/7---4~-|
E-3-2-3-0-0-0-3-2-3-0-0-0-|---------------------|
B-------------------------|---------------------|
          PM.         PM.           PM.

Pre-Chorus: with Corey Solo

E----------------------------------------------|
B----------------------------------------------|
G----------------------------4--6--7--6ph~~~~~-|
D-------------------4--5--7--------------------|
A----------4--5--7-----------------------------|
E-3--5--7--------------------------------------|
B----------------------------------------------|
  PM................................

  |-3-|             |-3-|              
E--------------------------------------
B-------------------7h8p7-------7-8-10-
G-6h7p6-------6-7-9-------9-7-9--------
D-------9-7-9--------------------------
A--------------------------------------
E--------------------------------------
B--------------------------------------
        PM.........       PM..........

  |-3-|
E-7h9p7---------7-9-10-/12-10-9-10----9-10-12-|-/19~~~~-----------
B-------10-8-10--------------------12---------|-------------------
G---------------------------------------------|-------------------
D---------------------------------------------|-------------------
A---------------------------------------------|-------------------
E---------------------------------------------|-------------------
B---------------------------------------------|-------------------
        PM............

Harmonies:

  |-3--|                  |--3---|              
E----------------------------------------------------
B-------------------------10h12p10----------10-11-12-
G-9h11p9----------9-11-12----------12-11-12----------
D--------12-11-12------------------------------------
A----------------------------------------------------
E----------------------------------------------------
B----------------------------------------------------
         PM..............          PM...............

  |--3---|
E-10h13p10----------10-12-14/15-12-14-12----12-14-15-|-14~~~~-----
B----------12-14-12----------------------15----------|------------
G----------------------------------------------------|------------
D----------------------------------------------------|------------
A----------------------------------------------------|------------
E----------------------------------------------------|------------
B----------------------------------------------------|------------
        PM..................

Chorus

Outro: Guitars 1 and 2

Black Metal Part:
"Annihilate..."
Guitars 1 and 2:
E-------------------------------------------------------|
B-------------------------------------------------------|
G-------------------------------------------------------|
D-------------------------------------------------------|
A-------------------------------------------------------|
E---------7-7-7---2-2-2---3-3-3-----------6-6-6---------|
B-0-0-0---------------------------3-3-3-----------2-2-2-|
  PM...................................................

E-------------------------------------------------------|
B-------------------------------------------------------|
G-------------------------------------------------------|
D-------------------------------------------------------|
A-------------------------------------------------------|
E---------7-7-7---2-2-2---3-3-3-----------6-6-6---------|
B-0-0-0---------------------------3-3-3-----------2-2-2-|
  PM...................................................

"Obliterate..."
Guitars 1 and 2:
E-------------------------------------------------------|
B-------------------------------------------------------|
G-------------------------------------------------------|
D-------------------------------------------------------|
A-------------------------------------------------------|
E---------7-------2-------3---------------6-------------|
B-0-------------------------------3---------------2-----|
 T.P....................................................

E-------------------------------------------------------|
B-------------------------------------------------------|
G-------------------------------------------------------|
D-------------------------------------------------------|
A-------------------------------------------------------|
E---------7-------2-------3---------------6-------------|
B-0-------------------------------3---------------2-----|
 T.P....................................................

Elephant Riff:
E-----------------------------|-----------------------------|
B-----------------------------|-----------------------------|
G-----------------------------|-----------------------------|
D-----------------------------|-----------------------------|
A---------------------6-------|-6-------6-------6-----------|
E-------------3-4-5---4-6-----|-4-6-----4-6-----4-----------|
B-6b1/4--3----1-2-3-0---4---0-|---4---0---4---0---4bu---(7)-|
                PM.....     PM

E---------------------------------|---------------------------------|
B---------------------------------|---------------------------------|
G---------------------------------|---------------------------------|
D---------------------------------|---------------------------------|
A-2-------------------------------|-(2)-----------------------------|
E-2-------------------------------|-(2)-----------------------------|
B-0-------------------------------|-(0)-----------------------------|
comments
We did not receive enough feedback on this tab! Please rate:
1 2 3 4 5
1 comment total.
0 reply
Hunt Guitar wrote on May 26 2010, 08:22 pm

It looks good, and it helps, but it looks very much like the powertab version of this.

I want to post or [tab]
guest
You may want to rate the tab now too:
select rating
Please do not post tabs as comments. Select "correction" instead!