Oops, an error
Loading. Please wait.

Drowned And Torn Asunder Tab

ver2
ver2

Solo

Whole song

More versions @911Tabs.com
1,863 views 1 this week
4 commentsread comments
1 2 3 4 5
excellent!
x 1
add to favorites launch autoscroll
font size
0
reset
Autoscroll
+/-
esc
set tempo
stop
Contributor
WARNING: You are trying to view
                                    content from Ultimate-Guitar.com
                                    in an unauthorized application,
                                    which is prohibited.

                                    Please use an official Ultimate
                                    Guitar Tabs application for iPhone,
                                    iPad or Android to access legitimate
                                    chords, guitar, bass, and drum tabs
                                    from Ultimate-Guitar.com database.

                                    Type "ultimate guitar tabs" in Apple
                                    App Store's or Android Market's
                                    search to find the application.
 Band:Trivium
 Song:Drowned and Torn Asunder      Guitar 1-Corey
 Album:Ascendancy                   Guitar 2-Matt
th tab for one guitar is at the botom

This tab is 100% correct its the only one of its kind on any website
i didnt waste 2 hours tabing a bad, or close to acurate tab.
this is not from a tab book and for those who are wondering there
is no tab books for Trivium
the tab for anoe person is at the bottom
   GUITAR 1
1---------------------------------------------------------------------------------|
2---------------------------------------------------------------------------------|
3--------------------------------15--14--12--14-----------------------------------|
4-12h14h15p1214-----12h14h15p1214-------------------------------------------------|
5---------------------------------------------------------------------------------|
6---------------------------------------------------------------------------------|
                                                                          |
   GUITAR 2                                                               |
1---------------------------------------------------------------------------|
2---------------------------------------------------------------------------|
3---------------------------------------------------------------------------|
4---------------------------------------------------------------------------|
5----------7--7--7-----------5--5--5-----------8--8--8-----------7--7--7----|
6-0--0--0-----------0--0--0-----------0--0--0-----------0--0--0-------------|

   GUITAR 1
1-17p13----------13-15p12----------12-18-17-15------------------------------|
2-------15----15----------13----13-------------18-17-15---------------------|
3----------14----------------12-------------------------17-15-14------------|
4----------------------------------------------------------------17-15-14---|
5---------------------------------------------------------------------------|
6---------------------------------------------------------------------------|
                                                                          |
   GUITAR 2                                                               |
1---------------------------------------------------------------------------|
2---------------------------------------------------------------------------|
3---------------------------------------------------------------------------|
4----------3--3--3-----------2--2--2-----------2--2--2-----------3--3--3----|
5-1--1--1-----------1--1--1-----------0--0--0-------------------------------|
6-------------------------------------------------------3--3--3-------------|

   GUITAR 1
1---------------------------------------------------------------------------|
2---------------------------------------------------------------------------|
3---------------------------------------------------------------------------|
4---------------------------------------------------------------------------|
5----------7--7--7-----------5--5--5-----------8--8--8-----------7--7--7----|
6-------------------0--0--0-----------0--0--0-----------0--0--0-------------|
                                                                          |
   GUITAR 2                                                               |
1---------------------------------------------------------------------------|
2-15s10-10--13-13s8-8--10-10s6-6--8-8s----6-5-6--5-6b--6-5------------------|
3---------------------------------------------------------7-----------------|
4---------------------------------------------------------------------------|
5---------------------------------------------------------------------------|
6---------------------------------------------------------------------------|

   GUITAR 1
1---------------------------------------------------------------------------|
2---------------------------------------------------------------------------|
3---------------------------------------------------------------------------|
4----------3--3--3-----------2--2--2-----------2--2--2-----------3--3--3----|
5-1--1--1-----------1--1--1-----------0--0--0-------------------------------|
6-------------------------------------------------------3--3--3-------------|
                                                                          |
   GUITAR 2                                                               |
1----------------------------------------10-------12------------------------|
2---------------------------------------------------------------------------|
3--------------------------------------7-----9s10----14-14------------------|
4---------------------------------------------------------------------------|
5---------------------------------------------------------------------------|
6---------------------------------------------------------------------------|

   GUITAR 1
1----------------------------------------------------------------10----10---|
2----------------------------------------------10----11-10-11-13----13------|
3----------------------------9-----10-9--10-12----12------------------------|
4----------7-----8--7--8--10----12------------------------------------------|
5-5--7--8-----10------------------------------------------------------------|
6---------------------------------------------------------------------------|
                                                                          |
   GUITAR 2                                                               |
1---------------------------------------------------------------------------|
2---------------------------------------------------------------------------|
3---------------------------------------------------------------------------|
4---------------------------------------------------------------------------|
5----------7--7--7-----------5--5--5-----------8--8--8-----------7--7--7----|
6-0--0--0-----------0--0--0-----------0--0--0-----------0--0--0-------------|

   GUITAR 1
1-13-12-10-12-10----10----------------13----12------------------------------|
2----------------13----13-11-13-11p10-------------13----10------------------|
3---------------------------------------------------------------------------|
4---------------------------------------------------------------------------|
5---------------------------------------------------------------------------|
6---------------------------------------------------------------------------|
                                                                          |
   GUITAR 2                                                               |
1---------------------------------------------------------------------------|
2---------------------------------------------------------------------------|
3---------------------------------------------------------------------------|
4----------3--3--3-----------2--2--2-----------2--2--2-----------3--3--3----|
5-1--1--1-----------1--1--1-----------0--0--0-------------------------------|
6-------------------------------------------------------3--3--3-------------|

   GUITAR 1
1---------------------------------------------------------------------------|
2---------------------------------------------------------------------------|
3---------------------------------------------------------------------------|
4---------------------------------------------------------------------------|
5----------7--7--7-----------5--5--5-----------8--8--8-----------7--7--7----|
6-0--0--0-----------0--0--0-----------0--0--0-----------0--0--0-------------|
                                                                          |
   GUITAR 2                                                               |
1---------------------------------------------------------------------------|
2---------------------------------------------------------------------------|
3--14-14-14-14-14-14-14-14-14---12------------------------------------------|
4---x--x--x--x--x--x--x--x--x----x------------------------------------------|
5--12-12-12-12-12-12-12-12-12---10------------------------------------------|
6----------------------------------15-14------------------------------------|

   GUITAR 1
1---------------------------------------------------------------------------|
2---------------------------------------------------------------------------|
3---------------------------------------------------------------------------|
4----------3--3--3-----------2--2--2-----------2--2--2-----------3--3--3----|
5-1--1--1-----------1--1--1-----------0--0--0-------------------------------|
6-------------------------------------------------------3--3--3-------------|
                                                                          |
   GUITAR 2                                                               |
1---------------------------------------------------------------------------|
2---------------------------------------------------------------------------|
3------------------------------------------------------------121415-17bf----|
4----------------------------121415-121415-------------121415---------------|
5---------------121315-121315-------------121315-121315---------------------|
6--121415-121415------------------------------------------------------------|

 GUITAR 1
1-17p13----13-------------------------------------------------------------|
2-------15----15----15----------------------------------------------------|
3----------------14----14----14-------------------------------------------|
4-------------------------15----15-14-15p14----14-------------------------|
5-------------------------------------------17----17-15-17----------------|
6-------------------------------------------------------------------------|

   GUITAR 2
1-13p10----10-------------------------------------------------------------|
2-------11----11----11----------------------------------------------------|
3----------------10----10----10-------------------------------------------|
4-------------------------12----12-10-12p10----10-------------------------|
5-------------------------------------------13----13-12-13----------------|
6-------------------------------------------------------------------------|

   GUITAR 1
1-17p13----13-------------------------------------------------------------|
2-------15----15----15----------------------------------------------------|
3----------------14----14----14-------------------------------------------|
4-------------------------15----15-14-15p14----14-------------------------|
5-------------------------------------------17----17-15-17----------------|
6-------------------------------------------------------------------------|

   GUITAR 1
1-13----15----17----15----17----18----18b----18b----------------------------|
2---------------------------------------------------------------------------|
3---------------------------------------------------------------------------|
4---------------------------------------------------------------------------|
5---------------------------------------------------------------------------|
6---------------------------------------------------------------------------|
                                                                          |
   GUITAR 2                                                               |
1---------------------------------------------------------------------------|
2-15----17----18----17----18----20----20b----20b----------------------------|
3---------------------------------------------------------------------------|
4---------------------------------------------------------------------------|
5---------------------------------------------------------------------------|
6---------------------------------------------------------------------------|

----------------------------------------------------------------------------
and for one person
 solo

1-------------------------------------------------------------------------|
2-------------------------------------------------------------------------|
3--------------------------------15--14--12--14---------------------------|
4-12h14h15p14-----12h14h15p14---------------------------------------------|
5-------------------------------------------------------------------------|
6-------------------------------------------------------------------------|

1-17p13----------13-15p12----------12-18-17-15----------------------------|
2-------15----15----------13----13-------------18-17-15-------------------|
3----------14----------------12-------------------------17-15-14----------|
4----------------------------------------------------------------17-15-14-|
5-------------------------------------------------------------------------|
6-------------------------------------------------------------------------|

1-------------------------------------------------------------------------|
2-15s10-10--13-13s8-8--10-10s6-6--8-8s----6-5-6--5-6b--6-5----------------|
3---------------------------------------------------------7---------------|
4-------------------------------------------------------------------------|
5-------------------------------------------------------------------------|
6-------------------------------------------------------------------------|

1----------------------------------------10-------12----------------------|
2-------------------------------------------------------------------------|
3--------------------------------------7-----9s10----14-14----------------|
4-------------------------------------------------------------------------|
5-------------------------------------------------------------------------|
6-------------------------------------------------------------------------|

1----------------------------------------------------------------10----10-|
2----------------------------------------------10----11-10-11-13----13----|
3----------------------------9-----10-9--10-12----12----------------------|
4----------7-----8--7--8--10----12----------------------------------------|
5-5--7--8-----10----------------------------------------------------------|
6-------------------------------------------------------------------------|

1-13-12-10-12-10----10----------------13----12----------------------------|
2----------------13----13-11-13-11p10-------------13----10----------------|
3-------------------------------------------------------------------------|
4-------------------------------------------------------------------------|
5-------------------------------------------------------------------------|
6-------------------------------------------------------------------------|

1-------------------------------------------------------------------------|
2-------------------------------------------------------------------------|
3--14-14-14-14-14-14-14-14-14---12----------------------------------------|
4---x--x--x--x--x--x--x--x--x----x----------------------------------------|
5--12-12-12-12-12-12-12-12-12---10----------------------------------------|
6----------------------------------15-14----------------------------------|

1-------------------------------------------------------------------------|
2-------------------------------------------------------------------------|
3------------------------------------------------------------121415-17bf--|
4----------------------------121415-121415-------------121415-------------|
5---------------121315-121315-------------121315-121315-------------------|
6--121415-121415----------------------------------------------------------|

1-17p13----13-------------------------------------------------------------|
2-------15----15----15----------------------------------------------------|
3----------------14----14----14-------------------------------------------|
4-------------------------15----15-14-15p14----14-------------------------|
5-------------------------------------------17----17-15-17----------------|
6-------------------------------------------------------------------------|

1-13p10----10-------------------------------------------------------------|
2-------11----11----11----------------------------------------------------|
3----------------10----10----10-------------------------------------------|
4-------------------------12----12-10-12p10----10-------------------------|
5-------------------------------------------13----13-12-13----------------|
6-------------------------------------------------------------------------|

1-17p13----13-------------------------------------------------------------|
2-------15----15----15----------------------------------------------------|
3----------------14----14----14-------------------------------------------|
4-------------------------15----15-14-15p14----14-------------------------|
5-------------------------------------------17----17-15-17----------------|
6-------------------------------------------------------------------------|

1-------------------------------------------------------------------------|
2-15----17----18----17----18----20----20b----20b--------------------------|
3-------------------------------------------------------------------------|
4-------------------------------------------------------------------------|
5-------------------------------------------------------------------------|
6-------------------------------------------------------------------------|

----------------------------------------------------------------------------
 and the rythm does this over and over again(if your a begginer and this is all you can do)

1-------------------------------------------------------------------------|
2-------------------------------------------------------------------------|
3-------------------------------------------------------------------------|
4-------------------------------------------------------------------------|
5----------7--7--7-----------5--5--5-----------8--8--8-----------7--7--7--|
6-0--0--0-----------0--0--0-----------0--0--0-----------0--0--0-----------|

1-------------------------------------------------------------------------|
2-------------------------------------------------------------------------|
3-------------------------------------------------------------------------|
4----------3--3--3-----------2--2--2-----------2--2--2-----------3--3--3--|
5-1--1--1-----------1--1--1-----------0--0--0-----------------------------|
6-------------------------------------------------------3--3--3-----------|
comments
We did not receive enough feedback on this tab! Please rate:
print report bad tab
1 2 3 4 5
4 comments total. Showing first comments.
0 reply
Lukige wrote on August 2 2008, 09:17 am

Well it's not hard to get it perfect when there's been a video on youtube for years of matt and corey playing it. Plus it's not the only on the net as my guitar pro tab has had this for a long time. But yeah, this is spot on so 5 stars.

0 reply
Triviumtaber wrote on August 4 2008, 05:33 pm

i dont have guitar pro so i would'ent know

0 reply
Hunt Guitar wrote on August 6 2008, 01:21 am

This tab is great and everything....but Drowned and Torn Asunder isn't on the Crusade...
It's on Ascendancey...

I want to post or [tab]
guest
You may want to rate the tab now too:
select rating
Please do not post tabs as comments. Select "correction" instead!