Oops, an error
Loading. Please wait.

Drowned And Torn Asunder Tab

ver1
ver1

Solo

Whole song

More versions @911Tabs.com
23,808 views 48 this week
21 commentsread comments
1 2 3 4 5
excellent!
x 20
Autoscroll
+/-
esc
set tempo
stop
Contributor
Difficulty
advanced
Hey! There's an official Ultimate Guitar app which is ideal
for learning songs when you're away from computer. Get the app
WARNING: You are trying to view
                                    content from Ultimate-Guitar.com
                                    in an unauthorized application,
                                    which is prohibited.

                                    Please use an official Ultimate
                                    Guitar Tabs application for iPhone,
                                    iPad or Android to access legitimate
                                    chords, guitar, bass, and drum tabs
                                    from Ultimate-Guitar.com database.

                                    Type "ultimate guitar tabs" in Apple
                                    App Store's or Android Market's
                                    search to find the application.
Drowned and torn asunder
Trivium
Ascendancy
Tabbed by scott bennett


intro   

Corey and Matt

E|-----------------------------------------------------------------------------------|
B|-----------------------------------------------------------------------------------|
G|--7-7-7-7-9-9-9-9-10-10-10-10-12-12-12-12--10-10-10-9-9-5-5-5---10-10-9-9-5-5-5----|
D|-----------------------------------------------------------------------------------|
A|--5-5-5-5-7-7-7-7--8--8--8--8-10-10-10-10---8--8--8-7-7-3-3-3----8--8-7-7-3-3-3----|
E|-----------------------------------------------------------------------------------|

Guitar III

E|-----------------------------------------------------------------------------------|
B|-----------------------------------------------------------------------------------|
G|-----------------------------------------------------------------------------------|
D|--0-0-0-0-0-0-0-0--0--0--0--0--0--0--0--0---8--8--8-8-8-8-8-8-8--8--8-8-8-8-8-8----|
A|--0-0-0-0-0-0-0-0--0--0--0--0--0--0--0--0---8--8--8-8-8-8-8-8-8--8--8-8-8-8-8-8----|
E|--0-0-0-0-0-0-0-0--0--0--0--0--0--0--0--0---8--8--8-8-8-8-8-8-8--8--8-8-8-8-8-8----|

Corey and Matt

E|---------------------------------------------------------------------------------------------|
B|---------------------------------------------------------------------------------------------|
G|--10-10-10-10-12-12-12-12-14-14-14-14-15-15-15-15--14-14-14-12-12-9-9-9---14-14-12-12-9-9-9--|
D|---------------------------------------------------------------------------------------------|
A|---8--8--8--8-10-10-10-10-12-12-12-12-13-13-13-13--12-12-12-10-10-7-7-7---12-12-10-10-7-7-7--|
E|---------------------------------------------------------------------------------------------|

Guitar III

E|--------------------------------------------------------------------------------------------|
B|--------------------------------------------------------------------------------------------|
G|--------------------------------------------------------------------------------------------|
D|--0--0--0--0--0--0--0--0--0--0--0--0--0--0--0--0---8--8--8--8--8-8-8-8-8--8--8--8--8-8-8-8--|
A|--0--0--0--0--0--0--0--0--0--0--0--0--0--0--0--0---8--8--8--8--8-8-8-8-8--8--8--8--8-8-8-8--|
E|--0--0--0--0--0--0--0--0--0--0--0--0--0--0--0--0---8--8--8--8--8-8-8-8-8--8--8--8--8-8-8-8--|

Verse

Matt

E|--------------------------------------------------------------------------------------------------------------------------|
B|--------------------------------------------------------------------------------------------------------------------------|
G|--------------------------------------------------------------------------------------------------------------------------|
D|-----------------------5-3---------------------------------------------------------5-3------------------------------------|
A|---5-------7-- ------------------5-------7----------------------5-------7-------------------5-------7----------------------|
E|-----0-0-0---0-0-0-1p0-----0-0----0-0-0---0-0-1p0-0-0-1p0-0-0----0-0-0---0-0-0-1P0-----0-0---0-0-0---0-0-1P0-0-0-1P0-0-0--|
       P.M--   ------        ---    -----   ---     ---     ---    -----   -----         ---   -----   ---     ---     ---

Corey

E|--------------------------------------------------------------------------------------------------------------------------|
B|--------------------------------------------------------------------------------------------------------------------------|
G|--------------------------------------------------------------------------------------------------------------------------|
D|---7-------9-----------5-3------7-------9----------------------7-------9-----------8-7-----7-------9----------------------|
A|---5-------7--------------------5-------7----------------------5-------7-------------------5-------7----------------------|
E|-----0-0-0---0-0-0-1p0-----0-0----0-0-0---0-0-1p0-0-0-1p0-0-0----0-0-0---0-0-0-1P0-----0-0---0-0-0---0-0-1P0-0-0-1P0-0-0--|
       P.M--   -----         ---    -----   ---     ---     ---    -----   -----         ---   -----   ---     ---     ---
This is repeated through the verse

little pre verse fill
  
Guitar III

E|---19-17h19p17--------------------------|
B|---------------18-16-15-----------------|
G|------------------------17-16-----------|
D|------------------------------18--------|
A|----------------------------------------|
E|----------------------------------------|

Corey

E|---12-10h12p10--------------------------|
B|---------------11-9-8-------------------|
G|----------------------10-9--------------|
D|---------------------------11-----------|
A|----------------------------------------|
E|----------------------------------------|

End verse riff

Corey and Matt

E|------------------------------------------------------------------------|
B|------------------------------------------------------------------------|
G|--------------------12---10----9h10-------------------------------------|
D|---10-------9-----------------------------------------------------------|
A|------8-8-8---8-8-8---8-8--8-8------8-------7---------------------------|
E|--------------------------------------0-0-0---0-0-0-0h10h12-15p0-15h17--| X2
        P.M--   -----   ---  ---      -------   -----
Pre chorus

Corey

E|-------------------------------------------------------------------------------------------------------------------|
B|-------------------------------------------------------------------------------------------------------------------|
G|-------------------------------------------------------------------------------------------------------------------|
D|---12p0--------10p0----8p0----12p0---------------------------12p0--------10p0----8p0----10p0----8----12p0------10--|
A|---------------------------------------------8h10------10h12-------------------------------------------------------|
E|--------000000------00-----00------000000-88------1010------------000000------00-----00------88---88------1010-----| X4
          P.M---      --     --      ------ --      ----            ------      --     --      --   --      ----

Matt

E|-------------------------------------------------------------------------------------------------------------------|
B|-------------------------------------------------------------------------------------------------------------------|
G|-------------------------------------------------------------------------------------------------------------------|
D|---15p0--------14p0----12p0---15p0-----------14h15----15h17-15p0--------14p0----12p0---14p0----12p0----15p0---14p0-|
A|-------------------------------------------------------------------------------------------------------------------|
E|--------000000------00-----00------000000-00-------00------------000000------00-----00------00-----00------00------| x 4
          P.M---      --     --      ------ --       --            ------      --     --      --     --      --

Chorus 

Guitar III
E|------------------------------------------------------------------------------------------------13--12~--------|
B|--------------------------------------------------------------------------------------------------------13-----|
G|---14------12--------------------14------12--------------------14------12--------------------------------------|
D|-------15------14---14--15--12-------15------14---14--15--12-------15------14--14--15--12----------------------|
A|---------------------------------------------------------------------------------------------------------------|
E|---------------------------------------------------------------------------------------------------------------|

E|---------------------------------------------------------------------------------------------------------------|
B|---------------------------------------------------------------------------------------------------------------|
G|---14------12--------------------14------12--------------------14------12--------------------------------------|
D|-------15------14---14--15--12-------15------14---14--15--12-------15------14--14--15--12---------1------------|
A|--------------------------------------------------------------------------------------------------1------------|
E|--------------------------------------------------------------------------------------------------1------------|

Corey

E|---------------------------------------------------------------------------------------------------------------|
B|---------------------------------------------------------------------------------------------------------------|
G|---10------9--------------------10------9--------------------10-------9-------------------------10--9----------|
D|-------12-----10---10--12--10-------10------10---10--12--10-------10------10--10--12--10----------------10-----|
A|---------------------------------------------------------------------------------------------------------------|
E|---------------------------------------------------------------------------------------------------------------|

E|---------------------------------------------------------------------------------------------------------------|
B|---------------------------------------------------------------------------------------------------------------|
G|---10------9--------------------10------9--------------------10-------9----------------------------------------|
D|-------12-----10---10--12--10-------10------10---10--12--10-------10------10--10--12--10-----------1-----------|
A|---------------------------------------------------------------------------------------------------1-----------|
E|---------------------------------------------------------------------------------------------------1-----------|

Matt

E|---------------------------------------------------------------------------------------------------------------|
B|---------------------------------------------------------------------------------------------------------------|
G|---------------------------------------------------------------------------------------------------------------|
D|---0--------------------0--------10-------------------10--------8------------------8-------------3---2---3-----|
A|---0--------------------0--------10-------------------10--------8------------------8-------------3---2---3-----|
E|---0--------------------0--------10-------------------10--------8------------------8-------------3---2---3-----|

E|---------------------------------------------------------------------------------------------------------------|
B|---------------------------------------------------------------------------------------------------------------|
G|---------------------------------------------------------------------------------------------------------------|
D|---0--------------------0--------10-------------------10--------8------------------8--------------1------------|
A|---0--------------------0--------10-------------------10--------8------------------8--------------1------------|
E|---0--------------------0--------10-------------------10--------8------------------8--------------1------------|

Verse
end verse
pre chorus
chorus

Break

Both guitars 

E|----------------------------------------------------------------------------------|
B|----------------------------------------------------------------------------------|
G|----------------------------------------------------------------------------------|
D|---0----------0--0---------8---7---3---0----------0--0----------8---7---3---------|
A|---0----------0--0---------8---7---3---0----------0--0----------8---7---3---------|
E|---0----------0--0---------8---7---3---0----------0--0----------8---7---3---------|
            P.M-----                                ----

Guitar 1

Fast alternate picking

E|---------------------------------------------------------------------------------------------------------------------------------|
B|---------------------------------------------------------------------------------------------------------------------------------|
G|---7p0000003p0000005p0000002p0000007p0000003p0000005p0000002p0000007p0000003p0000005p0000002p00000010p0010p0010p009p009p009p00---|
D|---------------------------------------------------------------------------------------------------------------------------------|
A|---------------------------------------------------------------------------------------------------------------------------------|
E|---------------------------------------------------------------------------------------------------------------------------------|

E|---------------------------------------------------------------------------------------------------------------------------------|
B|---------------------------------------------------------------------------------------------------------------------------------|
G|---7p0000003p0000005p0000002p0000007p0000003p0000005p0000002p0000007p0000003p0000005p0000002p00000010p0-9p0-7p0-9p0-10p0-12p0----|
D|---------------------------------------------------------------------------------------------------------------------------------|
A|---------------------------------------------------------------------------------------------------------------------------------|
E|---------------------------------------------------------------------------------------------------------------------------------|

Guitar II

Fast alternate picking

E|---------------------------------------------------------------------------------------------------------------------------------|
B|---------------------------------------------------------------------------------------------------------------------------------|
G|---------------------------------------------------------------------------------------------------------------------------------|
D|---8p0000005p0000007p0000003p0000008p0000005p0000007p0000003p0000008p0000005p0000007p0000003p0000008p008p008p007p007p007p00------|
A|---------------------------------------------------------------------------------------------------------------------------------|
E|---------------------------------------------------------------------------------------------------------------------------------|

E|---------------------------------------------------------------------------------------------------------------------------------|
B|---------------------------------------------------------------------------------------------------------------------------------|
G|---------------------------------------------------------------------------------------------------------------------------------|
D|---8p0000005p0000007p0000003p0000008p0000005p0000007p0000003p0000008p0000005p0000007p0000003p0000008p0-7p0-5p0-7p0-8p0-10p0------|
A|---------------------------------------------------------------------------------------------------------------------------------|
E|---------------------------------------------------------------------------------------------------------------------------------|

Solos

Corey

e|--------------------------------------------17p13----------13--15p12----------12---18-17-15-------------------------------------|
b|--------------------------------------------------15----15-----------13----13---------------18-17-15----------------------------|
g|------------------------------15p14p12-14------------14-----------------12---------------------------17-15-14-------------------|
d|---12h14h15-14---12h14h15-14----------------------------------------------------------------------------------17-15-14----------|
a|-------------------------------------------------------------------------------------------------------------------------17-----|
d|--------------------------------------------------------------------------------------------------------------------------------|

Matt

e|--------------------------------------------------------------------------------------------------------------------------------|
b|--------------------------------------------------------------------------------------------------------------------------------|
g|--------------------------------------------------------------------------------------------------------------------------------|
d|-----------------------------------------------------------3-3-3-------2-2-2-------2-2-2--------3-3-3---------------------------|
a|---------7-7-7-------5-5-5-------8-8-8-------7-7-7---1-1-1-------1-1-1-------0-0-0----------------------------------------------|
d|---0-0-0-------0-0-0-------0-0-0-------0-0-0----------------------------------------------3-3-3---------------------------------|

Corey

e|--------------------------------------------------------------------------------------------------------------------------------|
b|--------------------------------------------------------------------------------------------------------------------------------|
g|--------------------------------------------------------------------------------------------------------------------------------|
d|-----------------------------------------------------------3-3-3-------2-2-2-------2-2-2--------3-3-3---------------------------|
a|---------7-7-7-------5-5-5-------8-8-8-------7-7-7---1-1-1-------1-1-1-------0-0-0----------------------------------------------|
d|---0-0-0-------0-0-0-------0-0-0-------0-0-0----------------------------------------------3-3-3---------------------------------|

Matt

e|-----------------------------------------------------------------------------10------12-----------------------------------------|
b|---15\10-10-10--13-13-13\8-8-8--10-10-10\6-6-6--8-8-8\5--5-5-6-5-6b(8)r---------------------------------------------------------|
g|------------------------------------------------------------------------7--7----9/10----10/14b(15)------------------------------|
d|--------------------------------------------------------------------------------------------------------------------------------|
a|--------------------------------------------------------------------------------------------------------------------------------|
d|--------------------------------------------------------------------------------------------------------------------------------|

Corey

e|----------------------------------------------------------10----12-12-13-12----12-------------------------13-12-----------------|
b|----------------------------------------10----11-10-12-13----12-------------15----15-13-15-13-11-13-11-10-------13-10~----------|
g|------------------------9----10-9-10-12----12-----------------------------------------------------------------------------------|
d|---------7----8-7-10-12---12----------------------------------------------------------------------------------------------------|
a|---5-7-8---10-------------------------------------------------------------------------------------------------------------------|
d|--------------------------------------------------------------------------------------------------------------------------------|

Matt

e|--------------------------------------------------------------------------------------------------------------------------------|
b|--------------------------------------------------------------------------------------------------------------------------------|
g|--------------------------------------------------------------------------------------------------------------------------------|
d|-----------------------------------------------------------3-3-3-------2-2-2-------2-2-2--------3-3-3---------------------------|
a|---------7-7-7-------5-5-5-------8-8-8-------7-7-7---1-1-1-------1-1-1-------0-0-0----------------------------------------------|
d|---0-0-0-------0-0-0-------0-0-0-------0-0-0----------------------------------------------3-3-3---------------------------------|

Corey

e|--------------------------------------------------------------------------------------------------------------------------------|
b|--------------------------------------------------------------------------------------------------------------------------------|
g|--------------------------------------------------------------------------------------------------------------------------------|
d|-----------------------------------------------------------3-3-3-------2-2-2-------2-2-2--------3-3-3---------------------------|
a|---------7-7-7-------5-5-5-------8-8-8-------7-7-7---1-1-1-------1-1-1-------0-0-0----------------------------------------------|
d|---0-0-0-------0-0-0-------0-0-0-------0-0-0----------------------------------------------3-3-3---------------------------------|

Matt

e|----------------------------------------------------------------------------------------------------------------------------------------------|
b|----------------------------------------------------------------------------------------------------------------------------------------------|
g|------------------------------------------------------------------------------------------------------------------------121315-121315-17b(19)-|
d|---------------------------------------------------------------------------------121315-121315-------------121315-121315----------------------|
a|----/12-12-12-12-12-12-12-12-12-12-12-12--12-10--8--7~--------------121415-121415-------------121415-121415-----------------------------------|
d|-------------------------------------------------------121315-121315--------------------------------------------------------------------------|

Harmony

Corey

e|---13--10-----10----------------------------------------------------------10--6-----6--------------------------------------------------------|
b|-----------11----11----11--------------------------------------------------------8----8-----8------------------------------------------------|
g|--------------------10----10------10-----------------------------------------------------7-----7-----7---------------------------------------|
d|------------------------------12-----12--10--12--10------10---------------------------------------8-----8---7---8---7-----7------------------|
a|-----------------------------------------------------13------13--12--13~-----------------------------------------------10----10-8-10~--------|
d|---------------------------------------------------------------------------------------------------------------------------------------------|

Matt

e|---17--13-----13----------------------------------------------------------13--10---10--------------------------------------------------------|
b|-----------15----15----15--------------------------------------------------------11---11----11-----------------------------------------------|
g|--------------------14----14------14-----------------------------------------------------10----10----10--------------------------------------|
d|------------------------------15-----15--14--15--14------14---------------------------------------12----12--10--12--10----10-----------------|
a|-----------------------------------------------------17------17--15--17~-----------------------------------------------13----13-12-13~-------|
d|---------------------------------------------------------------------------------------------------------------------------------------------|

Corey

e|---13--10-----10----------------------------------------------------------13--15--17--15--17--18--18(20)r--18b(19)---------------------------|
b|-----------11----11----11--------------------------------------------------------------------------------------------------------------------|
g|--------------------10----10------10---------------------------------------------------------------------------------------------------------|
d|------------------------------12-----12--10--12--10------10----------------------------------------------------------------------------------|
a|-----------------------------------------------------13------13--12--13~---------------------------------------------------------------------|
d|---------------------------------------------------------------------------------------------------------------------------------------------|

Matt

e|---17--13-----13-----------------------------------------------------------------------------------------------------------------------------|
b|-----------15----15----15-------------------------------------------------15--17--18--17--18--20--20b(22)r--20b(21)--------------------------|
g|--------------------14----14------14---------------------------------------------------------------------------------------------------------|
d|------------------------------15-----15--14--15--14------14----------------------------------------------------------------------------------|
a|-----------------------------------------------------17------17--15--17~---------------------------------------------------------------------|
d|---------------------------------------------------------------------------------------------------------------------------------------------|


Pre Chorus 
Chorus x2

END

ENJOY!!!




comments
print report bad tab
21 comments total. Showing first comments.
0 reply
bassest123 wrote on August 15 2005, 12:00 am

hey i wanna contact u i have got to ask you some thing. post a reply to this comment an i will give you my msn addy

0 reply
skotyb wrote on December 23 2005, 07:45 am

Ok then

0 reply
skotyb wrote on December 23 2005, 07:46 am

well my addy is skotyb2@hotmail.com

I want to post or [tab]
guest
You may want to rate the tab now too:
select rating
Please do not post tabs as comments. Select "correction" instead!