Oops, an error
Loading. Please wait.

Drowning In Slow Motion Tab

ver1
ver1

Whole song

Interactive

More versions @911Tabs.com
3,459 views 18 this week
no commentswrite comment
1 2 3 4 5
excellent!
x 4
Autoscroll
+/-
esc
set tempo
stop
Contributor
Difficulty
Tuning
intermediate
C# G# C# F# A# D#
NEW! There's an official Ultimate Guitar app which is ideal
for learning songs when you're away from computer. Get the app
WARNING: You are trying to view
                                    content from Ultimate-Guitar.com
                                    in an unauthorized application,
                                    which is prohibited.

                                    Please use an official Ultimate
                                    Guitar Tabs application for iPhone,
                                    iPad or Android to access legitimate
                                    chords, guitar, bass, and drum tabs
                                    from Ultimate-Guitar.com database.

                                    Type "ultimate guitar tabs" in Apple
                                    App Store's or Android Market's
                                    search to find the application.
Band:  Trivium
Song:  Drowning In Slow Motion
Album: In Waves

Tuning: Drop C# (C#, G#, C#, F#, A#, D#)
(Tune all strings down half a step then drop tune)

This song took me ages to figure out guys, sounds 100% correct.
Again, please rate, comment or correct as it took me ages :)

Hammer on:    h
Pull off:     p
Bend up:          BU(?)
Natural Harmonic: NH

Guitar 1: Matt Heafy
Guitar 2: Corey Beaulieu


Intro/Outro
Both guitars
|---------------------------------|---------------------------------|
|-----------------3---------------|---------------------------------|
|-----------------2---------------|---------------------------------|
|-0---------------0---------------|---------------------------------|
|-0-------------------------------|-------------6h9p6---------6h9p6-|
|-0-------------------------------|-------------------0-0-0-0-------|

|---------------------------------|---------------------------------|
|-----------------3---------------|---------------------------------|
|-----------------2---------------|-----------------5-5-5-5-8-8-8-8-|
|-0---------------0---------------|---------------------------------|
|-0-------------------------------|-----------------3-3-3-3-6-6-6-6-|
|-0-------------------------------|---------------------------------|


Verse 1
Guitar 2 (Just guitar 1)
|---------------------------------|-------------------------------------|
|---------------------------------|-------------------------------------|
|---------------------------------|-------------------------------------|
|-------------------------------4-|-------------------------------------|
|-5-----3---3h6---5-----3---3h6---|-5-----3---3h6---6h9p6---------6h9p6-|
|---0-0---0-----0---0-0---0-------|---0-0---0-----0-------0-0-0-0-------|
_________

Guitar 1
|---------------------------------|---------------------------------|
|---------------------------------|---------------------------------|
|---------------------------------|-----------------5-5-5-5-8-8-8-8-|
|-------------------------------4-|---------------------------------|
|-5-----3---3h6---5-----3---3h6---|-5-----3---3h6---3-3-3-3-6-6-6-6-|
|---0-0---0-----0---0-0---0-------|---0-0---0-----0-----------------|
|
|Guitar 2
|---------------------------------|-------------------------------------|
|---------------------------------|-------------------------------------|
|---------------------------------|-----------------8-8-8-8-11-11-11-11-|
|-------------------------------4-|-------------------------------------|
|-5-----3---3h6---5-----3---3h6---|-5-----3---3h6---6-6-6-6--9--9--9--9-|
|---0-0---0-----0---0-0---0-------|---0-0---0-----0---------------------|

Both guitars
|---------------------------------|-------------------------------------|
|---------------------------------|-------------------------------------|
|---------------------------------|-------------------------------------|
|-------------------------------4-|-------------------------------------|
|-5-----3---3h6---5-----3---3h6---|-5-----3---3h6---6h9p6---------6h9p6-|
|---0-0---0-----0---0-0---0-------|---0-0---0-----0-------0-0-0-0-------|

Guitar 1
|---------------------------------|---------------------------------|
|---------------------------------|---------------------------------|
|---------------------------------|-----------------5-5-5-5-8-8-8-8-|
|-------------------------------4-|---------------------------------|
|-5-----3---3h6---5-----3---3h6---|-5-----3---3h6---3-3-3-3-6-6-6-6-|
|---0-0---0-----0---0-0---0-------|---0-0---0-----0-----------------|
|
|Guitar 2
|---------------------------------|-------------------------------------|
|---------------------------------|-------------------------------------|
|---------------------------------|-----------------8-8-8-8-11-11-11-11-|
|-------------------------------4-|-------------------------------------|
|-5-----3---3h6---5-----3---3h6---|-5-----3---3h6---6-6-6-6--9--9--9--9-|
|---0-0---0-----0---0-0---0-------|---0-0---0-----0---------------------|


Verse 2
Both guitars
|---------------------------------|---------------------------------|
|---------------------------------|---------------------------------|
|---------------------------------|---------------------------------|
|---------------------------------|---------------5---------7-5-3---|
|-5---5---------5---5p4---7-------|-5---8-------------5-4---------7-|
|---0---0-0h3h7---0-----0---0h3h7-|---0---0-0h3h7---0-----0---------|

Harmony
Guitar 2
|---------------------------------|---------------------------------|
|---------------------------------|---------------------------------|
|---------------------------------|---------------------------------|
|---------------------------------|---------------5---------5-3-2---|
|-5---5---------5---5p4---7-------|-5---8-------------5-4---------5-|
|---0---0-0h3h7---0-----0---0h3h7-|---0---0-0h3h7---0-----0---------|


Chorus
Guitar 1
|---------------------------------|---------------------------------|
|---------------------------------|---------------------------------|
|---------------------------------|---------------------------------|
|---------------------------------|---------------------------------|
|-8-8-8-8-8-8-8-8-8-8-8-8-8-8-8-8-|-8-8-8-8-8-8-8-8-8-8-8-8-8-8-8-8-|
|-8-8-8-8-8-8-8-8-8-8-8-8-8-8-8-8-|-8-8-8-8-8-8-8-8-8-8-8-8-8-8-8-8-|

|---------------------------------|---------------------------------|
|---------------------------------|---------------------------------|
|---------------------------------|---------------------------------|
|---------------------------------|---------------------------------|
|-8-8-8-8-8-8-8-8-8-8-8-8-8-8-8-8-|-8-8-8-8-8-8-8-8-7-7-7-7-7-7-7-7-|
|-8-8-8-8-8-8-8-8-8-8-8-8-8-8-8-8-|-8-8-8-8-8-8-8-8-7-7-7-7-7-7-7-7-|

Guitar 2
|-------------------------------------------------------------------------------|
|-------------------------------------------------------------------------------|
|-10----10----10h12p10----10----10h12p10----10----10h12p10-------10-12-10----10-|
|---12----12----------12----12----------12----12-----------12-14----------14----|
|-----13----13----------13----13----------13----13------------------------------|
|-------------------------------------------------------------------------------|

|-------------------------------------------------------------------------------|
|-------------------------------------------------------------------------------|
|-10----10----10h12p10----10----10h12p10----10----10h12p10-------10-12-10----10-|
|---12----12----------12----12----------12----12-----------12-14----------14----|
|-----13----13----------13----13----------13----13------------------------------|
|-------------------------------------------------------------------------------|

Guitar 1
|---------------------------------|---------------------------------|
|---------------------------------|---------------------------------|
|-7-7-7-7-7-7-7-7-7-7-7-7-7-7-7-7-|-7-7-7-7-7-7-7-7-7-7-7-7-7-7-7-7-|
|-7-7-7-7-7-7-7-7-7-7-7-7-7-7-7-7-|-7-7-7-7-7-7-7-7-7-7-7-7-7-7-7-7-|
|-5-5-5-5-5-5-5-5-5-5-5-5-5-5-5-5-|-5-5-5-5-5-5-5-5-5-5-5-5-5-5-5-5-|
|---------------------------------|---------------------------------|

|---------------------------------|---------------------------------|
|---------------------------------|---------------------------------|
|-6-6-6-6-6-6-6-6-6-6-6-6-6-6-6-6-|-6-6-6-6-6-6-6-6-6-6-6-6-6-6-6-6-|
|-7-7-7-7-7-7-7-7-7-7-7-7-7-7-7-7-|-7-7-7-7-7-7-7-7-7-7-7-7-7-7-7-7-|
|-4-4-4-4-4-4-4-4-4-4-4-4-4-4-4-4-|-4-4-4-4-4-4-4-4-4-4-4-4-4-4-4-4-|
|---------------------------------|---------------------------------|

Guitar 2
|-------------------------------------------------------------------------------|
|-------------------------------------------------------------------------------|
|-14----14----14h15p14----14----14h15p14----14----14h15p14----15-14----14-------|
|---15----15----------15----15----------15----15-----------15-------17----17-14-|
|-----17----17----------17----17----------17----17------------------------------|
|-------------------------------------------------------------------------------|

|-------------------------------------------------------------------------------|
|-------------------------------------------------------------------------------|
|-14----14----14h15p14----14----14h15p14----14----14h15p14----15-14----14-------|
|---14----14----------14----14----------14----14-----------15-------17----17-14-|
|-----16----16----------16----16----------16----16------------------------------|
|-------------------------------------------------------------------------------|

Guitar 1
|---------------------------------|---------------------------------|
|---------------------------------|---------------------------------|
|---------------------------------|---------------------------------|
|---------------------------------|---------------------------------|
|-8-8-8-8-8-8-8-8-8-8-8-8-8-8-8-8-|-8-8-8-8-8-8-8-8-7-7-7-7---------|
|-8-8-8-8-8-8-8-8-8-8-8-8-8-8-8-8-|-8-8-8-8-8-8-8-8-7-7-7-7-12\-----|

Guitar 2
|-------------------------------------------------------------------------------|
|-------------------------------------------------------------------------------|
|-10----10----10h12p10----10----10h12p10----10----10h12p10-------10-12-10----10-|
|---12----12----------12----12----------12----12-----------12-14----------14----|
|-----13----13----------13----13----------13----13------------------------------|
|-------------------------------------------------------------------------------|


Repeat Verse 1


Repeat Verse 2


Breakdown
Both guitars
||-----------------|-----------------|-----------------|--------------------||
|o-----------------|-----------------|-----------------|--------------------o| x4
||-----------------|-----------------|-----------------|--------------------||
||-----------------|-----------------|-----------------|-------3------------||
|o-------0---0-----|-----0-----------|-------0---0-----|-5-4-5---4-5--------o|
||-0-0-0-0-0-0-----|-00000-----------|-0-0-0-0-0-0-----|-------------3BU(5)-||

                             NH-----|
||-----------------|-----------------|-----------------|--------------------||
|o-----------------|-----------------|-----------------|--------------------o| x2
||-----------------|-----------------|-----------------|--------------------||
||-----------------|---------77777777|-----------------|-------3------------||
|o-------0---0-----|-----0-----------|-------0---0-----|-5-4-5---4-5--------o|
||-0-0-0-0---0-----|-00000-----------|-0-0-0-0---0-----|-------------3BU(5)-||


Solo
Guitar 1 (Rhythm)
|---------------------------------|---------------------------------|
|---------------------------------|---------------------------------|
|---------------------------------|---------------------------------|
|---------------------------------|-7-----7-----7-----7-----7---7---|
|-8-----8-----8-----8-----8---8---|---5-5---5-5---5-5---5-5---5---5-|
|---8-8---8-8---8-8---8-8---8---8-|---------------------------------|

|---------------------------------|---------------------------------|
|---------------------------------|---------------------------------|
|---------------------------------|---------------------------------|
|---------------------------------|-5-----5-----5---7-----7-----7---|
|-8-----8-----8-----8-----8---8---|---3-3---3-3---3---5-5---5-5---5-|
|---8-8---8-8---8-8---8-8---8---8-|---------------------------------|

|---------------------------------|---------------------------------|
|---------------------------------|---------------------------------|
|---------------------------------|---------------------------------|
|---------------------------------|-7-7-7-7-7-7-7-7-7-7-7-7-7-7-7-7-|
|-8-8-8-8-8-8-8-8-8-8-8-8-8-8-8-8-|-5-5-5-5-5-5-5-5-5-5-5-5-5-5-5-5-|
|-8-8-8-8-8-8-8-8-8-8-8-8-8-8-8-8-|-0-0-0-0-0-0-0-0-0-0-0-0-0-0-0-0-|

|---------------------------------|---------------------------------|
|---------------------------------|---------------------------------|
|---------------------------------|---------------------------------|
|---------------------------------|-5-5-5-5-5-5-5-5-7-7-7-7-7-7-7-7-|
|-8-8-8-8-8-8-8-8-8-8-8-8-8-8-8-8-|-3-3-3-3-3-3-3-3-5-5-5-5-5-5-5-5-|
|-8-8-8-8-8-8-8-8-8-8-8-8-8-8-8-8-|---------------------------------|

Guitar 2 (Lead)
|-------------------------------------------------|
|-11-11-11-11-11-11-11-11-11-11-11-11-13-13-13-13-|
|-10-10-10-10-10-10-10-10-10-10-10-10-10-10-10-10-|
|-------------------------------------------------|
|-------------------------------------------------|
|-------------------------------------------------|

|-------------------------------------------------|
|-15-15-15-15-15-15-15-15-18-18-18-18-17-17-17-17-|
|-14-14-14-14-14-14-14-14-14-14-14-14-14-14-14-14-|
|-------------------------------------------------|
|-------------------------------------------------|
|-------------------------------------------------|

|-------------------------------------------------|
|-11-11-11-11-11-11-11-11-11-11-11-11-10-10-10-10-|
|-10-10-10-10-10-10-10-10-10-10-10-10-10-10-10-10-|
|-------------------------------------------------|
|-------------------------------------------------|
|-------------------------------------------------|

|-------------------------------------------------|
|-8-8-8-8-8-8-8-8--15-----------------------------|
|-9-9-9-9-9-9-9-9-----15-14-15-12BU(14)-----------|
|-------------------------------------------------|
|-------------------------------------------------|
|-------------------------------------------------|

|--------------------------------13h17p13---------|
|-13BU(15)---(13)(15)----------15--------15-------|
|----------------------------14------------14-----|
|--------------------------15----------------15---|
|------------------------17--------------------17-|
|-------------------------------------------------|

|-------------------------------------------------|
|-------------------------------------------------|
|----14-15-14-------------------------------------|
|-17-------------17-15-17----15-14-15-------------|
|-------------------------------------------------|
|-------------------------------------------------|

|-------------------------------------------|
|-------------------------------------------|
|-7-7-7-9-9-9-10-10-10-12-12-12-14-14-14-14-|
|-------------------------------------------|
|-5-5-5-7-7-7--8--8--8-10-10-10-12-12-12-12-|
|-------------------------------------------|

|-------------------------------------15-17-18-20-|-20BU(22)---(20)(22)-|
|----------------------------15-17-18-------------|---------------------|
|-------------------15-17-19----------------------|---------------------|
|----------15-17-19-------------------------------|---------------------|
|-15-17-19----------------------------------------|---------------------|
|-------------------------------------------------|---------------------|


Repeat Breakdown


Repeat Chorus


Repeat Intro/Outro


That's all, please rate guys :)
comments
print report bad tab
I want to post or [tab]
guest
You may want to rate the tab now too:
select rating
Please do not post tabs as comments. Select "correction" instead!