Oops, an error
Loading. Please wait.

Dusk Dismantled Tab

ver1
ver1

Whole song

Interactive

More versions @911Tabs.com
9,438 views 3 this week
2 commentsread comments
1 2 3 4 5
worth learning
x 4
Autoscroll
+/-
esc
set tempo
stop
Contributor
Difficulty
Tuning
intermediate
C# G# C# F# A# D#
WARNING: You are trying to view
                                    content from Ultimate-Guitar.com
                                    in an unauthorized application,
                                    which is prohibited.

                                    Please use an official Ultimate
                                    Guitar Tabs application for iPhone,
                                    iPad or Android to access legitimate
                                    chords, guitar, bass, and drum tabs
                                    from Ultimate-Guitar.com database.

                                    Type "ultimate guitar tabs" in Apple
                                    App Store's or Android Market's
                                    search to find the application.
Title: Dusk Dismantled
Artist: Trivium
Album: In Waves
Tabber: Peter Macaulay(Xiphos707fx) & Jack [Insatanwetrustslave]
Tempo = 110
Guitar A

Legend
L - tied note
x - dead note
h - hammer on/pull off
b - bend
s - slide
~ - vibrato
g - ghost note
> - accentuated note
t - trill
M - palm mute
. - staccato
P - popping (bass)
S - slapping (bass)
+ - tapping
W - wide vibrato
< - fade in
w - whammy bar
= - tremolo picking
v - brush up
^ - brush down
V - pick stroke up
n - pick stroke down
This is a fairly rough guide, from the two first guys to cover it over on youtube :D
basic formations, if you want complete accuracy wait a week or two
In the intro/ chorus chords corey says the movements are weird, what i hear is the minor
3rd on top going up to the eighth, if you have trouble just play the normal minor chord

D#|----------------------------|
A#|-----6--6----(8)(8)----5----|
F#|-----7--7-----7--7-----6~---|
C#|-----7--7-----7--7-----6~---|
G#|-----5--5-----5--5-----4~---|
C#|--0M-------0M-------0>------|


----------------------------------------------------|
--------6-----6-----------8--8--8--8--5--5--5--5----|
--------7-----7-----------9--9--9--9--6--6--6--6----|
--------7-----7-----------9--9--9--9--6--6--6--6----|
--------5-----5-----------7--7--7--7--4--4--4--4----|
--0M----------------0M------------------------------|


----------------------------|
-----6--6----(8)(8)----5~---|
-----7--7-----7--7-----6~---|
-----7--7-----7--7-----6~---|
-----5--5-----5--5-----4~---|
--0M-------0M-------0>------|


----------------------------------------------------|
--------6-----6-----------3--3--3--3--5--5--5--5----|
--------7-----7-----------3--3--3--3--6--6--6--6----|
--------7-----7-----------3--3--3--3--6--6--6--6----|
--------5-----5-----------1--1--1--1--4--4--4--4----|
--0M----------------0M------------------------------|


----------------------------|
-----6--6----(8)(8)----5----|
-----7--7-----7--7-----6~---|
-----7--7-----7--7-----6~---|
-----5--5-----5--5-----4~---|
--0M-------0M-------0>------|


----------------------------------------------------|
--------6-----6-----------8--8--8--8--5--5--5--5----|
--------7-----7-----------9--9--9--9--6--6--6--6----|
--------7-----7-----------9--9--9--9--6--6--6--6----|
--------5-----5-----------7--7--7--7--4--4--4--4----|
--0M----------------0M------------------------------|


----------------------------|
-----6--6----(8)(8)----5~---|
-----7--7-----7--7-----6~---|
-----7--7-----7--7-----6~---|
-----5--5-----5--5-----4~---|
--0M-------0M-------0>------|


----------------------------------------------------|
--------6-----6-----------3--3--3--3--5--5--5--5----|
--------7-----7-----------3--3--3--3--6--6--6--6----|
--------7-----7-----------3--3--3--3--6--6--6--6----|
--------5-----5-----------1--1--1--1--4--4--4--4----|
--0M----------------0M------------------------------|


----------------------------------------------------|
----------------------------------------------------|
----------------------------------------------------|
----------------------------------------------------|
----------------------------------------------------|
----------------------------------------------------|
Guitar A verse 1

---------------------------------------------------|
---------------------------------------------------|
o--------------------------------------------------|
o--------------------------------------------------|
-5-------------------------------------------------|
-3-----------0--0--0--0--0--0--0--0--0--0--0--0----|


----------------------------------------------------|
----------------------------------------------------|
----------------------------------------------------|
----------------------------------------------------|
--5-----------------------8--8--8--8--4--4--4--4----|
--3-----------0--0--0--0--7--7--7--7--2--2--2--2----|

Guitar B

--0--0--0--0--0--0--0--0--0--0--0--0--0--0--0--0----|
--5--5--5--5--5--5--5--5--5--5--5--5--5--5--5--5----|
----------------------------------------------------|
----------------------------------------------------|
----------------------------------------------------|
----------------------------------------------------|


--0--0--0--0--0--0--0--0--0--0--0--0--0--0--0--0----|
--5--5--5--5--5--5--5--5--5--5--5--5--5--5--5--5----|
----------------------------------------------------|
----------------------------------------------------|
----------------------------------------------------|
----------------------------------------------------|


--0--0--0--0--0--0--0--0--0--0--0--0--0--0--0--0----|
--5--5--5--5--5--5--5--5--5--5--5--5--5--5--5--5----|
----------------------------------------------------|
----------------------------------------------------|
----------------------------------------------------|
----------------------------------------------------|


--0--0--0--0--0--0--0--0--0--0--0--0--0--0--0--0----|
--5--5--5--5--5--5--5--5--5--5--5--5--5--5--5--5----|
----------------------------------------------------|
----------------------------------------------------|
----------------------------------------------------|
----------------------------------------------------|


----------------------------------------------------|
----------------------------------------------------|
----------------------------------------------------|
----------------------------------------------------|
----------------------------------------------------|
----------------------------------------------------|


----------------------------------------------------|
----------------------------------------------------|
----------------------------------------------------|
----------------------------------------------------|
--8s----5-------------------------------------------|
--6s----3-----3M-3M-3M-3M-3M-3M-3M-3M-3M-3M-3M-3M---|


----------------------------------------------------|
----------------------------------------------------|
----------------------------------------------------|
----------------------------------------------------|
--8s----5-----------------10-10-10-10-7--7--7--7----|
--6s----3-----3M-3M-3M-3M-8--8--8--8--5--5--5--5----|


----------------------------------------------------|
----------------------------------------------------|
----------------------------------------------------|
----------------------------------------------------|
--8s----5-------------------------------------------|
--6s----3-----3M-3M-3M-3M-3M-3M-3M-3M-3M-3M-3M-3M---|


----------------------------------------------------|
----------------------------------------------------|
----------------------------------------------------|
----------------------------------------------------|
--8s----5-----------------7--7--7--7--10-10-10-10---|
--6s----3-----3M-3M-3M-3M-5--5--5--5--8--8--8--8----|


----------------------------------------------------|
----------------------------------------------------|
----------------------------------------------------|
----------------------------------------------------|
--11s---8-------------------------------------------|
--9s----6-----6M-6M-6M-6M-6M-6M-6M-6M-6M-6M-6M-6M---|


----------------------------------------------------|
----------------------------------------------------|
----------------------------------------------------|
----------------------------------------------------|
--11s---8-----------------12-12-12-12-10-10-10-10---|
--9s----6-----6M-6M-6M-6M-10-10-10-10-8--8--8--8----|


----------------------------------------------------|
----------------------------------------------------|
----------------------------------------------------|
----------------------------------------------------|
--11s---8-------------------------------------------|
--9s----6-----6M-6M-6M-6M-6M-6M-6M-6M-6M-6M-6M-6M---|


----------------------------------------------------|
----------------------------------------------------|
----------------------------------------------------|
----------------------------------------------------|
--11s---8-----------------10-10-10-10-12-12-12-12---|
--9s----6-----6M-6M-6M-6M-8--8--8--8--10-10-10-10---|


----------------------------------------------------|
----------------------------------------------------|
----------------------------------------------------|
----------------------------------------------------|
----------------------------------------------------|
----------------------------------------------------|


----------------------------|
-----6--6-----6--6-----5----|
-----7--7-----7--7-----6~---|
-----7--7-----7--7-----6~---|
-----5--5-----5--5-----4~---|
--0M-------0M-------0>------|


----------------------------------------------------|
--------6-----6-----------8--8--8--8--5--5--5--5----|
--------7-----7-----------9--9--9--9--6--6--6--6----|
--------7-----7-----------9--9--9--9--6--6--6--6----|
--------5-----5-----------7--7--7--7--4--4--4--4----|
--0M----------------0M------------------------------|


----------------------------|
-----6--6-----6--6-----5~---|
-----7--7-----7--7-----6~---|
-----7--7-----7--7-----6~---|
-----5--5-----5--5-----4~---|
--0M-------0M-------0>------|


----------------------------------------------------|
--------6-----6-----------3--3--3--3--5--5--5--5----|
--------7-----7-----------3--3--3--3--6--6--6--6----|
--------7-----7-----------3--3--3--3--6--6--6--6----|
--------5-----5-----------1--1--1--1--4--4--4--4----|
--0M----------------0M------------------------------|


----------------------------|
-----6--6-----6--6-----5----|
-----7--7-----7--7-----6~---|
-----7--7-----7--7-----6~---|
-----5--5-----5--5-----4~---|
--0M-------0M-------0>------|


----------------------------------------------------|
--------6-----6-----------8--8--8--8--5--5--5--5----|
--------7-----7-----------9--9--9--9--6--6--6--6----|
--------7-----7-----------9--9--9--9--6--6--6--6----|
--------5-----5-----------7--7--7--7--4--4--4--4----|
--0M----------------0M------------------------------|


----------------------------|
-----6--6-----6--6-----5~---|
-----7--7-----7--7-----6~---|
-----7--7-----7--7-----6~---|
-----5--5-----5--5-----4~---|
--0M-------0M-------0>------|


----------------------------------------------------|
--------6-----6-----------3--3--3--3--5--5--5--5----|
--------7-----7-----------3--3--3--3--6--6--6--6----|
--------7-----7-----------3--3--3--3--6--6--6--6----|
--------5-----5-----------1--1--1--1--4--4--4--4----|
--0M----------------0M------------------------------|


----------------------------------------------------||
----------------------------------------------------||
----------------------------------------------------||
----------------------------------------------------||
----------------------------------------------------||
----------------------------------------------------||

  Solo Section (it's only been one day, no solos for you)
---------------------------------------------------|
---------------------------------------------------|
o--------------------------------------------------|
o--------------------------------------------------|
-8--------7-----5-----------------------------4----|
----0M-0M----0M----8--0M-0M-0M-0M-0M-0--3--7-------|


----------------------------------------------------|
----------------------------------------------------|
----------------------------------------------------|
----------------------------------------------------|
--8--------7-----5--------------7--8--------8--10---|
-----0M-0M----0M----8--5M-5--5--------7--7----------|


----------------------------------------------------|
----------------------------------------------------|
----------------------------------------------------|
----------------------------------------------------|
--8--------7-----5-----------------------------4----|
-----0M-0M----0M----8--0M-0M-0M-0M-0M-0--3--7-------|

                                                       =       =       =
---------------------------------------------------||-------|-------|-------|
---------------------------------------------------||-------|-------|-------|
--------------------------------------------------o||-------|-------|-------|
--------------------------------------------------o||-------|-------|-------|
--------------------------4--0--4--5--8--7--5--0---||-------|-------|-------|
--8--8--8--8--8--8--8--8---------------------------||--3----|--3----|--2----|
                                                        Black Metal Section
  =       =       =       =  =       =  =       =       =       =       =
-------|-------|-------|----------|----------|-------|-------|-------|-------|
-------|-------|-------|----------|----------|-------|-------|-------|-------|
-------|-------|-------|----------|----------|-------|-------|-------|-------|
-------|-------|-------|----------|----------|-------|-------|-------|-------|
-------|-------|-------|----------|-----4----|-------|-------|-------|-------|
--2----|--5----|--5----|--3--7----|--8-------|--3----|--3----|--2----|--2----|

  =       =       =  =       =  =
-------|-------|----------|----------|
-------|-------|----------|----------|
-------|-------|----------|----------|
-------|-------|----------|----------|
-------|-------|----------|-----4----|
--5----|--5----|--3--7----|--8-------|
Guitar B

---------------|----------------|----------------|---------------||-------|
---------------|----------------|----------------|---------------||-------|
o--------------|----------------|----------------|--------------o||-------|
o--------------|----------------|----------------|--------------o||--6----|
---------------|----------------|----------------|---------------||-------|
---------------|----------------|----------------|---------------||-------|

  =  =       =       =  =       =       =  =       =  =       =  =       =
----------|-------|----------|-------|----------|----------|----------|-------|
----------|-------|----------|-------|----------|----------|----------|-------|
----------|-------|----------|--2----|--1-------|--1--5----|--6--8----|-------|
--4--2----|--4----|--2--1----|-------|-----4----|----------|----------|--6----|
----------|-------|----------|-------|----------|----------|----------|-------|
----------|-------|----------|-------|----------|----------|----------|-------|

  =  =       =       =  =       =       =  =       =  =       =  =
----------|-------|----------|-------|----------|----------|----------|
----------|-------|----------|-------|----------|----------|----------|
----------|-------|----------|--2----|--1-------|--1--5----|--6--8----|
--4--2----|--4----|--2--1----|-------|-----4----|----------|----------|
----------|-------|----------|-------|----------|----------|----------|
----------|-------|----------|-------|----------|----------|----------|
Melody in second part of Black metal section, after halfway it's really hard to hear, sorry
-------------------------------|-----------------------------------|
--3-----------3---------------|--3-------------3-------------------|
-----2--3--2-----2--3--2----|-----0--3--0--------2-----------------|
--0-----------0---------------|--0-------------0--3-----3----------|
-------------------------------|-----------------------------------|
-------------------------------|-----------------------------------|


-------------------------------|------------------------------|
--2-----------2---------------|--2-----------2----------------|
-----0--3--0-----0--3--0----|--------2-----------0------------|
-------------------------------|-----3-----3-----2-----2------|
--4-----------4---------------|--4-----------4----------------|
-------------------------------|------------------------------|







----------------------------------------------------|
--------------------------------------5~------------|
--------------------------------------6~------------|
--------------------------------------6~------------|
--------------------------------------4~------------|
--0--------------------------------0----------------|


----------------------------------------------------|
--------6-----6-----------8--8--8--8--5--5--5--5----|
--------7-----7-----------9--9--9--9--6--6--6--6----|
--------7-----7-----------9--9--9--9--6--6--6--6----|
--------5-----5-----------7--7--7--7--4--4--4--4----|
--0M----------------0M------------------------------|


----------------------------|
-----6--6-----6--6-----5~---|
-----7--7-----7--7-----6~---|
-----7--7-----7--7-----6~---|
-----5--5-----5--5-----4~---|
--0M-------0M-------0>------|


----------------------------------------------------|
--------6-----6-----------3--3--3--3--5--5--5--5----|
--------7-----7-----------3--3--3--3--6--6--6--6----|
--------7-----7-----------3--3--3--3--6--6--6--6----|
--------5-----5-----------1--1--1--1--4--4--4--4----|
--0M----------------0M------------------------------|


----------------------------|
-----6--6-----6--6-----5----|
-----7--7-----7--7-----6~---|
-----7--7-----7--7-----6~---|
-----5--5-----5--5-----4~---|
--0M-------0M-------0>------|


----------------------------------------------------|
--------6-----6-----------8--8--8--8--5--5--5--5----|
--------7-----7-----------9--9--9--9--6--6--6--6----|
--------7-----7-----------9--9--9--9--6--6--6--6----|
--------5-----5-----------7--7--7--7--4--4--4--4----|
--0M----------------0M------------------------------|


----------------------------|
-----6--6-----6--6-----5~---|
-----7--7-----7--7-----6~---|
-----7--7-----7--7-----6~---|
-----5--5-----5--5-----4~---|
--0M-------0M-------0>------|


----------------------------------------------------|
--------6-----6-----------3--3--3--3--5--5--5--5----|
--------7-----7-----------3--3--3--3--6--6--6--6----|
--------7-----7-----------3--3--3--3--6--6--6--6----|
--------5-----5-----------1--1--1--1--4--4--4--4----|
--0M----------------0M------------------------------|


----------------------------|
-----6--6-----6--6-----5----|
-----7--7-----7--7-----6~---|
-----7--7-----7--7-----6~---|
-----5--5-----5--5-----4~---|
--0M-------0M-------0>------|


----------------------------------------------------|
--------6-----6-----------8--8--8--8--5--5--5--5----|
--------7-----7-----------9--9--9--9--6--6--6--6----|
--------7-----7-----------9--9--9--9--6--6--6--6----|
--------5-----5-----------7--7--7--7--4--4--4--4----|
--0M----------------0M------------------------------|


----------------------------|
-----6--6-----6--6-----5~---|
-----7--7-----7--7-----6~---|
-----7--7-----7--7-----6~---|
-----5--5-----5--5-----4~---|
--0M-------0M-------0>------|


----------------------------------------------------|
--------6-----6-----------3--3--3--3--5--5--5--5----|
--------7-----7-----------3--3--3--3--6--6--6--6----|
--------7-----7-----------3--3--3--3--6--6--6--6----|
--------5-----5-----------1--1--1--1--4--4--4--4----|
--0M----------------0M------------------------------|


----------------------------|
-----6--6-----6--6-----5----|
-----7--7-----7--7-----6~---|
-----7--7-----7--7-----6~---|
-----5--5-----5--5-----4~---|
--0M-------0M-------0>------|


----------------------------------------------------|
--------6-----6-----------8--8--8--8--5--5--5--5----|
--------7-----7-----------9--9--9--9--6--6--6--6----|
--------7-----7-----------9--9--9--9--6--6--6--6----|
--------5-----5-----------7--7--7--7--4--4--4--4----|
--0M----------------0M------------------------------|


----------------------------|
-----6--6-----6--6-----5~---|
-----7--7-----7--7-----6~---|
-----7--7-----7--7-----6~---|
-----5--5-----5--5-----4~---|
--0M-------0M-------0>------|


----------------------------------------------------|
--------6-----6-----------3--3--3--3--5--5--5--5----|
--------7-----7-----------3--3--3--3--6--6--6--6----|
--------7-----7-----------3--3--3--3--6--6--6--6----|
--------5-----5-----------1--1--1--1--4--4--4--4----|
--0M----------------0M------------------------------|


----------------------------------------------------|
----------------------------------------------------|
----------------------------------------------------|
----------------------------------------------------|
----------------------------------------------------|
----------------------------------------------------|


----------------------------||
----------------------------||
----------------------------||
----------------------------||
--0-----0-----0-------------||
--0-----0-----0-------------||
comments
print report bad tab
2 comments total.
+1 reply
Majin Gaara wrote on June 30 2011, 02:25 pm

Few things: This tab is very close.

The intro that Matt play is actually this shape:

6 8
7 7
x x
5 5 etc.

The bridge section is slightly off. There's a little pull off part at the end of of the phrase that goes like:

D------------------
A--4p0h4h7/8\-7p4p0
D------------------

And that black metal section is full on chords being played. No one has the accurate and exact way it's played but I've gotten pretty close:

The chords go like this: Just move them around with the rhythm of the part

D-7--5--3----5--3--2----8--7--5----11-12-14
A-5--5--5----4--4--4----7--7--7----10-10-12
D-3--3--3----2--2--2----5--5--5----7--8--11

Just go watch 'em play this part on YouTube. You can see both Matt And Corey playing something just like this.

0 reply
ixshadowz wrote on July 14 2011, 08:30 am

SOOOOO CLOSE to perfect

I want to post or [tab]
guest
You may want to rate the tab now too:
select rating
Please do not post tabs as comments. Select "correction" instead!