Oops, an error
Loading. Please wait.

Dusk Dismantled Tab

ver2
ver2

Whole song

Interactive

More versions @911Tabs.com
14,038 views 27 this week
6 commentsread comments
1 2 3 4 5
excellent!
x 7
Autoscroll
+/-
esc
set tempo
stop
Contributor
Difficulty
Tuning
advanced
D# G# C# F# A# D#
Hey! There's an official Ultimate Guitar app which is ideal
for learning songs when you're away from computer. Get the app
WARNING: You are trying to view
                                    content from Ultimate-Guitar.com
                                    in an unauthorized application,
                                    which is prohibited.

                                    Please use an official Ultimate
                                    Guitar Tabs application for iPhone,
                                    iPad or Android to access legitimate
                                    chords, guitar, bass, and drum tabs
                                    from Ultimate-Guitar.com database.

                                    Type "ultimate guitar tabs" in Apple
                                    App Store's or Android Market's
                                    search to find the application.
TRIVIUM - DUSK DISMANTLED

Full song people, with a 99% correct solo. 
Emphasis on the solo people, it took me hours.



INTRO/CHORUS


Rythm 1
 D#||---------------------|-------------------------|
  A||---------------------|-------------------------|
 Gb||---------------------|-------------------------|
 Db||---------------------|-------------------------|
 Ab||---0--------0--------|-----0--------0------4---|
 Db||---0--------0--------|-----0--------0------2---|

Rythm 2
 D#||---------------------|-------------------------|
  A||---------------------|-------------------------|
 Gb||---------------------|-------------------------|
 Db||---------------------|-------------------------|
 Ab||---0--------0--------|-----0--------0------4---|
 Db||---0--------0--------|-----0--------0------2---|

Lead
 D#||---------------------|-------------------------|
  A||-----6-6-6-----------|---8-8-8-8---5-5-5-5-----|
 Gb||-----7-7-7-----------|---7-7-7-7---6-6-6-6-----|
 Db||---------------------|-------------------------|
 Ab||-----5-5-5-----------|---5-5-5-5---4-4-4-4-----|
 Db||---------------------|-------------------------|


Rythm 1
 D#|---------------------|-------------------------|
  A|---------------------|-------------------------|
 Gb|---------------------|-------------------------|
 Db|---------------------|-------------------------|
 Ab|---0--------0--------|-------------------------|
 Db|---0--------0--------|--5---5---5---2---2---2--|

Rythm 2
 D#|---------------------|-------------------------|
  A|---------------------|-------------------------|
 Gb|---------------------|-------------------------|
 Db|---------------------|-------------------------|
 Ab|---0--------0--------|-------------------------|
 Db|---0--------0--------|--14--14--14--11--11--11-|

Lead
 D#|---------------------|-------------------------|
  A|-----6-6-6-----------|---8-8-8-8---5-5-5-5-----|
 Gb|-----7-7-7-----------|---9-9-9-9---6-6-6-6-----|
 Db|---------------------|-------------------------|
 Ab|-----5-5-5-----------|---7-7-7-7---4-4-4-4-----|
 Db|---------------------|-------------------------|


Rythm 1
 D#|---------------------|-------------------------|
  A|---------------------|-------------------------|
 Gb|---------------------|-------------------------|
 Db|---------------------|-------------------------|
 Ab|---0--------0--------|-----0--------0------4---|
 Db|---0--------0--------|-----0--------0------2---|

Rythm 2
 D#|---------------------|-------------------------|
  A|---------------------|-------------------------|
 Gb|---------------------|-------------------------|
 Db|---------------------|-------------------------|
 Ab|---0--------0--------|-----0--------0------4---|
 Db|---0--------0--------|-----0--------0------2---|

Lead
 D#|---------------------|-------------------------|
  A|-----6-6-6-----------|---8-8-8-8---5-5-5-5-----|
 Gb|-----7-7-7-----------|---7-7-7-7---6-6-6-6-----|
 Db|---------------------|-------------------------|
 Ab|-----5-5-5-----------|---5-5-5-5---4-4-4-4-----|
 Db|---------------------|-------------------------|


Rythm 1
 D#|---------------------|-------------------------||
  A|---------------------|-------------------------||o
 Gb|---------------------|-------------------------||
 Db|---------------------|-------------------------||
 Ab|---0--------0--------|-------------------------||o
 Db|---0--------0--------|--4--4--4---7---7---7----||

Rythm 2
 D#|---------------------|-------------------------||
  A|---------------------|-------------------------||o
 Gb|---------------------|-------------------------||
 Db|---------------------|-------------------------||
 Ab|---0--------0--------|-------------------------||o
 Db|---0--------0--------|--8--8--8---11--11--11---||

Lead
 D#|---------------------|-------------------------||
  A|-----6-6-6-----------|--2-2-2-2---5-5-5-5------||o
 Gb|-----7-7-7-----------|--3-3-3-3---6-6-6-6------||
 Db|---------------------|-------------------------||
 Ab|-----5-5-5-----------|--1-1-1-1---4-4-4-4------||o
 Db|---------------------|-------------------------||

(repeat a second time)




VERSE A

Rythm 1
 D#||---------------------|-------------------------|
  A||---------------------|-------------------------|
 Gb||---------------------|-------------------------|
 Db||---------------------|-------------------------|
 Ab||---------------------|-------------------------|
 Db||--3\---0---0---0---0-|-0-0-0-0-0-0-0-0-0-0-0-0-|

Rythm 2
 D#||---------------------|-------------------------|
  A||---------------------|-------------------------|
 Gb||---------------------|-------------------------|
 Db||---------------------|-------------------------|
 Ab||---------------------|-------------------------|
 Db||--12\--0---0---0---0-|-0-0-0-0-0-0-0-0-0-0-0-0-|

Lead
 D#||---------------------|-------------------------|
  A||---------------------|-------------------------|
 Gb||9-9-9-9-9-9-9-9-9-9--|-9-9-9-9-9-9-9-9-9-9-9-9-|
 Db||---------------------|-------------------------|
 Ab||---------------------|-------------------------|
 Db||---------------------|-------------------------|


Rythm 1
 D#|---------------------|-------------------------|
  A|---------------------|-------------------------|
 Gb|---------------------|-------------------------|
 Db|---------------------|-------------------------|
 Ab|---------------------|-------------------------|
 Db|--3\---0---0---0---0-|----5----------2---------|

Rythm 2
 D#|---------------------|-------------------------|
  A|---------------------|-------------------------|
 Gb|---------------------|-------------------------|
 Db|---------------------|-------------------------|
 Ab|---------------------|-------------------------|
 Db|--12\--0---0---0---0-|----14---------11--------|

Lead
 D#|---------------------|-------------------------|
  A|---------------------|-------------------------|
 Gb|-9-9-9-9-9-9-9-9-9-9-|-9-9-9-9-9-9s6-6-6-6-6-6-|
 Db|---------------------|-------------------------|
 Ab|---------------------|-------------------------|
 Db|---------------------|-------------------------|


Rythm 1
 D#|---------------------|-------------------------|
  A|---------------------|-------------------------|
 Gb|---------------------|-------------------------|
 Db|---------------------|-------------------------|
 Ab|---------------------|-------------------------|
 Db|--3\---0---0---0---0-|-0-0-0-0-0-0-0-0-0-0-0-0-|

Rythm 2
 D#|---------------------|-------------------------|
  A|---------------------|-------------------------|
 Gb|---------------------|-------------------------|
 Db|---------------------|-------------------------|
 Ab|---------------------|-------------------------|
 Db|--12\--0---0---0---0-|-0-0-0-0-0-0-0-0-0-0-0-0-|

Lead
 D#|---------------------|-------------------------|
  A|---------------------|-------------------------|
 Gb|-9-9-9-9-9-9-9-9-9-9-|-9-9-9-9-9-9-9-9-9-9-9-9-|
 Db|---------------------|-------------------------|
 Ab|---------------------|-------------------------|
 Db|---------------------|-------------------------|


Rythm 1
 D#|---------------------|-------------------------||
  A|---------------------|-------------------------||o
 Gb|---------------------|-------------------------||
 Db|---------------------|-------------------------||
 Ab|---------------------|-------------------------||o
 Db|--3\---0---0---0---0-|----5----------2---------||

Rythm 2
 D#|---------------------|-------------------------||
  A|---------------------|-------------------------||o
 Gb|---------------------|-------------------------||
 Db|---------------------|-------------------------||
 Ab|---------------------|-------------------------||o
 Db|--12\--0---0---0---0-|----14---------11--------||

Lead
 D#|---------------------|-------------------------||
  A|---------------------|-------------8-8-8-8-8-8-||o
 Gb|-9-9-9-9-9-9-9-9-9-9-|-9-9-9-9-9-9-------------||
 Db|---------------------|-------------------------||
 Ab|---------------------|-------------------------||o
 Db|---------------------|-------------------------||

(repeat a second time)





VERSE B

Rythm 1
 D#||---------------------|-------------------------|
  A||---------------------|-------------------------|
 Gb||---------------------|-------------------------|
 Db||---------------------|-------------------------|
 Ab||---------------------|-------------------------|
 Db||--6\---3---3---3---3-|-3-3-3-3-3-3-3-3-3-3-3-3-|

Rythm 2
 D#||---------------------|-------------------------|
  A||---------------------|-------------------------|
 Gb||---------------------|-------------------------|
 Db||---------------------|-------------------------|
 Ab||---------------------|-------------------------|
 Db||-15\---3---3---3---3-|-3-3-3-3-3-3-3-3-3-3-3-3-|



Rythm 1
 D#|---------------------|-------------------------||
  A|---------------------|-------------------------||o
 Gb|---------------------|-------------------------||
 Db|---------------------|-------------------------||
 Ab|---------------------|-------------------------||o
 Db|--6\---3---3---3---3-|---8--------8s5~~--------||

Rythm 2
 D#|---------------------|-------------------------||
  A|---------------------|-------------------------||o
 Gb|---------------------|-------------------------||
 Db|---------------------|-------------------------||
 Ab|---------------------|-------------------------||o
 Db|-15\---3---3---3---3-|---17------17s14~~-------||

(repeat a second time)





VERSE C


Rythm 1
 D#||---------------------|-------------------------|
  A||---------------------|-------------------------|
 Gb||---------------------|-------------------------|
 Db||---------------------|-------------------------|
 Ab||---------------------|-------------------------|
 Db||--9\---6---6---6---6-|-6-6-6-6-6-6-6-6-6-6-6-6-|

Rythm 2
 D#||---------------------|-------------------------|
  A||---------------------|-------------------------|
 Gb||---------------------|-------------------------|
 Db||---------------------|-------------------------|
 Ab||---------------------|-------------------------|
 Db||-18\---6---6---6---6-|-6-6-6-6-6-6-6-6-6-6-6-6-|



Rythm 1
 D#|---------------------|-------------------------||
  A|---------------------|-------------------------||o
 Gb|---------------------|-------------------------||
 Db|---------------------|-------------------------||
 Ab|---------------------|-------------------------||o
 Db|--9\---6---6---6---6-|---11-------11s8~~-------||

Rythm 2
 D#|---------------------|-------------------------||
  A|---------------------|-------------------------||o
 Gb|---------------------|-------------------------||
 Db|---------------------|-------------------------||
 Ab|---------------------|-------------------------||o
 Db|-18\---6---6---6---6-|---20------20s17~~-------||





PRE-SOLO

(to lazy to tab out all these low end notes, 
props to staryj_84 for this riff)

Rythm 1
 D#||---------------------|-------------------------|
  A||---------------------|-------------------------|
 Gb||---------------------|-------------------------|
 Db||---------------------|-------------------------|
 Ab||-8-------7-----5-----|----------------------4--|
 Db||----0-0-----0----8p5-|-0--0--0--0--0--3--7-----|

Rythm 2
 D#||---------------------|-------------------------|
  A||---------------------|-------------------------|
 Gb||---------------------|-------------------------|
 Db||---------------------|-------------------------|
 Ab||-0-------------------|----------------------4--|
 Db||-0-------------------|-------------0--3--7-----|


Rythm 1
 D#|---------------------|-------------------------|
  A|---------------------|-------------------------|
 Gb|---------------------|-------------------------|
 Db|---------------------|-------------------------|
 Ab|-8-------7-----5-----|-------7--8--------8--10-|
 Db|----0-0-----0----8p5-|-5--5--------7--7--------|

Rythm 2
 D#|---------------------|-------------------------|
  A|---------------------|-------------------------|
 Gb|---------------------|-------------------------|
 Db|---------------------|-------------------------|
 Ab|-8-------7-----5-----|-------7--8--------8--10-|
 Db|----0-0-----0----8p5-|-5--5--------7--7--------|


Rythm 1
 D#|---------------------|-------------------------|
  A|---------------------|-------------------------|
 Gb|---------------------|-------------------------|
 Db|---------------------|-------------------------|
 Ab|-8-------7-----5-----|----------------------4--|
 Db|----0-0-----0----8p5-|-0--0--0--0--0--3--7-----|

Rythm 2
 D#|---------------------|-------------------------|
  A|---------------------|-------------------------|
 Gb|---------------------|-------------------------|
 Db|---------------------|-------------------------|
 Ab|-8-------7-----5-----|----------------------4--|
 Db|----0-0-----0----8p5-|-0--0--0--0--0--3--7-----|


Rythm 1
 D#|---------------------|-------------------------|
  A|---------------------|-------------------------|
 Gb|---------------------|-------------------------|
 Db|---------------------|-------------------------|
 Ab|---------------------|-4--0--4--5--8--7--5--4--|
 Db|-8-8-8-8-8-8-8-8-8-8-|-------------------------|

Rythm 2
 D#|---------------------|-------------------------|
  A|---------------------|-------------------------|
 Gb|---------------------|-------------------------|
 Db|---------------------|-------------------------|
 Ab|---------------------|-4--0--4--5--8--7--5--4--|
 Db|-8-8-8-8-8-8-8-8-8-8-|-------------------------|


Rythm 1
 D#|---------------------|-------------------------|
  A|---------------------|-------------------------|
 Gb|---------------------|-------------------------|
 Db|---------------------|-------------------------|
 Ab|-8-------7-----5-----|----------------------4--|
 Db|----0-0-----0----8p5-|-0--0--0--0--0--3--7-----|

Rythm 2
 D#|---------------------|-------------------------|
  A|---------------------|-------------------------|
 Gb|---------------------|-------------------------|
 Db|---------------------|-------------------------|
 Ab|-8-------7-----5-----|----------------------4--|
 Db|----0-0-----0----8p5-|-0--0--0--0--0--3--7-----|


Rythm 1
 D#|---------------------|-------------------------|
  A|---------------------|-------------------------|
 Gb|---------------------|-------------------------|
 Db|---------------------|-------------------------|
 Ab|-8-------7-----5-----|-------7--8--------8--10-|
 Db|----0-0-----0----8p5-|-5--5--------7--7--------|

Rythm 2
 D#|---------------------|-------------------------|
  A|---------------------|-------------------------|
 Gb|---------------------|-------------------------|
 Db|---------------------|-------------------------|
 Ab|-8-------7-----5-----|-------7--8--------8--10-|
 Db|----0-0-----0----8p5-|-5--5--------7--7--------|


Rythm 1
 D#|---------------------|-------------------------|
  A|---------------------|-------------------------|
 Gb|---------------------|-------------------------|
 Db|---------------------|-------------------------|
 Ab|-8-------7-----5-----|----------------------4--|
 Db|----0-0-----0----8p5-|-0--0--0--0--0--3--7-----|

Rythm 2
 D#|---------------------|-------------------------|
  A|---------------------|-------------------------|
 Gb|---------------------|-------------------------|
 Db|---------------------|-------------------------|
 Ab|-8-------7-----5-----|----------------------4--|
 Db|----0-0-----0----8p5-|-0--0--0--0--0--3--7-----|


Rythm 1
 D#|---------------------|-------------------------||
  A|---------------------|-------------------------||
 Gb|---------------------|-------------------------||
 Db|---------------------|-------------------------||
 Ab|---------------------|-4--0--4--5--8--7--5--4--||
 Db|-8-8-8-8-8-8-8-8-8-8-|-------------------------||

Rythm 2
 D#|---------------------|-------------------------||
  A|---------------------|-------------------------||
 Gb|---------------------|-------------------------||
 Db|---------------------|-------------------------||
 Ab|---------------------|-4--0--4--5--8--7--5--4--||
 Db|-8-8-8-8-8-8-8-8-8-8-|-------------------------||




SOLO

(this was hard work m'k. 99% correct, 
even double-checked the Young Guitar vid demonstration)

Rythm 1
 D#||-----------------------------|-----------------------------|
  A||-----------------------------|-----------------------------|
 Gb||-----------------------------|-----------------------------|
 Db||-----------------------------|-----------------------------|
 Ab||--8---------7------5---------|--------------------------4--|
 Db||-----0---0------0------8p5---|--0--0--0--0---0---3---7-----|

Lead
 D#||-17-13------13-17-12------13-|-17-13------13-18-13------13-|
  A||------15--15--------15--15---|------15--15--------15--15---|
 Gb||--------14------------14-----|--------14------------14-----|
 Db||-----------------------------|-----------------------------|
 Ab||-----------------------------|-----------------------------|
 Db||-----------------------------|-----------------------------|


Rythm 1
 D#|-----------------------------|---------------------------|
  A|-----------------------------|---------------------------|
 Gb|-----------------------------|---------------------------|
 Db|-----------------------------|---------------------------|
 Ab|--8---------7-------5--------|--------7--8--------8--10--|
 Db|-----0---0------0------8p5---|--5--5--------7--7---------|

Lead
 D#|-18-13------13-17-12------13-|-15-12------12s9------9-13-|
  A|------15--15--------15--15---|------14--14----11--11-----|
 Gb|--------14------------14-----|--------12--------10-------|
 Db|-----------------------------|---------------------------|
 Ab|-----------------------------|---------------------------|
 Db|-----------------------------|---------------------------|


Rythm 1
 D#|----------------------|-------------------------|
  A|----------------------|-------------------------|
 Gb|----------------------|-------------------------|
 Db|----------------------|-------------------------|
 Ab|-8-------7-----5------|----------------------4--|
 Db|----0-0-----0----8p5--|-0--0--0--0--0--3--7-----|


Lead
 D#|-12-----/15----/18----|--/21------21b22~~~~-----|
  A|----11-----14-----17--|-----20------------------|
 Gb|----------------------|-------------------------|
 Db|----------------------|-------------------------|
 Ab|----------------------|-------------------------|
 Db|----------------------|-------------------------|



Rythm 1
 D#|-------------------------------------|----------------------------|
  A|-------------------------------------|----------------------------|
 Gb|-------------------------------------|----------------------------|
 Db|-------------------------------------|----------------------------|
 Ab|-------------------------------------|--4--0--4--5--8--7--5--4----|
 Db|--8---8---8---8---8--8---8--8--8--8--|----------------------------|

Lead
 D#|-22-20-18-22-18\17-20-18-17----------|----------------------------|
  A|----------------------------20-18-17-|-15-18-17-15----------------|
 Gb|-------------------------------------|-------------17-15-{14}~~~--|
 Db|-------------------------------------|----------------------------|
 Ab|-------------------------------------|----------------------------|
 Db|-------------------------------------|----------------------------|



Rythm 1
 D#|----------------------------------|----------------------------------|
  A|----------------------------------|----------------------------------|
 Gb|----------------------------------|----------------------------------|
 Db|----------------------------------|----------------------------------|
 Ab|---8-----------7--------5---------|------------------------------4---|
 Db|-------0----0------0-------8p5----|--0---0---0---0---0---3---7-------|

Lead
 D#|----------------------------------|----------------------------------|
  A|-T--------T-------T---------------|-T--------T-------T---------------|
 Gb|-14-7h10-14-7h10-14/15\14-10p7h10-|-14-7h10-14-7h10-14/15\14-10p7h10-|
 Db|----------------------------------|----------------------------------|
 Ab|----------------------------------|----------------------------------|
 Db|----------------------------------|----------------------------------|


Rythm 1
 D#|---------------------|-------------------------|
  A|---------------------|-------------------------|
 Gb|---------------------|-------------------------|
 Db|---------------------|-------------------------|
 Ab|-8-------7-----5-----|-------7--8--------8--10-|
 Db|----0-0-----0----8p5-|-5--5--------7--7--------|

Lead
 D#|------------------------------|------------------------------|
  A|--T------T------T-------------|--T------T-----T--------------|
 Gb|-12-6h9-12-6h9-12/14\12-9p6h9-|-12-6h9-12-6h9-12/14\12-9p6h9-|
 Db|------------------------------|------------------------------|
 Ab|------------------------------|------------------------------|
 Db|------------------------------|------------------------------|


Rythm 1
 D#|---------------------|-------------------------|
  A|---------------------|-------------------------|
 Gb|---------------------|-------------------------|
 Db|---------------------|-------------------------|
 Ab|-8-------7-----5-----|----------------------4--|
 Db|----0-0-----0----8p5-|-0--0--0--0--0--3--7-----|


Lead
 D#|-------------------------|---------------------------------|
  A|-------------------------|---------------------------------|
 Gb|------------------7-9-10-|------------------------10-12-14-|
 Db|------5-7-8-8-7-10-------|--------8-10-12-10-12-14---------|
 Ab|-5-7-8-------------------|-8-10-12-------------------------|
 Db|-------------------------|---------------------------------|



Rythm 1
 D#|-----------------------------------|----------------------------------||
  A|-----------------------------------|----------------------------------||
 Gb|-----------------------------------|----------------------------------||
 Db|-----------------------------------|----------------------------------||
 Ab|-----------------------------------|--4---0---4---5---8---7---5---4---||
 Db|--8---8--8--8--8--8--8--8--8---8---|----------------------------------||

Lead
 D#|-----------------------------------|---------17-18-20--------18-20-22-||
  A|--------------------------15-17-18-|-17-18-20--------18-20-22---------||
 Gb|---------12-14-15-14-15-17---------|----------------------------------||
 Db|-12-14-15--------------------------|----------------------------------||
 Ab|-----------------------------------|----------------------------------||
 Db|-----------------------------------|----------------------------------||




BRIDGE/POST SOLO


Rythm 1
 D#||---------------------|-------------------------|
  A||---------------------|-------------------------|
 Gb||---------------------|-------------------------|
 Db||-7-7-7-7-7-7-7-7-7-7-|-7-7-7-7-7-7-7-7-7-7-7-7-|
 Ab||---------------------|-------------------------|
 Db||---------------------|-------------------------|


Rythm 2
 D#||---------------------|-------------------------|
  A||---------------------|-------------------------|
 Gb||---------------------|-------------------------|
 Db||---------------------|-------------------------|
 Ab||---------------------|-------------------------|
 Db||-3-3-3-3-3-3-3-3-3-3-|-3-3-3-3-3-3-3-3-3-3-3-3-|

Lead
 D#||-24(dive)------------|-(24)--------------------|
  A||---------------------|-------------------------|
 Gb||---------------------|-------------------------|
 Db||---------------------|-------------------------|
 Ab||---------------------|-------------------------|
 Db||---------------------|-------------------------|


Rythm 1
 D#|---------------------|-------------------------|
  A|---------------------|-------------------------|
 Gb|---------------------|-------------------------|
 Db|-5-5-5-5-5-5-5-5-5-5-|-3-3-3-3-3-3-3-3-3-3-3-3-|
 Ab|---------------------|-------------------------|
 Db|---------------------|-------------------------|


Rythm 2
 D#|---------------------|-------------------------|
  A|---------------------|-------------------------|
 Gb|---------------------|-------------------------|
 Db|---------------------|-------------------------|
 Ab|---------------------|-------------------------|
 Db|-3-3-3-3-3-3-3-3-3-3-|-3-3-3-3-3-3-3-3-3-3-3-3-|

Lead
 D#|---------------------|-------------------------|
  A|-8-8-8-8-8-8-8-8-8-8-|-6-6-6-6-6-6-6-6-6-6-6-6-|
 Gb|---------------------|-------------------------|
 Db|---------------------|-------------------------|
 Ab|---------------------|-------------------------|
 Db|---------------------|-------------------------|


Rythm 1
 D#|---------------------|-------------------------|
  A|---------------------|-------------------------|
 Gb|---------------------|-------------------------|
 Db|-5-5-5-5-5-5-5-5-5-5-|-5-5-5-5-5-5-5-5-5-5-5-5-|
 Ab|---------------------|-------------------------|
 Db|---------------------|-------------------------|


Rythm 2
 D#|---------------------|-------------------------|
  A|---------------------|-------------------------|
 Gb|---------------------|-------------------------|
 Db|---------------------|-------------------------|
 Ab|---------------------|-------------------------|
 Db|-2-2-2-2-2-2-2-2-2-2-|-2-2-2-2-2-2-2-2-2-2-2-2-|

Lead
 D#|---------------------|-------------------------|
  A|-8-8-8-8-8-8-8-8-8-8-|-8-8-8-8-8-8-8-8-8-8-8-8-|
 Gb|---------------------|-------------------------|
 Db|---------------------|-------------------------|
 Ab|---------------------|-------------------------|
 Db|---------------------|-------------------------|


Rythm 1
 D#|---------------------|-------------------------|
  A|---------------------|-------------------------|
 Gb|---------------------|-------------------------|
 Db|-3-3-3-3-3-3-3-3-3-3-|-2-2-2-2-2-2-2-2-2-2-2-2-|
 Ab|---------------------|-------------------------|
 Db|---------------------|-------------------------|


Rythm 2
 D#|---------------------|-------------------------|
  A|---------------------|-------------------------|
 Gb|---------------------|-------------------------|
 Db|---------------------|-------------------------|
 Ab|---------------------|-------------------------|
 Db|-2-2-2-2-2-2-2-2-2-2-|-2-2-2-2-2-2-2-2-2-2-2-2-|

Lead
 D#|---------------------|-------------------------|
  A|-6-6-6-6-6-6-6-6-6-6-|-5-5-5-5-5-5-5-5-5-5-5-5-|
 Gb|---------------------|-------------------------|
 Db|---------------------|-------------------------|
 Ab|---------------------|-------------------------|
 Db|---------------------|-------------------------|


Rythm 1
 D#|----------------------------|-------------------------|
  A|----------------------------|-------------------------|
 Gb|----------------------------|-------------------------|
 Db|-8-8-8-8-8-8-8-8-8-8-8-8-8--|-8-8-8-8-8-8-8-8-8-8-8-8-|
 Ab|----------------------------|-------------------------|
 Db|----------------------------|-------------------------|


Rythm 2
 D#|----------------------------|-------------------------|
  A|----------------------------|-------------------------|
 Gb|----------------------------|-------------------------|
 Db|----------------------------|-------------------------|
 Ab|----------------------------|-------------------------|
 Db|-5-5-5-5-5-5-5-5-5-5-5-5-5--|-5-5-5-5-5-5-5-5-5-5-5-5-|

Lead
 D#|----------------------------|-------------------------|
  A|-11-11-11-11-11-11-11-11-11-|-11-11-11-11-11-11-11-11-|
 Gb|----------------------------|-------------------------|
 Db|----------------------------|-------------------------|
 Ab|----------------------------|-------------------------|
 Db|----------------------------|-------------------------|


Rythm 1
 D#|----------------------|-------------------------|
  A|----------------------|-------------------------|
 Gb|----------------------|-------------------------|
 Db|-7-7-7-7-7-7-7-7-7-7--|-5-5-5-5-5-5-5-5-5-5-5-5-|
 Ab|----------------------|-------------------------|
 Db|----------------------|-------------------------|


Rythm 2
 D#|----------------------|-------------------------|
  A|----------------------|-------------------------|
 Gb|----------------------|-------------------------|
 Db|----------------------|-------------------------|
 Ab|----------------------|-------------------------|
 Db|-5-5-5-5-5-5-5-5-5-5--|-5-5-5-5-5-5-5-5-5-5-5-5-|

Lead
 D#|----------------------|-------------------------|
  A|-10-10-10-10-10-10-10-|-8-8-8-8-8-8-8-8-8-8-8-8-|
 Gb|----------------------|-------------------------|
 Db|----------------------|-------------------------|
 Ab|----------------------|-------------------------|
 Db|----------------------|-------------------------|


Rythm 1
 D#|---------------------|-------------------------|
  A|---------------------|-------------------------|
 Gb|---------------------|-6-6-6-6-6-6-6-6-6-6-6-6-|
 Db|-7-7-7-7-7-7-7-7-7-7-|-------------------------|
 Ab|---------------------|-------------------------|
 Db|---------------------|-------------------------|


Rythm 2
 D#|---------------------|-------------------------|
  A|---------------------|-------------------------|
 Gb|---------------------|-------------------------|
 Db|---------------------|-------------------------|
 Ab|---------------------|-------------------------|
 Db|-3-3-3-3-3-3-3-3-3-3-|-7-7-7-7-7-7-7-7-7-7-7-7-|

Lead
 D#|----------------------|-9-9-9-9-9-9-9-9-9-9-9-9-|
  A|-10-10-10-10-10-10-10-|-------------------------|
 Gb|----------------------|-------------------------|
 Db|----------------------|-------------------------|
 Ab|----------------------|-------------------------|
 Db|----------------------|-------------------------|


Rythm 1
 D#|----------------------|-------------------------||
  A|----------------------|-------------------------||o
 Gb|-7-7-7-7-7-7-7-7-7-7--|-9-9-9-9-9-9-9-9-9-9-9-9-||
 Db|----------------------|-------------------------||
 Ab|----------------------|-------------------------||o
 Db|----------------------|-------------------------||


Rythm 2
 D#|----------------------|-------------------------||
  A|----------------------|-------------------------||o
 Gb|----------------------|-------------------------||
 Db|----------------------|-------------------------||
 Ab|----------------------|-------------------------||o
 Db|-8-8-8-8-8-8-8-8-8-8--|-11-11-11-11-11-11-11-11-||

Lead
 D#|-10-10-10-10-10-10-10-|-12-12-12-12-12-12-12-12-||
  A|----------------------|-------------------------||o
 Gb|----------------------|-------------------------||
 Db|----------------------|-------------------------||
 Ab|----------------------|-------------------------||o
 Db|----------------------|-------------------------||


(repeat a second time)




Rythm 1
 D#||---------------------||
  A||---------------------||
 Gb||---------------------||
 Db||---------------------||
 Ab||-0-------------------||
 Db||-0-------------------||

Lead
 D#||---------------------||
  A||---------------------||
 Gb||---------------------||
 Db||-15\-----------------||
 Ab||-17\-----------------||
 Db||---------------------||




OUTRO CHORUS

Rythm 1
 D#||---------------------|-------------------------|
  A||---------------------|-------------------------|
 Gb||---------------------|-------------------------|
 Db||---------------------|-------------------------|
 Ab||---------------------|-------------------------|
 Db||--0----3---3---3--0--|----5--------5\2---------|

Rythm 2
 D#||---------------------|-------------------------|
  A||---------------------|-------------------------|
 Gb||---------------------|-------------------------|
 Db||---------------------|-------------------------|
 Ab||---------------------|-------------------------|
 Db||--0----3---3---3--0--|----14-------14\11~~~----|

Lead
 D#||---------------------|-------------------------|
  A||-----6-6-6-----------|--8-8-8-8---5-5-5-5------|
 Gb||-----7-7-7-----------|--7-7-7-7---6-6-6-6------|
 Db||---------------------|-------------------------|
 Ab||-----5-5-5-----------|--5-5-5-5---4-4-4-4------|
 Db||---------------------|-------------------------|


Rythm 1
  D|---------------------|-------------------------|
  A|---------------------|-------------------------|
 Gb|---------------------|-------------------------|
 Db|---------------------|-------------------------|
 Ab|---------------------|-------------------------|
 Db|--0----3---3---3--0--|----2--------2/5---------|


Rythm 2
 D#|---------------------|-------------------------|
  A|---------------------|-------------------------|
 Gb|---------------------|-------------------------|
 Db|---------------------|-------------------------|
 Ab|---------------------|-------------------------|
 Db|--0----3---3---3--0--|----11------11/14~~~-----|

Lead
 D#|---------------------|-------------------------|
  A|-----6-6-6-----------|--8-8-8-8---5-5-5-5------|
 Gb|-----7-7-7-----------|--9-9-9-9---6-6-6-6------|
 Db|---------------------|-------------------------|
 Ab|-----5-5-5-----------|--7-7-7-7---4-4-4-4------|
 Db|---------------------|-------------------------|


Rythm 1
 D#|---------------------|-------------------------|
  A|---------------------|-------------------------|
 Gb|---------------------|-------------------------|
 Db|---------------------|-------------------------|
 Ab|---------------------|-------------------------|
 Db|--0----3---3---3--0--|----5--------5\2---------|

Rythm 2
 D#|---------------------|-------------------------|
  A|---------------------|-------------------------|
 Gb|---------------------|-------------------------|
 Db|---------------------|-------------------------|
 Ab|---------------------|-------------------------|
 Db|--0----3---3---3--0--|----14-------14\11~~~----|

Lead
 D#|---------------------|-------------------------|
  A|-----6-6-6-----------|--8-8-8-8---5-5-5-5------|
 Gb|-----7-7-7-----------|--7-7-7-7---6-6-6-6------|
 Db|---------------------|-------------------------|
 Ab|-----5-5-5-----------|--5-5-5-5---4-4-4-4------|
 Db|---------------------|-------------------------|


Rythm 1
  D|---------------------|-------------------------||
  A|---------------------|-------------------------||
 Gb|---------------------|-------------------------||
 Db|---------------------|-------------------------||
 Ab|---------------------|-------------------------||
 Db|--0----3---3---3--0--|----2--------2/5---------||

Rythm 2
 D#|---------------------|-------------------------||
  A|---------------------|-------------------------||
 Gb|---------------------|-------------------------||
 Db|---------------------|-------------------------||
 Ab|---------------------|-------------------------||
 Db|--0----3---3---3--0--|----11------11/14~~~-----||

Lead
 D#|---------------------|-------------------------||
  A|-----6-6-6-----------|--2-2-2-2---5-5-5-5------||
 Gb|-----7-7-7-----------|--3-3-3-3---6-6-6-6------||
 Db|---------------------|-------------------------||
 Ab|-----5-5-5-----------|--1-1-1-1---4-4-4-4------||
 Db|---------------------|-------------------------||


Rythm 1
 D#||---------------------|-------------------------||
  A||---------------------|-------------------------||
 Gb||---------------------|-------------------------||
 Db||---------------------|-------------------------||
 Ab||---0-------0---------|----0--------------------||
 Db||---0-------0---------|----0--------------------||


Rythm 2
 D#||---------------------|-------------------------||
  A||---------------------|-------------------------||
 Gb||---------------------|-------------------------||
 Db||---------------------|-------------------------||
 Ab||---0-------0---------|----0--------------------||
 Db||---0-------0---------|----0--------------------||



Thats it. I assume finding out the order of the parts to be an easy
task. 

email mjd_beef@live.com
comments
print report bad tab
6 comments total. Showing first comments.
0 reply
AssViolater wrote on August 10 2011, 12:31 pm

nice work on the solo, checked out the young guitar dvd on Youtube myself nigguh.
tho im prety sure its 5's on the B string and not 9s on the G string for the Verse part fyi...

0 reply
slipknot836 wrote on August 10 2011, 02:55 pm

Nice tab dude, five stars ;D

+1 reply
I'mADrummer! wrote on August 14 2011, 08:27 am

Dude, I'm pretty sure this is in drop C# not just a half step down.

I want to post or [tab]
guest
You may want to rate the tab now too:
select rating
Please do not post tabs as comments. Select "correction" instead!