Oops, an error
Loading. Please wait.

Dusk Dismantled Tab

ver3
ver3

Whole song

Interactive

More versions @911Tabs.com
1,500 views 1 this week
no commentswrite comment
1 2 3 4 5
excellent!
x 4
Autoscroll
+/-
esc
set tempo
stop
Contributor
Difficulty
Tuning
advanced
C# G# C# F# A# D#
Hey! There's an official Ultimate Guitar app which is ideal
for learning songs when you're away from computer. Get the app
WARNING: You are trying to view
                                    content from Ultimate-Guitar.com
                                    in an unauthorized application,
                                    which is prohibited.

                                    Please use an official Ultimate
                                    Guitar Tabs application for iPhone,
                                    iPad or Android to access legitimate
                                    chords, guitar, bass, and drum tabs
                                    from Ultimate-Guitar.com database.

                                    Type "ultimate guitar tabs" in Apple
                                    App Store's or Android Market's
                                    search to find the application.
Band:  Trivium
Song:  Dusk Dismantled
Album: In Waves

Tuning: Drop C# (C#, G#, C#, F#, A#, D#)
(Tune all strings down half a step then drop tune)

I rechecked over different versions to see that some parts were missing 
(No offense is meant in the part above) 

Certain chords in the verses, Some faster stuff and the picking arpeggio in 
The After Solo Breakdown Verse (Leaving This World Behind) 
I've noticed different chords in videos done by Trivium: Here it is
http://www.youtube.com/watch?v=WqvDqgycLkk


Please rate, comment, correct, anything that helps :)

Hammer on:      h
Pull off:       p
Slide up:       /
Slide down:     \
Bend up:        BU(?)
Tapped note:    T
Vibrato:        ~~~
Pinch Harmonic: PH
Dive Bomb:      DB

Guitar 1:        Matt Heafy
Guitar 2:        Corey Beaulieu
Guitar 3:        Corey Beaulieu


_________________________________________________________________________


Intro/Chorus
Guitar 1
|---------------------------------|---------------------------------|
|-----6-6-6-6-----8-8-8-8---5~----|-----6-6-6-6-----8-8-8-8-5-5-5-5-|
|-----7-7-7-7-----7-7-7-7---6~----|-----7-7-7-7-----9-9-9-9-6-6-6-6-|
|---------------------------------|---------------------------------|
|-----5-5-5-5-----5-5-5-5---4~----|-----5-5-5-5-----7-7-7-7-4-4-4-4-|
|-0-----------------------0-------|-0-------------------------------|
|
|Guitar 2
|---------------------------------|---------------------------------|
|---------------------------------|---------------------------------|
|---------------------------------|---------------------------------|
|---------------------------------|---------------------------------|
|-0-------0-------0---------4~----|-0-------0-------7-7-7-7-4-4-4-4-|
|-0-------0-------0-------0-2~----|-0-------0-------5-5-5-5-2-2-2-2-|

Guitar 1
|---------------------------------|---------------------------------|
|-----6-6-6-6-----8-8-8-8---5~----|-----6-6-6-6-----2-2-2-2-5-5-5-5-|
|-----7-7-7-7-----7-7-7-7---6~----|-----7-7-7-7-----3-3-3-3-6-6-6-6-|
|---------------------------------|---------------------------------|
|-----5-5-5-5-----5-5-5-5---4~----|-----5-5-5-5-----1-1-1-1-4-4-4-4-|
|-0-----------------------0-------|-0-------------------------------|
|
|Guitar 2
|---------------------------------|---------------------------------|
|---------------------------------|---------------------------------|
|---------------------------------|---------------------------------|
|---------------------------------|---------------------------------|
|-0-------0-------0---------4~----|-0-------0-------1-1-1-1-4-4-4-4-|
|-0-------0-------0-------0-2~----|-0-------0-------5-5-5-5-7-7-7-7-|

_________________________________________________________________________


Verse 1
Guitar 1
|---------------------------------|---------------------------------|
|---------------------------------|---------------------------------|
|---------------------------------|---------------------------------|
|---------------------------------|---------------------------------|
|-5\------------------------------|-5\--------------7-7-7-7-4-4-4-4-|
|-3\------0-0-0-0-0-0-0-0-0-0-0-0-|-3\------0-0-0-0-5-5-5-5-2-2-2-2-|
|
|Guitar 2
|---------------------------------|---------------------------------|
|---------------------------------|---------------------------------|
|-9-9-9-9-9-9-9-9-9-9-9-9-9-9-9-9-|-9-9-9-9-9-9-9-9-9-9-9-9-6-6-6-6-|
|---------------------------------|---------------------------------|
|-7-7-7-7-7-7-7-7-7-7-7-7-7-7-7-7-|-7-7-7-7-7-7-7-7-7-7-7-7-4-4-4-4-|
|---------------------------------|---------------------------------|

Guitar
|---------------------------------|---------------------------------|
|---------------------------------|---------------------------------|
|---------------------------------|---------------------------------|
|---------------------------------|---------------------------------|
|-5\------------------------------|-5\--------------7-7-7-7-4-4-4-4-|
|-3\------0-0-0-0-0-0-0-0-0-0-0-0-|-3\------0-0-0-0-5-5-5-5-2-2-2-2-|
|
|Guitar 2
|---------------------------------|-------------------------------------|
|---------------------------------|-------------------------------------|
|-9-9-9-9-9-9-9-9-9-9-9-9-9-9-9-9-|-9-9-9-9-9-9-9-9-9-9-9-9-12-12-12-12-|
|---------------------------------|-------------------------------------|
|-7-7-7-7-7-7-7-7-7-7-7-7-7-7-7-7-|-7-7-7-7-7-7-7-7-7-7-7-7-10-10-10-10-|
|---------------------------------|-------------------------------------|

Guitar 1
|---------------------------------|---------------------------------|
|---------------------------------|---------------------------------|
|---------------------------------|---------------------------------|
|---------------------------------|---------------------------------|
|-5\------------------------------|-5\--------------7-7-7-7-4-4-4-4-|
|-3\------0-0-0-0-0-0-0-0-0-0-0-0-|-3\------0-0-0-0-5-5-5-5-2-2-2-2-|
|
|Guitar 2
|---------------------------------|---------------------------------|
|---------------------------------|---------------------------------|
|-9-9-9-9-9-9-9-9-9-9-9-9-9-9-9-9-|-9-9-9-9-9-9-9-9-9-9-9-9-6-6-6-6-|
|---------------------------------|---------------------------------|
|-7-7-7-7-7-7-7-7-7-7-7-7-7-7-7-7-|-7-7-7-7-7-7-7-7-7-7-7-7-4-4-4-4-|
|---------------------------------|---------------------------------|

Guitar 1
|---------------------------------|---------------------------------|
|---------------------------------|---------------------------------|
|---------------------------------|---------------------------------|
|---------------------------------|---------------------------------|
|-5\------------------------------|-5\--------------4-4-4-4-7-7-7-7-|
|-3\------0-0-0-0-0-0-0-0-0-0-0-0-|-3\------0-0-0-0-2-2-2-2-5-5-5-5-|
|
|Guitar 2
|---------------------------------|-------------------------------------|
|---------------------------------|-------------------------------------|
|-9-9-9-9-9-9-9-9-9-9-9-9-9-9-9-9-|-9-9-9-9-9-9-9-9-9-9-9-9-12-12-12-12-|
|---------------------------------|-------------------------------------|
|-7-7-7-7-7-7-7-7-7-7-7-7-7-7-7-7-|-7-7-7-7-7-7-7-7-7-7-7-7-10-10-10-10-|
|---------------------------------|-------------------------------------|

_________________________________________________________________________


Verse 2
Both guitars
|---------------------------------|---------------------------------|
|---------------------------------|---------------------------------|
|---------------------------------|---------------------------------|
|---------------------------------|---------------------------------|
|-8\------------------------------|-8\--------------8-8-8-8-7-7-7-7-|
|-6\------3-3-3-3-3-3-3-3-3-3-3-3-|-6\------3-3-3-3-6-6-6-6-5-5-5-5-|

|---------------------------------|-------------------------------------|
|---------------------------------|-------------------------------------|
|---------------------------------|-------------------------------------|
|---------------------------------|-------------------------------------|
|-8\------------------------------|-8\--------------7-7-7-7-10-10-10-10-|
|-6\------3-3-3-3-3-3-3-3-3-3-3-3-|-6\------3-3-3-3-5-5-5-5--8--8--8--8-|

|----------------------------------|------------------------------------------|
|----------------------------------|------------------------------------------|
|----------------------------------|------------------------------------------|
|----------------------------------|------------------------------------------|
|-11\------------------------------|-11\--------------11-11-11-11-10-10-10-10-|
|--9\------9-9-9-9-9-9-9-9-9-9-9-9-|--9\------9-9-9-9--9--9--9--9--8--8--8--8-|

|----------------------------------|------------------------------------------|
|----------------------------------|------------------------------------------|
|----------------------------------|------------------------------------------|
|----------------------------------|------------------------------------------|
|-11\------------------------------|-11\--------------10-10-10-10-13-13-13-13-|
|--9\------9-9-9-9-9-9-9-9-9-9-9-9-|--9\------9-9-9-9--8--8--8--8-11-11-11-11-|

_________________________________________________________________________


Repeat Intro/Chorus

Repeat Verse 1

Repeat Verse 2

_________________________________________________________________________


Breakdown
Guitar 1
|---------------------------------|
|---------------------------------|
|---------------------------------|
|---------------------------------|
|-8-----7---5-----------------0h4-|
|---0-0---0---8p5-0-0-0-0-0h3-----|
|
|Guitar 2
|---------------------------------|
|---------------------------------|
|---------------------------------|
|---------------------------------|
|-----------------------------0h4-|
|-------------------------0h3-----|

Both guitars
|----------------------------------|
|----------------------------------|
|----------------------------------|
|----------------------------------|
|-8-----7---5---------7h8-----8h10-|
|---0-0---0---8p5-5-5-----5-5------|

|---------------------------------|
|---------------------------------|
|---------------------------------|
|---------------------------------|
|-8-----7---5-----------------0h4-|
|---0-0---0---8p5-0-0-0-0-0h3-----|

|---------------------------------|
|---------------------------------|
|---------------------------------|
|---------------------------------|
|-----------------4p0h4h7/8\7p4p0-|
|-8-8-8-8-8-8-8-8-----------------|

_________________________________________________________________________


Solo
Guitar 1 (Rhythm)
|---------------------------------|----------------------------------|
|---------------------------------|----------------------------------|
|---------------------------------|----------------------------------|
|---------------------------------|----------------------------------|
|-8-----7---5-----------------0h4-|-8-----7---5---------7h8-----8h10-|
|---0-0---0---8p5-0-0-0-0-0h3-----|---0-0---0---8p5-5-5-----5-5------|

|---------------------------------|---------------------------------|
|---------------------------------|---------------------------------|
|---------------------------------|---------------------------------|
|---------------------------------|---------------------------------|
|-8-----7---5-----------------0h4-|-----------------4p0h4h7/8\7p4p0-|
|---0-0---0---8p5-0-0-0-0-0h3-----|-8-8-8-8-8-8-8-8-----------------|

Guitar 2 (Lead)
|-17p13------13-17p12------12-17p13------13-18p13------13-|
|------15--15--------15--15--------15--15--------15--15---|
|--------14------------14------------14------------14-----|
|---------------------------------------------------------|
|---------------------------------------------------------|
|---------------------------------------------------------|

|-17p13------13-17p12------12-15p12------12-12p9-----12-|
|------15--15--------15--15--------14--14-------11-11---|
|--------14------------14------------12-----------9-----|
|-------------------------------------------------------|
|-------------------------------------------------------|
|-------------------------------------------------------|

|-/12~~~~~-15~~~~~-18~~~~~-21~~~~~-22~~~~~~-|
|-----11~~----14~~----17~~----20~~----------|
|-------------------------------------------|
|-------------------------------------------|
|-------------------------------------------|
|-------------------------------------------|

|-22-20-18-22-20-18-17-20-18-17---------------------------------|
|-------------------------------20-18-17-18-17-15---------------|
|-------------------------------------------------17-15-14PH~~~-|
|---------------------------------------------------------------|
|---------------------------------------------------------------|
|---------------------------------------------------------------|

   T       T       T               T       T       T
|-------------------------------|-------------------------------|
|-------------------------------|-------------------------------|
|-14p7h10-14p7h10-14/15\14p10p7-|-14p7h10-14p7h10-14/15\14p10p7-|
|-------------------------------|-------------------------------|
|-------------------------------|-------------------------------|
|-------------------------------|-------------------------------|

   T      T      T              T      T      T
|----------------------------|----------------------------|
|----------------------------|----------------------------|
|-12p6h9-12p6h9-12/14\12p6h9-|-12p6h9-12p6h9-12/14\12p6h9-|
|----------------------------|----------------------------|
|----------------------------|----------------------------|
|----------------------------|----------------------------|

|---------------------------|-----------------------------------|
|---------------------------|-----------------------------------|
|--------------------7-9-10-|--------------------------10-12-14-|
|-------5-7-8-7-8-10--------|---------8-10-12-10-12-14----------|
|-5-7-8---------------------|-8-10-12---------------------------|
|---------------------------|-----------------------------------|

|-------------------------------------|----------17-18-20----------18-20-22-|
|----------------------------15-17-18-|-17-18-20----------18-20-22----------|
|----------12-14-15-14-15-17----------|-------------------------------------|
|-12-14-15----------------------------|-------------------------------------|
|-------------------------------------|-------------------------------------|
|-------------------------------------|-------------------------------------|

|-24DB~~~~~~~~~(22)~~~~-|
|-----------------------|
|-----------------------|
|-----------------------|
|-----------------------|
|-----------------------|

_________________________________________________________________________


After Solo Breakdown
Guitar 1
|-------------------------------------------------|
|-------------------------------------------------|
|-------------------------------------------------|
|-------------------------------------------------|
|-5-5-5-5-5-5-5-5-5-5-5-5-5-5-5-5-5-5-5-5-5-5-5-5-|
|-3-3-3-3-3-3-3-3-3-3-3-3-3-3-3-3-3-3-3-3-3-3-3-3-|
|
|Guitar 2
|-------------------------------------------------|
|-------------------------------------------------|
|-------------------------------------------------|
|-7-7-7-7-7-7-7-7-7-7-7-7-7-7-7-7-7-7-7-7-7-7-7-7-|
|-------------------------------------------------|
|-------------------------------------------------|

Guitar 1
|-------------------------------------------------|
|-------------------------------------------------|
|-------------------------------------------------|
|-------------------------------------------------|
|-5-5-5-5-5-5-5-5-5-5-5-5-5-5-5-5-5-5-5-5-5-5-5-5-|
|-3-3-3-3-3-3-3-3-3-3-3-3-3-3-3-3-3-3-3-3-3-3-3-3-|
|
|Guitar 2
|-------------------------------------------------|
|-------------------------------------------------|
|-------------------------------------------------|
|-5-5-5-5-5-5-5-5-5-5-5-5-3-3-3-3-3-3-3-3-3-3-3-3-|
|-------------------------------------------------|
|-------------------------------------------------|

Guitar 1
|-------------------------------------------------|
|-------------------------------------------------|
|-------------------------------------------------|
|-------------------------------------------------|
|-4-4-4-4-4-4-4-4-4-4-4-4-4-4-4-4-4-4-4-4-4-4-4-4-|
|-2-2-2-2-2-2-2-2-2-2-2-2-2-2-2-2-2-2-2-2-2-2-2-2-|
|
|Guitar 2
|-------------------------------------------------|
|-------------------------------------------------|
|-------------------------------------------------|
|-5-5-5-5-5-5-5-5-5-5-5-5-5-5-5-5-5-5-5-5-5-5-5-5-|
|-------------------------------------------------|
|-------------------------------------------------|

Guitar 1
|-------------------------------------------------|
|-------------------------------------------------|
|-------------------------------------------------|
|-------------------------------------------------|
|-4-4-4-4-4-4-4-4-4-4-4-4-4-4-4-4-4-4-4-4-4-4-4-4-|
|-2-2-2-2-2-2-2-2-2-2-2-2-2-2-2-2-2-2-2-2-2-2-2-2-|
|
|Guitar 2
|-------------------------------------------------|
|-------------------------------------------------|
|-------------------------------------------------|
|-3-3-3-3-3-3-3-3-3-3-3-3-2-2-2-2-2-2-2-2-2-2-2-2-|
|-------------------------------------------------|
|-------------------------------------------------|

Guitar 1
|-------------------------------------------------|
|-------------------------------------------------|
|-------------------------------------------------|
|-------------------------------------------------|
|-7-7-7-7-7-7-7-7-7-7-7-7-7-7-7-7-7-7-7-7-7-7-7-7-|
|-5-5-5-5-5-5-5-5-5-5-5-5-5-5-5-5-5-5-5-5-5-5-5-5-|
|
|Guitar 2
|-------------------------------------------------|
|-------------------------------------------------|
|-------------------------------------------------|
|-8-8-8-8-8-8-8-8-8-8-8-8-8-8-8-8-8-8-8-8-8-8-8-8-|
|-------------------------------------------------|
|-------------------------------------------------|

Guitar 1
|-------------------------------------------------|
|-------------------------------------------------|
|-------------------------------------------------|
|-------------------------------------------------|
|-7-7-7-7-7-7-7-7-7-7-7-7-7-7-7-7-7-7-7-7-7-7-7-7-|
|-5-5-5-5-5-5-5-5-5-5-5-5-5-5-5-5-5-5-5-5-5-5-5-5-|
|
|Guitar 2
|-------------------------------------------------|
|-------------------------------------------------|
|-------------------------------------------------|
|-7-7-7-7-7-7-7-7-7-7-7-7-5-5-5-5-5-5-5-5-5-5-5-5-|
|-------------------------------------------------|
|-------------------------------------------------|

Guitar 1
|-------------------------------------------------------------|
|-------------------------------------------------------------|
|-------------------------------------------------------------|
|-------------------------------------------------------------|
|-5-5-5-5-5-5-5-5-5-5-5-5-10-10-10-10-10-10-10-10-10-10-10-10-|
|-3-3-3-3-3-3-3-3-3-3-3-3--7--7--7--7--7--7--7--7--7--7--7--7-|
|
|Guitar 2
|-------------------------------------------------------------|
|-------------------------------------------------------------|
|-------------------------------------------------------------|
|-7-7-7-7-7-7-7-7-7-7-7-7-11-11-11-11-11-11-11-11-11-11-11-11-|
|-------------------------------------------------------------|
|-------------------------------------------------------------|

Guitar 1
|-------------------------------------------------------------------------|
|-------------------------------------------------------------------------|
|-------------------------------------------------------------------------|
|-------------------------------------------------------------------------|
|-10-10-10-10-10-10-10-10-10-10-10-10-12-12-12-12-12-12-12-12-12-12-12-12-|
|--8--8--8--8--8--8--8--8--8--8--8--8-11-11-11-11-11-11-11-11-11-11-11-11-|
|
|Guitar 2
|-------------------------------------------------------------------------|
|-------------------------------------------------------------------------|
|-------------------------------------------------------------------------|
|-11-11-11-11-11-11-11-11-11-11-11-11-14-14-14-14-14-14-14-14-14-14-14-14-|
|-------------------------------------------------------------------------|
|-------------------------------------------------------------------------|


The second time this is played
An additional 3rd guitar recorded
By Corey play an arpeggio over the chords

Guitar 3
|---------------------------------|---------------------------------|
|---------------------------------|---------------------------------|
|---------3---------------3-------|---------3---------------2-------|
|-----7-------7-------7-------7---|-----5-------5-------3-------3---|
|-5---------------5---------------|-5---------------5---------------|
|---------------------------------|---------------------------------|

|---------------------------------|---------------------------------|
|---------------------------------|---------------------------------|
|---------3---------------3-------|---------2---------------0-------|
|-----5-------5-------5-------5---|-----3-------3-------2-------2---|
|-4---------------4---------------|-4---------------4---------------|
|---------------------------------|---------------------------------|

|---------------------------------|---------------------------------|
|---------------------------------|-------------------------5-------|
|---------0---------------0-------|---------6-----------------------|
|-----8-------8-------8-------8---|-----7-------7-------5-------5---|
|-7---------------7---------------|-7---------------7---------------|
|---------------------------------|---------------------------------|

|-----------------------------------|---------------------------------|
|-----------------------------------|---------------------------------|
|---------7----------------12-------|-----7-------7---6---------------|
|-----3-------3--------8--------8---|-7-------7-----------7-------7---|
|-5---------------10----------------|-------------------------7-------|
|-----------------------------------|---------------------------------|

_________________________________________________________________________


Repeat Chorus


_________________________________________________________________________


Final chorus
Guitar 1
|---------------------------------|---------------------------------|
|-----6-6-6-6-----8-8-8-8---5~----|-----6-6-6-6-----8-8-8-8-5-5-5-5-|
|-----7-7-7-7-----7-7-7-7---6~----|-----7-7-7-7-----9-9-9-9-6-6-6-6-|
|---------------------------------|---------------------------------|
|-----5-5-5-5-----5-5-5-5---4~----|-----5-5-5-5-----7-7-7-7-4-4-4-4-|
|-0-----------------------0-------|-0-------------------------------|
|
|Guitar 2
|---------------------------------|---------------------------------|
|---------------------------------|---------------------------------|
|---------------------------------|---------------------------------|
|---------------------------------|---------------------------------|
|-----5-5-5-5-----7-7-7-7-7\4~----|-----5-5-5-5-----7-7-7-7-4-4-4-4-|
|-0---3-3-3-3-----5-5-5-5-5\2~----|-0---3-3-3-3-----5-5-5-5-2-2-2-2-|

Guitar 1
|---------------------------------|---------------------------------|
|-----6-6-6-6-----8-8-8-8---5~----|-----6-6-6-6-----2-2-2-2-5-5-5-5-|
|-----7-7-7-7-----7-7-7-7---6~----|-----7-7-7-7-----3-3-3-3-6-6-6-6-|
|---------------------------------|---------------------------------|
|-----5-5-5-5-----5-5-5-5---4~----|-----5-5-5-5-----1-1-1-1-4-4-4-4-|
|-0-----------------------0-------|-0-------------------------------|
|
|Guitar 2
|---------------------------------|---------------------------------|
|---------------------------------|---------------------------------|
|---------------------------------|---------------------------------|
|---------------------------------|---------------------------------|
|-----5-5-5-5-----7-7-7-7-7\4~----|-----5-5-5-5-----1-1-1-1-4-4-4-4-|
|-0---3-3-3-3-----5-5-5-5-5\2~----|-0---3-3-3-3-----5-5-5-5-7-7-7-7-|

Both guitars
|---------------------------------|
|---------------------------------|
|-our-----ex------i-------stance--|
|---------------------------------|
|-0-------0-------0---------------|
|-0-------0-------0---------------|
comments
print report bad tab
I want to post or [tab]
guest
You may want to rate the tab now too:
select rating
Please do not post tabs as comments. Select "correction" instead!