Oops, an error
Loading. Please wait.

Dying In Your Arms Tab

ver3
ver3
More versions @911Tabs.com
34,833 views 87 this week
36 commentsread comments
1 2 3 4 5
accurate
x 42
Autoscroll
+/-
esc
set tempo
stop
Contributor
Difficulty
Tuning
novice
D A D G B E
WARNING: You are trying to view
                                    content from Ultimate-Guitar.com
                                    in an unauthorized application,
                                    which is prohibited.

                                    Please use an official Ultimate
                                    Guitar Tabs application for iPhone,
                                    iPad or Android to access legitimate
                                    chords, guitar, bass, and drum tabs
                                    from Ultimate-Guitar.com database.

                                    Type "ultimate guitar tabs" in Apple
                                    App Store's or Android Market's
                                    search to find the application.
Can't believe you idiots didn't do the whole song.... ill do it

Intro/Chorus
|-------15---------------------------|-----------------------------------|
|-13-12----12-13~--12--12-13-12------|-13-12-13-12-13~-12--12-13-12------|
|-------------------14--------14-12--|-------------------14--------14-12-|x2
|------------------------------------|-----------------------------------|
|------------------------------------|-----------------------------------|
|------------------------------------|-----------------------------------|
 
Verse
 Gtrs I, II
  PM----M-----M-----M-------|
|------------------------------|----|
|------------------------------|----|
|------------------------------|----|
|-7-7---2-2---3-3---5-5---2-2--|----|
|-7-7---2-2---3-3---5-5---2-2--|----|
|-7-7---2-2---3-3---5-5---2-2--|----|

Prechorus
  Gtr I
|--------------------|--------------------|
|--------------------|--------------------|
|-9-9-9-7-7-12-12-12-|-9-9-9-7-7-12-12-12-|
|--------------------|--------------------|
|-7-7-7-5-5-10-10-10-|-7-7-7-5-5-10-10-10-|
|--------------------|--------------------|
|
| Gtr II
|--------------------|--------------------|
|--------------------|--------------------|
|--------------------|--------------------|
|-7-7-7-7-7--7--7--7-|-7-7-7-7-7--7--7--7-|
|-7-7-7-7-7--7--7--7-|-7-7-7-7-7--7--7--7-|
|-7-7-7-7-7--7--7--7-|-7-7-7-7-7--7--7--7-|


|--------------------|--------------------|
|--------------------|--------------------|
|-9-9-9-7-7-12-12-12-|-9-9-9-7-7-12-12-12-|
|--------------------|--------------------|
|-7-7-7-5-5-10-10-10-|-7-7-7-5-5-10-10-10-|
|--------------------|--------------------|
|
|--------------------|--------------------|
|--------------------|--------------------|
|--------------------|--------------------|
|-0-0-0-0-0--0--0--0-|-0-0-0-0-0--0--0--0-|
|-0-0-0-0-0--0--0--0-|-0-0-0-0-0--0--0--0-|
|-0-0-0-0-0--0--0--0-|-0-0-0-0-0--0--0--0-|


  Gtr I
|--------------------|--------------------|
|--------------------|--------------------|
|-9-9-9-7-7-12-12-12-|-9-9-9-7-7-12-12-12-|
|--------------------|--------------------|
|-7-7-7-5-5-10-10-10-|-7-7-7-5-5-10-10-10-|
|--------------------|--------------------|
|
| Gtr II
|--------------------|--------------------|
|--------------------|--------------------|
|--------------------|--------------------|
|-3-3-3-3-3--3--3--3-|-3-3-3-3-3--3--3--3-|
|-3-3-3-3-3--3--3--3-|-3-3-3-3-3--3--3--3-|
|-3-3-3-3-3--3--3--3-|-3-3-3-3-3--3--3--3-|

|--------------------|--------------------|
|--------------------|--------------------|
|-9-9-9-7-7-12-12-12-|-9-9-9-7-7-12-12-12-|
|--------------------|--------------------|
|-7-7-7-5-5-10-10-10-|-7-7-7-5-5-10-10-10-|
|--------------------|--------------------|
|
|--------------------|--------------------|
|--------------------|--------------------|
|--------------------|--------------------|
|-5-5-5-5-5--5--5--5-|-2-2-2-2-2--2--2--2-|
|-5-5-5-5-5--5--5--5-|-2-2-2-2-2--2--2--2-|
|-5-5-5-5-5--5--5--5-|-2-2-2-2-2--2--2--2-|

Chorus
Verse
Pre chorus
Chorus x2
Bridge
|----------------|
|----------------|
|----------------|
|-7-2-3~--7-3-5~-| x2
|-7-2-3~--7-3-5~-|
|-7-2-3~--7-3-5~-|

Solo

-------|
Part 1-|
-------|

Guitar 1
E|----------------------------------------------------------------------8--|
B|-13\10-10-10-10/12-12-12\8-8-8/10-10\5-5-3~-----------------------------8|
G|-----------------------------------------------4~-4h5h7-7-9-9~-----7h9---|
D|-------------------------------------------------------------------------|
A|-------------------------------------------------------------------------|
D|-------------------------------------------------------------------------|


  Guitar 1
E|--12-10~----------15-13-12----12-----------------------------------------|
B|------------13-------------15----15-12----------------121315-------------|
G|---------------12----------------------12~-----141214--------------------|
D|-------------------------------------------------------------------------|
A|-------------------------------------------------------------------------|
D|-------------------------------------------------------------------------|

|--------|
|-Part-2-|
|--------|
 
 Guitar 1
E|12p8--8h12p8h12p8----8h12p8h12p8----8---10p7---7h10p7h10p7--7h10p--------|
B|----10------------10-------------10----------8-------------8-------------|
G|-------------------------------------------------------------------------|
D|-------------------------------------------------------------------------|
A|-------------------------------------------------------------------------|
D|-------------------------------------------------------------------------|


  Guitar 2 (harmony)
E|-------------------------------------------------------------------------|
B|-------------------------------------------------------------------------|
G|--9p5---5h9p5h9p5---5h9p5h9p5---5--------7p4---4h7p4h7p4--4h7p4h7p4---4--|
D|------7-----------7-----------7--------------5-----------5----------5----|
A|-------------------------------------------------------------------------|
D|-------------------------------------------------------------------------|


  Guitar 1
E|--7h10p7---7----------5h8p5---5h8p5h8p5---5h8p5h8p5---5--------|
B|---------8------------------6-----------6-----------6----------|
G|---------------------------------------------------------------|
D|---------------------------------------------------------------|
A|---------------------------------------------------------------|
D|---------------------------------------------------------------|


  Guitar 2 (harmony)
E|--------------------------------------|
B|--------------------------------------|
G|--2h5p2---2h5p2h5p2---2h5p2h5p2--2----|
D|--------3-----------3-----------3-----|
A|--------------------------------------|
D|--------------------------------------|


  Guitar 1
E|-13-12-10---12-10-------10-----------------=----------|
B|----------13------13-12----13-12-10-13-12-10----------|
G|---------------------------------------------12-------|
D|------------------------------------------------------|
A|------------------------------------------------------|
D|------------------------------------------------------|


  Guitar 2 (harmony)
E|------------------------------------------------------|
B|------------------------------------------------------|
G|---10-9-7----9-7------7-------------------------------|
D|----------10-----10-9---10-9-7-10-9-7-----------------|
A|------------------------------------------------------|
D|------------------------------------------------------|

part 1 x1
part 2 x2

Chorus:
|-------------------------------------------------------------------|
|-------------------------------------------------------------------|
|-------------------------------------------------------------------|
|--7---7---------------------------2---2----------------------------|
|--7---7---------------------------2---2----------------------------|
|--7---7---------------------------2---2----------------------------|
PM .   .                           .   .

|-------------------------------------------------------------------|
|-13------12--13------12--13----------12------12--13--12------------|
|-----------------------------------------14--------------14--12----|
|-------------------------------------------------------------------|
|-------------------------------------------------------------------|
|-------------------------------------------------------------------|
|
|
|-------------------------------------------------------------------|
|-------------------------------------------------------------------|
|-------------------------------------------------------------------|
|--3---3---3---3---3---3---3-------5---5---5---5---2---2---2---2----|
|--3---3---3---3---3---3---3-------5---5---5---5---2---2---2---2----|
|--3---3---3---3---3---3---3-------5---5---5---5---2---2---2---2----|


|---------------------15--------------------------------------------|
|-13------12--13----------13----------12------12--13--12------------|
|-----------------------------------------14--------------14--12----|
|-------------------------------------------------------------------|
|-------------------------------------------------------------------|
|-------------------------------------------------------------------|
|
|
|-------------------------------------------------------------------|
|-------------------------------------------------------------------|
|-------------------------------------------------------------------|
|--7---7---7---7---7---7---7-------2---2---2---2---2---2---2---2----|
|--7---7---7---7---7---7---7-------2---2---2---2---2---2---2---2----|
|--7---7---7---7---7---7---7-------2---2---2---2---2---2---2---2----|


|-------------------------------------------------------------------|
|-13------12--13------12--13----------12------12--13--12------------|
|-----------------------------------------14--------------14--12----|
|-------------------------------------------------------------------|
|-------------------------------------------------------------------|
|-------------------------------------------------------------------|
|
|
|-------------------------------------------------------------------|
|-------------------------------------------------------------------|
|-------------------------------------------------------------------|
|--3---3---3---3---3---3---3-------5---5---5---5---2---2---2---2----|
|--3---3---3---3---3---3---3-------5---5---5---5---2---2---2---2----|
|--3---3---3---3---3---3---3-------5---5---5---5---2---2---2---2----|


|---------------------17--------------------------------------------|
|-15------14--15----------15----------14------14--17--14------------|
|o----------------------------------------16--------------16--14----|
|o------------------------------------------------------------------|
|-------------------------------------------------------------------|
|-------------------------------------------------------------------|
|
|
|-------------------------------------------------------------------|
|-------------------------------------------------------------------|
|o------------------------------------------------------------------|
|o-9---9---9---9---9---9---9-------4---4---4---4---4---4---4---4----|
|--9---9---9---9---9---9---9-------4---4---4---4---4---4---4---4----|
|--9---9---9---9---9---9---9-------4---4---4---4---4---4---4---4----|

                                                            (Play 4x)
|-------------------------------------------------------------------|
|-15------14--15------14--15----------14------14--15--14------------|
|-----------------------------------------16--------------16--14---o|
|------------------------------------------------------------------o|
|-------------------------------------------------------------------|
|-------------------------------------------------------------------|
|
|                                                           (Play 4x)
|-------------------------------------------------------------------|
|-------------------------------------------------------------------|
|------------------------------------------------------------------o|
|--5---5---5---5---5---5---5-------7---7---7---7---4---4---4---4---o|
|--5---5---5---5---5---5---5-------7---7---7---7---4---4---4---4----|
|--5---5---5---5---5---5---5-------7---7---7---7---4---4---4---4----|

Outro
|-----------------|
|-----------------|
|-----------------|
|-0-8-0-7-5s7s5-0-|
|-0-8-0-7-5s7s5-0-|
|-0-8-0-7-5s7s5-0-|
36 comments total. Showing first comments.
0 reply
shugo449 wrote on November 22 2006, 09:13 am

dude amazing!!!!! its actually acurate, unlike the others!!!! Great job, keep it up.5*5*5*5*5*5*5*5*5*5*5*5*5*5*5*

0 reply
zackvalo16 wrote on November 22 2006, 10:39 am

this is crayz accurate man!!..especially the solo!! 5*

+2 reply
lil-miss wrote on November 22 2006, 03:05 pm

|---------15-------------------------|
|-13-12-13---12-13-12---12-13-12-----|
|--------------------14--------14-12-|
|------------------------------------|
|------------------------------------|
|------------------------------------|

I always thought the intro was played like that ^^^^ 4 times. maybe i was wrong

I want to post or [tab]
guest
You may want to rate the tab now too:
select rating
Please do not post tabs as comments. Select "correction" instead!