Oops, an error
Loading. Please wait.

Dying In Your Arms Tab

ver4
ver4
More versions @911Tabs.com
8,485 views 12 this week
2 commentsread comments
1 2 3 4 5
accurate
x 6
Autoscroll
+/-
esc
set tempo
stop
Contributor
Difficulty
intermediate
WARNING: You are trying to view
                                    content from Ultimate-Guitar.com
                                    in an unauthorized application,
                                    which is prohibited.

                                    Please use an official Ultimate
                                    Guitar Tabs application for iPhone,
                                    iPad or Android to access legitimate
                                    chords, guitar, bass, and drum tabs
                                    from Ultimate-Guitar.com database.

                                    Type "ultimate guitar tabs" in Apple
                                    App Store's or Android Market's
                                    search to find the application.
guitar one(rythem)-
intro
|-----------------------------------------------------------------|
|-----------------------------------------------------------------|
|-----------------------------------------------------------------|
|-7-7-7-7-7-7-7-7-2-2-2-2-2-2-2-2-3-3-3-3-3-3-3-3-5-5-5-5-2-2-2-2-|
|-7-7-7-7-7-7-7-7-2-2-2-2-2-2-2-2-3-3-3-3-3-3-3-3-5-5-5-5-2-2-2-2-|
|-7-7-7-7-7-7-7-7-2-2-2-2-2-2-2-2-3-3-3-3-3-3-3-3-5-5-5-5-2-2-2-2-|

|-----------------------------------------------------------------|
|-----------------------------------------------------------------|
|-----------------------------------------------------------------|
|-7-7-7-7-7-7-7-7-2-2-2-2-2-2-2-2-3-3-3-3-3-3-3-3-5-5-5-5-2-2-2-2-|
|-7-7-7-7-7-7-7-7-2-2-2-2-2-2-2-2-3-3-3-3-3-3-3-3-5-5-5-5-2-2-2-2-|
|-7-7-7-7-7-7-7-7-2-2-2-2-2-2-2-2-3-3-3-3-3-3-3-3-5-5-5-5-2-2-2-2-|

guitar 2 (lead)-
|-8--7-8---15----------------------------------------------------------------|
|-------------13--12-10-12-13-12-10---13--12-13---12-13--12-10-12-13-12-10---|
|----------------------------------12-------------------------------------12-|
|----------------------------------------------------------------------------|
|----------------------------------------------------------------------------|
|----------------------------------------------------------------------------|

|---------15------------------------------------------------------------|
|13-12-13---13-12-10-12-13-12-10---13-12-13--12-13-12-10-12-13-12-10----|
|-------------------------------12-----------------------------------12-|
|-----------------------------------------------------------------------|
|-----------------------------------------------------------------------|
|-----------------------------------------------------------------------|

verse 1 (both guitars)-

PM----------------------------------------------------------------|
|-----------------------------------------------------------------|
|-----------------------------------------------------------------|
|-----------------------------------------------------------------|
|-----------------------------------------------------------------|
|-7-7----0-0----3-3----5-5---2-2----------------------------------|
|-7-7----0-0----3-3----5-5---2-2----------------------------------|

pre chorus (rythem)-

|-----------------------------------------------------------------|
|-----------------------------------------------------------------|
|-----------------------------------------------------------------|
|-----------------------------------------------------------------|
|-7-7-7-7-7-7-7-7-7-7-7-7-7-7-7-7-0-0-0-0-0-0-0-0-0-0-0-0-0-0-0-0-|
|-7-7-7-7-7-7-7-7-7-7-7-7-7-7-7-7-0-0-0-0-0-0-0-0-0-0-0-0-0-0-0-0-|

|-----------------------------------------------------------------|
|-----------------------------------------------------------------|
|-----------------------------------------------------------------|
|-----------------------------------------------------------------|
|-3-3-3-3-3-3-3-3-3-3-3-3-3-3-3-3-5-5-5-5-5-5-5-5-2-2-2-2-2-2-2-2-|
|-3-3-3-3-3-3-3-3-3-3-3-3-3-3-3-3-5-5-5-5-5-5-5-5-2-2-2-2-2-2-2-2-|

guitar 2 (lead)-

|-------------------|
|-------------------|
|-9-9-9-7-7-7-12-12-|
|-------------------|  X4
|-7-7-7-5-5-5-10-10-|
|-------------------|

|-------------------|      |-----------------|
|-------------------|      |-----------------|
|-10-10-10-9-9-9-5-5-|     |-4-4-4-4-5-4-5-7-|
|-------------------|  x3  |-----------------|
|--8--8--8-7-7-7-3-3-|     |-2-2-2-2-3-2-3-5-|
|-------------------|      |-----------------|

chorus guitar 1 (rythem)

|-----------------------------------------------------------------|
|-----------------------------------------------------------------|
|-----------------------------------------------------------------|
|-7-7-7-7-7-7-7-7-2-2-2-2-2-2-2-2-3-3-3-3-3-3-3-3-5-5-5-5-2-2-2-2-|
|-7-7-7-7-7-7-7-7-2-2-2-2-2-2-2-2-3-3-3-3-3-3-3-3-5-5-5-5-2-2-2-2-|
|-7-7-7-7-7-7-7-7-2-2-2-2-2-2-2-2-3-3-3-3-3-3-3-3-5-5-5-5-2-2-2-2-|

|-----------------------------------------------------------------|
|-----------------------------------------------------------------|
|-----------------------------------------------------------------|
|-7-7-7-7-7-7-7-7-2-2-2-2-2-2-2-2-3-3-3-3-3-3-3-3-5-5-5-5-2-2-2-2-|
|-7-7-7-7-7-7-7-7-2-2-2-2-2-2-2-2-3-3-3-3-3-3-3-3-5-5-5-5-2-2-2-2-|
|-7-7-7-7-7-7-7-7-2-2-2-2-2-2-2-2-3-3-3-3-3-3-3-3-5-5-5-5-2-2-2-2-|

guitar 2 (lead)

|-8--7-8---15----------------------------------------------------------------|
|-------------13--12-10-12-13-12-10---13--12-13---12-13--12-10-12-13-12-10---|
|----------------------------------12-------------------------------------12-|
|----------------------------------------------------------------------------|
|----------------------------------------------------------------------------|
|----------------------------------------------------------------------------|

|---------15------------------------------------------------------------|
|13-12-13---13-12-10-12-13-12-10---13-12-13--12-13-12-10-12-13-12-10----|
|-------------------------------12-----------------------------------12-|
|-----------------------------------------------------------------------|
|-----------------------------------------------------------------------|
|-----------------------------------------------------------------------|

verse 2 (both guitars)

PM----------------------------------------------------------------|
|-----------------------------------------------------------------|
|-----------------------------------------------------------------|
|-----------------------------------------------------------------|
|-----------------------------------------------------------------|
|-7-7----0-0----3-3----5-5---2-2----------------------------------|
|-7-7----0-0----3-3----5-5---2-2----------------------------------|

pre chorus (rythem)-

|-----------------------------------------------------------------|
|-----------------------------------------------------------------|
|-----------------------------------------------------------------|
|-----------------------------------------------------------------|
|-7-7-7-7-7-7-7-7-7-7-7-7-7-7-7-7-0-0-0-0-0-0-0-0-0-0-0-0-0-0-0-0-|
|-7-7-7-7-7-7-7-7-7-7-7-7-7-7-7-7-0-0-0-0-0-0-0-0-0-0-0-0-0-0-0-0-|

|-----------------------------------------------------------------|
|-----------------------------------------------------------------|
|-----------------------------------------------------------------|
|-----------------------------------------------------------------|
|-3-3-3-3-3-3-3-3-3-3-3-3-3-3-3-3-5-5-5-5-5-5-5-5-2-2-2-2-2-2-2-2-|
|-3-3-3-3-3-3-3-3-3-3-3-3-3-3-3-3-5-5-5-5-5-5-5-5-2-2-2-2-2-2-2-2-|

guitar 2 (lead)-

|-------------------|
|-------------------|
|-9-9-9-7-7-7-12-12-|
|-------------------|  X4
|-7-7-7-5-5-5-10-10-|
|-------------------|

|-------------------|      |-----------------|
|-------------------|      |-----------------|
|-10-10-10-9-9-9-5-5-|     |-4-4-4-4-5-4-5-7-|
|-------------------|  x3  |-----------------|
|--8--8--8-7-7-7-3-3-|     |-2-2-2-2-3-2-3-5-|
|-------------------|      |-----------------|

chorus guitar 1 (rythem)-

|-----------------------------------------------------------------|
|-----------------------------------------------------------------|
|-----------------------------------------------------------------|
|-7-7-7-7-7-7-7-7-2-2-2-2-2-2-2-2-3-3-3-3-3-3-3-3-5-5-5-5-2-2-2-2-|
|-7-7-7-7-7-7-7-7-2-2-2-2-2-2-2-2-3-3-3-3-3-3-3-3-5-5-5-5-2-2-2-2-|
|-7-7-7-7-7-7-7-7-2-2-2-2-2-2-2-2-3-3-3-3-3-3-3-3-5-5-5-5-2-2-2-2-|
                                                                     }x2
|-----------------------------------------------------------------|
|-----------------------------------------------------------------|
|-----------------------------------------------------------------|
|-7-7-7-7-7-7-7-7-2-2-2-2-2-2-2-2-3-3-3-3-3-3-3-3-5-5-5-5-2-2-2-2-|
|-7-7-7-7-7-7-7-7-2-2-2-2-2-2-2-2-3-3-3-3-3-3-3-3-5-5-5-5-2-2-2-2-|
|-7-7-7-7-7-7-7-7-2-2-2-2-2-2-2-2-3-3-3-3-3-3-3-3-5-5-5-5-2-2-2-2-|

guitar 2 (lead)-

|-8--7-8---15----------------------------------------------------------------|
|-------------13--12-10-12-13-12-10---13--12-13---12-13--12-10-12-13-12-10---|
|----------------------------------12-------------------------------------12-|
|----------------------------------------------------------------------------|
|----------------------------------------------------------------------------|
|----------------------------------------------------------------------------|
                                                                         }x2
|---------15------------------------------------------------------------|
|13-12-13---13-12-10-12-13-12-10---13-12-13--12-13-12-10-12-13-12-10----|
|-------------------------------12-----------------------------------12-|
|-----------------------------------------------------------------------|
|-----------------------------------------------------------------------|
|-----------------------------------------------------------------------|


bridge guitar 1 (rythem)-

|----------------------------------------------------|
|----------------------------------------------------|
|----------------------------------------------------|
|-7-x-2-x-3----7-x-3-x-5----7-x2-x-3----7-x-3-x-5----|
|-7-x-2-x-3----7-x-3-x-5----7-x2-x-3----7-x-3-x-5----|
|-7-x-2-x-3----7-x-3-x-5----7-x2-x-3----7-x-3-x-5----|

guitar 2 (lead)-

|-----------------------------------------------------------------------|
|-----------------------------------------------------------------------|
|-----------------------------------------------------------------------|
|-7-x-2-3----7-x-3-x-5--------------7-x-2-x-3----7-x-3-x-5--------------|
|-7-x-2-3----7-x-3-x-5-3-2-3-2-2----7-x-2-x-3----7-x-3-x-5-3-2-3-2-2----|
|-7-x-2-3----7-x-3-x-5--------5-5-3-7-x-2-x-3----7-x-3-x-5--------5-5-3-|

solo guitar 2(lead)

|---------------------------------|----------------------|
|13\10-10/12-12\8-8/10-10\5-5\3-3-|----------------------|
|---------------------------------|-4---0-4-5-7-9-9-(7)9-|
|---------------------------------|----------------------|
|---------------------------------|----------------------|
|---------------------------------|----------------------|

|-8--(10)12-10---------15-13--12-----12--------------------------------|
|---8------------13--------------15-----15-12-----------------12-13-15-|
|-------------------12------------------------12----14-12-14-----------|
|----------------------------------------------------------------------|
|----------------------------------------------------------------------|
|----------------------------------------------------------------------|

|-12h8----8-12h8-12h8----8-12h8-12h-8----8-10h7---7-10h7-10h7---7-10h7-10h7-|
|------10-------------10--------------10--------8-------------8-------------|
|---------------------------------------------------------------------------|
|---------------------------------------------------------------------------|
|---------------------------------------------------------------------------|
|---------------------------------------------------------------------------|

|---7-8h5---5-8h5-8h5---5-8h5-8h5---5-13-12-10----12-10-------10-------------|
|-8-------6-----------6-----------6------------13-------13-12----13-12-10-13-|
|----------------------------------------------------------------------------|
|----------------------------------------------------------------------------|
|----------------------------------------------------------------------------|
|----------------------------------------------------------------------------|

|---------|
|-12-10-8-|
|---------|
|---------|
|---------|
|---------|

|-12h8----8-12h8-12h8----8-12h8-12h-8----8-10h7---7-10h7-10h7---7-10h7-10h7-|
|------10-------------10--------------10--------8-------------8-------------|
|---------------------------------------------------------------------------|
|---------------------------------------------------------------------------|
|---------------------------------------------------------------------------|
|---------------------------------------------------------------------------|

|---7-8h5---5-8h5-8h5---5-8h5-8h5---5-13-12-10----12-10-------10-------------|
|-8-------6-----------6-----------6------------13-------13-12----13-12-10-13-|
|----------------------------------------------------------------------------|
|----------------------------------------------------------------------------|
|----------------------------------------------------------------------------|
|----------------------------------------------------------------------------|

|---------|
|-12-10-8-|
|---------|
|---------|
|---------|
|---------|

guitar 1(rythem behind solo)-

|---------------------------------------------------|
|---------------------------------------------------|
|---------------------------------------------------|
|-----7-9--10-----3-5--------3-5--7-----5---9-------| x4
|---7-----------2------3---3----------5-------7---7-|
|-7-----------2----------3----------5-----5-----5---|

chorus (rythem)-
|--------------------------|---------------------------------|
|--------------------------|---------------------------------|
|--------------------------|---------------------------------|
|--------------------------|-3-3-3-3-3-3-3-3-5-5-5-5-2-2-2-2-|
|-7-7-------2-2------------|-3-3-3-3-3-3-3-3-5-5-5-5-2-2-2-2-|
|-7-7-------2-2------------|-3-3-3-3-3-3-3-3-5-5-5-5-2-2-2-2-|

|-----------------------------------------------------------------|
|-----------------------------------------------------------------|
|-----------------------------------------------------------------|
|-7-7-7-7-7-7-7-7-2-2-2-2-2-2-2-2-3-3-3-3-3-3-3-3-5-5-5-5-2-2-2-2-|
|-7-7-7-7-7-7-7-7-2-2-2-2-2-2-2-2-3-3-3-3-3-3-3-3-5-5-5-5-2-2-2-2-|
|-7-7-7-7-7-7-7-7-2-2-2-2-2-2-2-2-3-3-3-3-3-3-3-3-5-5-5-5-2-2-2-2-|

key change
|-----------------------------------------------------------------|
|-----------------------------------------------------------------|
|-----------------------------------------------------------------|
|-9-9-9-9-9-9-9-9-4-4-4-4-4-4-4-4-5-5-5-5-5-5-5-5-7-7-7-7-4-4-4-4-| x4
|-9-9-9-9-9-9-9-9-4-4-4-4-4-4-4-4-5-5-5-5-5-5-5-5-7-7-7-7-4-4-4-4-|
|-9-9-9-9-9-9-9-9-4-4-4-4-4-4-4-4-5-5-5-5-5-5-5-5-7-7-7-7-4-4-4-4-|

guitar 2(lead)

|--------------------------|
|--------------------------|
|--------------------------|
|--------------------------|
|-7-7-------2-2------------|
|-7-7-------2-2------------|

|---------------------------------------------------15----------------------|
|-13--12-13--12-13--12-10-12-13-12-10---13--12-13-----13--12-10-12-13-12-10-|
|-------------------------------------12------------------------------------|
|---------------------------------------------------------------------------|
|---------------------------------------------------------------------------|
|---------------------------------------------------------------------------|

|-----------------------------------------|
|----13-12-13--12-13-12-10-12-13-12-10----|
|-12-----------------------------------12-|
|-----------------------------------------|
|-----------------------------------------|
|-----------------------------------------|

key change

|-----------17---------------------------------------------------------------|
|-15-14-15-----15--14----14-15-14-12----15-14-15--14-15--14----14-15-14-12---|
|---------------------16-------------14---------------------16------------14-|
|----------------------------------------------------------------------------|
|----------------------------------------------------------------------------|
|----------------------------------------------------------------------------|

|-----------17---------------------------------------------------------------|
|-15-14-15-----15--14----14-15-14-12----15-14-15--14-15--14----14-15-14-12---|
|---------------------16-------------14---------------------16------------14-|
|----------------------------------------------------------------------------|
|----------------------------------------------------------------------------|
|----------------------------------------------------------------------------|

outro (lead)

|-----------------------------------------------------------------|
|-----------------------------------------------------------------|
|-----------------------------------------------------------------|
|-9-9-9-9-9-9-9-9-4-4-4-4-4-4-4-4-5-5-5-5-5-5-5-5-7-7-7-7-4-4-4-4-| x2
|-9-9-9-9-9-9-9-9-4-4-4-4-4-4-4-4-5-5-5-5-5-5-5-5-7-7-7-7-4-4-4-4-|
|-9-9-9-9-9-9-9-9-4-4-4-4-4-4-4-4-5-5-5-5-5-5-5-5-7-7-7-7-4-4-4-4-|

both guitars
|-----------------|
|-----------------|
|-----------------|
|---8-7---3/5-7-0-|
|-0-8-7-0-3/5-7-0-|
|-0-8-7-0-3/5-7-0-|

h - hammer on
/ - slide up
\ - slide down
pm - palm mute

it gets a little confusing at the end with the solo but i tried my best
2 comments total.
0 reply
niffnoff wrote on May 9 2008, 01:24 pm

Lol i could be wrong but this looks exactly like The GP tab

0 reply
richard_666 wrote on August 4 2008, 07:17 am

yeah, i tabbed it out for the people that dont have GP
trying help people out

I want to post or [tab]
guest
You may want to rate the tab now too:
select rating
Please do not post tabs as comments. Select "correction" instead!