Oops, an error
Loading. Please wait.

Dying In Your Arms Tab

ver7
51,593 views 72 this week
7 commentsread comments
1 2 3 4 5
excellent!
x 22
Autoscroll
+/-
esc
set tempo
stop
Contributor
Hey! There's an official Ultimate Guitar app which is ideal
for learning songs when you're away from computer. Get the app
WARNING: You are trying to view
                                    content from Ultimate-Guitar.com
                                    in an unauthorized application,
                                    which is prohibited.

                                    Please use an official Ultimate
                                    Guitar Tabs application for iPhone,
                                    iPad or Android to access legitimate
                                    chords, guitar, bass, and drum tabs
                                    from Ultimate-Guitar.com database.

                                    Type "ultimate guitar tabs" in Apple
                                    App Store's or Android Market's
                                    search to find the application.
#----------------------------------PLEASE NOTE---------------------------------#
#This file is the author's own work and represents their interpretation of the #
#song. You may only use this file for private study, scholarship, or research. #
#------------------------------------------------------------------------------#



Transcribed by kornaholic5899

        



Gtr I (D A D G B E) - 'Guitar 1'
Gtr II (D A D G B E) - 'Guitar 2'
Gtr III (D A D G B E) - 'Guitar 3'

    Q=155
   4/4
    Gtr I
                      ~~~~~~~~~~~
     E  E  E  Q    E  Q      +E   E  E  E  E  E  E  E
||----------------15------|---------------------------|
||o-13-13-12-13------13---|-(13)-12----12-13-12-------|
||------------------------|---------14----------14-12-|
||------------------------|---------------------------|
||o-----------------------|---------------------------|
||------------------------|---------------------------|
|
|   Gtr II
|    E  E  E  E E  E  E E     E   E  E  E  E  E  E  E
||------------------------|---------------------------|
||o-----------------------|---------------------------|
||------------------------|---------------------------|
||---7--7--7--7-7--7--7-7-|---2---2--2--2--2--2--2--2-|
||o--7--7--7--7-7--7--7-7-|---2---2--2--2--2--2--2--2-|
||---7--7--7--7-7--7--7-7-|---2---2--2--2--2--2--2--2-|


                      ~~~~~~~~~~~
   E  E  E  Q     E   Q      +E   E  E  E  E  E  E  E
|-------------------------|----------------------------||
|-13-13-12-13---[12]-13---|-(13)-12----12-13-12-------o||
|-------------------------|---------14----------14-12--||
|-------------------------|----------------------------||
|-------------------------|---------------------------o||
|-------------------------|----------------------------||
|
|  E  E  E  E E   E   E E     E   E  E  E  E  E  E  E
|-------------------------|----------------------------||
|-------------------------|---------------------------o||
|-------------------------|----------------------------||
|--3--3--3--3-3---3---3-3-|---5---5--5--5--2--2--2--2--||
|--3--3--3--3-3---3---3-3-|---5---5--5--5--2--2--2--2-o||
|--3--3--3--3-3---3---3-3-|---5---5--5--5--2--2--2--2--||


  PM|                      PM|
  E E H.        W          E E H.        W
|-------------|----------|-------------|------|
|-------------|----------|-------------|------|
|-------------|----------|-------------|------|
|-------------|----------|-------------|------|
|-7-7---------|----------|-0-0---------|------|
|-7-7---------|----------|-0-0---------|------|
|
| PM|                      PM|
| E E H.        W          E E H.        W
|-------------|----------|-------------|------|
|-------------|----------|-------------|------|
|-------------|----------|-------------|------|
|-------------|----------|-------------|------|
|-7-7---------|----------|-0-0---------|------|
|-7-7---------|----------|-0-0---------|------|


  PM|                      PM|           PM|
  E E H.        W          E E H.        E E H.
|-------------|----------|-------------|-----------|
|-------------|----------|-------------|-----------|
|-------------|----------|-------------|-----------|
|-------------|----------|-------------|-----------|
|-3-3---------|----------|-5-5---------|-2-2-------|
|-3-3---------|----------|-5-5---------|-2-2-------|
|
| PM|                      PM|           PM|
| E E H.        W          E E H.        E E H.
|-------------|----------|-------------|-----------|
|-------------|----------|-------------|-----------|
|-------------|----------|-------------|-----------|
|-------------|----------|-------------|-----------|
|-3-3---------|----------|-5-5---------|-2-2-------|
|-3-3---------|----------|-5-5---------|-2-2-------|


  E E E E E E  E  E   E E E E E E  E  E
|-------------------|-------------------|
|-------------------|-------------------|
|-9-9-9-7-7-7-12-12-|-9-9-9-7-7-7-12-12-|
|-------------------|-------------------|
|-7-7-7-5-5-5-10-10-|-7-7-7-5-5-5-10-10-|
|-------------------|-------------------|
|
| E E E E E E  E  E   E E E E E E  E  E
|-------------------|-------------------|
|-------------------|-------------------|
|-------------------|-------------------|
|-7-7-7-7-7-7--7--7-|-7-7-7-7-7-7--7--7-|
|-7-7-7-7-7-7--7--7-|-7-7-7-7-7-7--7--7-|
|-7-7-7-7-7-7--7--7-|-7-7-7-7-7-7--7--7-|


  E E E E E E  E  E   E E E E E E  E  E
|-------------------|-------------------|
|-------------------|-------------------|
|-9-9-9-7-7-7-12-12-|-9-9-9-7-7-7-12-12-|
|-------------------|-------------------|
|-7-7-7-5-5-5-10-10-|-7-7-7-5-5-5-10-10-|
|-------------------|-------------------|
|
| E E E E E E  E  E   E E E E E E  E  E
|-------------------|-------------------|
|-------------------|-------------------|
|-------------------|-------------------|
|-0-0-0-0-0-0--0--0-|-0-0-0-0-0-0--0--0-|
|-0-0-0-0-0-0--0--0-|-0-0-0-0-0-0--0--0-|
|-0-0-0-0-0-0--0--0-|-0-0-0-0-0-0--0--0-|


   E  E  E E E E E E    E  E  E E E E E E   E E E E E E E E   E E E E E E E E
|--------------------|--------------------|-----------------|-----------------|
|--------------------|--------------------|-----------------|-----------------|
|-10-10-10-9-9-9-5-5-|-10-10-10-9-9-9-5-5-|-7-7-7-7-7-7-7-7-|-4-4-4-4-5-4-5-7-|
|--------------------|--------------------|-----------------|-----------------|
|--8--8--8-7-7-7-3-3-|--8--8--8-7-7-7-3-3-|-5-5-5-5-5-5-5-5-|-2-2-2-2-3-2-3-5-|
|--------------------|--------------------|-----------------|-----------------|
|
|  E  E  E E E E E E    E  E  E E E E E E   E E E E E E E E   E E E E E E E E
|--------------------|--------------------|-----------------|-----------------|
|--------------------|--------------------|-----------------|-----------------|
|--------------------|--------------------|-----------------|-----------------|
|--3--3--3-3-3-3-3-3-|--3--3--3-3-3-3-3-3-|-5-5-5-5-5-5-5-5-|-2-2-2-2-2-2-2-2-|
|--3--3--3-3-3-3-3-3-|--3--3--3-3-3-3-3-3-|-5-5-5-5-5-5-5-5-|-2-2-2-2-2-2-2-2-|
|--3--3--3-3-3-3-3-3-|--3--3--3-3-3-3-3-3-|-5-5-5-5-5-5-5-5-|-2-2-2-2-2-2-2-2-|


   4/4
                      ~~~~~~~~~~~
     E  E  E  Q    E  Q      +E   E  E  E  E  E  E  E
||----------------15------|---------------------------|
||o-13-13-12-13------13---|-(13)-12----12-13-12-------|
||------------------------|---------14----------14-12-|
||------------------------|---------------------------|
||o-----------------------|---------------------------|
||------------------------|---------------------------|
|
|    E  E  E  E E  E  E E     E   E  E  E  E  E  E  E
||------------------------|---------------------------|
||o-----------------------|---------------------------|
||------------------------|---------------------------|
||---7--7--7--7-7--7--7-7-|---2---2--2--2--2--2--2--2-|
||o--7--7--7--7-7--7--7-7-|---2---2--2--2--2--2--2--2-|
||---7--7--7--7-7--7--7-7-|---2---2--2--2--2--2--2--2-|


                      ~~~~~~~~~~~
   E  E  E  Q     E   Q      +E   E  E  E  E  E  E  E
|-------------------------|----------------------------||
|-13-13-12-13---[12]-13---|-(13)-12----12-13-12-------o||
|-------------------------|---------14----------14-12--||
|-------------------------|----------------------------||
|-------------------------|---------------------------o||
|-------------------------|----------------------------||
|
|  E  E  E  E E   E   E E     E   E  E  E  E  E  E  E
|-------------------------|----------------------------||
|-------------------------|---------------------------o||
|-------------------------|----------------------------||
|--3--3--3--3-3---3---3-3-|---5---5--5--5--2--2--2--2--||
|--3--3--3--3-3---3---3-3-|---5---5--5--5--2--2--2--2-o||
|--3--3--3--3-3---3---3-3-|---5---5--5--5--2--2--2--2--||


  PM|                      PM|
  E E H.        W          E E H.        W
|-------------|----------|-------------|------|
|-------------|----------|-------------|------|
|-------------|----------|-------------|------|
|-------------|----------|-------------|------|
|-7-7---------|----------|-0-0---------|------|
|-7-7---------|----------|-0-0---------|------|
|
| PM|                      PM|
| E E H.        W          E E H.        W
|-------------|----------|-------------|------|
|-------------|----------|-------------|------|
|-------------|----------|-------------|------|
|-------------|----------|-------------|------|
|-7-7---------|----------|-0-0---------|------|
|-7-7---------|----------|-0-0---------|------|


  PM|                      PM|           PM|
  E E H.        W          E E H.        E E H.
|-------------|----------|-------------|-----------|
|-------------|----------|-------------|-----------|
|-------------|----------|-------------|-----------|
|-------------|----------|-------------|-----------|
|-3-3---------|----------|-5-5---------|-2-2-------|
|-3-3---------|----------|-5-5---------|-2-2-------|
|
| PM|                      PM|           PM|
| E E H.        W          E E H.        E E H.
|-------------|----------|-------------|-----------|
|-------------|----------|-------------|-----------|
|-------------|----------|-------------|-----------|
|-------------|----------|-------------|-----------|
|-3-3---------|----------|-5-5---------|-2-2-------|
|-3-3---------|----------|-5-5---------|-2-2-------|


  E E E E E E  E  E   E E E E E E  E  E
|-------------------|-------------------|
|-------------------|-------------------|
|-9-9-9-7-7-7-12-12-|-9-9-9-7-7-7-12-12-|
|-------------------|-------------------|
|-7-7-7-5-5-5-10-10-|-7-7-7-5-5-5-10-10-|
|-------------------|-------------------|
|
| E E E E E E  E  E   E E E E E E  E  E
|-------------------|-------------------|
|-------------------|-------------------|
|-------------------|-------------------|
|-7-7-7-7-7-7--7--7-|-7-7-7-7-7-7--7--7-|
|-7-7-7-7-7-7--7--7-|-7-7-7-7-7-7--7--7-|
|-7-7-7-7-7-7--7--7-|-7-7-7-7-7-7--7--7-|


  E E E E E E  E  E   E E E E E E  E  E
|-------------------|-------------------|
|-------------------|-------------------|
|-9-9-9-7-7-7-12-12-|-9-9-9-7-7-7-12-12-|
|-------------------|-------------------|
|-7-7-7-5-5-5-10-10-|-7-7-7-5-5-5-10-10-|
|-------------------|-------------------|
|
| E E E E E E  E  E   E E E E E E  E  E
|-------------------|-------------------|
|-------------------|-------------------|
|-------------------|-------------------|
|-0-0-0-0-0-0--0--0-|-0-0-0-0-0-0--0--0-|
|-0-0-0-0-0-0--0--0-|-0-0-0-0-0-0--0--0-|
|-0-0-0-0-0-0--0--0-|-0-0-0-0-0-0--0--0-|


   E  E  E E E E E E    E  E  E E E E E E   E E E E E E E E   E E E E E E E E
|--------------------|--------------------|-----------------|-----------------|
|--------------------|--------------------|-----------------|-----------------|
|-10-10-10-9-9-9-5-5-|-10-10-10-9-9-9-5-5-|-7-7-7-7-7-7-7-7-|-4-4-4-4-5-4-5-7-|
|--------------------|--------------------|-----------------|-----------------|
|--8--8--8-7-7-7-3-3-|--8--8--8-7-7-7-3-3-|-5-5-5-5-5-5-5-5-|-2-2-2-2-3-2-3-5-|
|--------------------|--------------------|-----------------|-----------------|
|
|  E  E  E E E E E E    E  E  E E E E E E   E E E E E E E E   E E E E E E E E
|--------------------|--------------------|-----------------|-----------------|
|--------------------|--------------------|-----------------|-----------------|
|--------------------|--------------------|-----------------|-----------------|
|--3--3--3-3-3-3-3-3-|--3--3--3-3-3-3-3-3-|-5-5-5-5-5-5-5-5-|-2-2-2-2-2-2-2-2-|
|--3--3--3-3-3-3-3-3-|--3--3--3-3-3-3-3-3-|-5-5-5-5-5-5-5-5-|-2-2-2-2-2-2-2-2-|
|--3--3--3-3-3-3-3-3-|--3--3--3-3-3-3-3-3-|-5-5-5-5-5-5-5-5-|-2-2-2-2-2-2-2-2-|


   4/4
                      ~~~~~~~~~~~
     E  E  E  Q    E  Q      +E   E  E  E  E  E  E  E
||----------------15------|---------------------------|
||o-13-13-12-13------13---|-(13)-12----12-13-12-------|
||------------------------|---------14----------14-12-|
||------------------------|---------------------------|
||o-----------------------|---------------------------|
||------------------------|---------------------------|
|
|    E  E  E  E E  E  E E     E   E  E  E  E  E  E  E
||------------------------|---------------------------|
||o-----------------------|---------------------------|
||------------------------|---------------------------|
||---7--7--7--7-7--7--7-7-|---2---2--2--2--2--2--2--2-|
||o--7--7--7--7-7--7--7-7-|---2---2--2--2--2--2--2--2-|
||---7--7--7--7-7--7--7-7-|---2---2--2--2--2--2--2--2-|


                      ~~~~~~~~~~~
   E  E  E  Q     E   Q      +E   E  E  E  E  E  E  E  4x
|-------------------------|----------------------------||
|-13-13-12-13---[12]-13---|-(13)-12----12-13-12-------o||
|-------------------------|---------14----------14-12--||
|-------------------------|----------------------------||
|-------------------------|---------------------------o||
|-------------------------|----------------------------||
|
|  E  E  E  E E   E   E E     E   E  E  E  E  E  E  E  4x
|-------------------------|----------------------------||
|-------------------------|---------------------------o||
|-------------------------|----------------------------||
|--3--3--3--3-3---3---3-3-|---5---5--5--5--2--2--2--2--||
|--3--3--3--3-3---3---3-3-|---5---5--5--5--2--2--2--2-o||
|--3--3--3--3-3---3---3-3-|---5---5--5--5--2--2--2--2--||


                                                   |-3-|
  Q  E Q  E Q    +W           Q  E Q  E Q    +E  E S S S E E E E E
|--------------|------------|--------------|-----------------------|
|--------------|------------|--------------|-----------------------|
|--------------|------------|--------------|-----------------------|
|-7--x-2--x-3--|-(3)--------|-7--x-3--x-5--|-(5)-------------------|
|-7--x-2--x-3--|-(3)--------|-7--x-3--x-5--|-(5)-2-0h2p0-----------|
|-7--x-2--x-3--|-(3)--------|-7--x-3--x-5--|-(5)---------5-7-5-3-5-|
|
|                                                  |-3-|
| Q  E Q  E Q    +W           Q  E Q  E Q    +E  E S S S E E E E E
|--------------|------------|--------------|-----------------------|
|--------------|------------|--------------|-----------------------|
|--------------|------------|--------------|-----------------------|
|-7--x-2--x-3--|-(3)--------|-7--x-3--x-5--|-(5)-------------------|
|-7--x-2--x-3--|-(3)--------|-7--x-3--x-5--|-(5)-2-0h2p0---0-------|
|-7--x-2--x-3--|-(3)--------|-7--x-3--x-5--|-(5)---------5---5-3-5-|


                                                   |-3-|
  Q  E Q  E Q    +W           Q  E Q  E Q    +E  E S S S E E E E E
|--------------|------------|--------------|-----------------------|
|--------------|------------|--------------|-----------------------|
|--------------|------------|--------------|-----------------------|
|-7--x-2--x-3--|-(3)--------|-7--x-3--x-5--|-(5)-------------------|
|-7--x-2--x-3--|-(3)--------|-7--x-3--x-5--|-(5)-5-3h5p3-2-3-2-0-2-|
|-7--x-2--x-3--|-(3)--------|-7--x-3--x-5--|-(5)-------------------|
|
|                                                  |-3-|
| Q  E Q  E Q    +W           Q  E Q  E Q    +E  E S S S E E E E E
|--------------|------------|--------------|-----------------------|
|--------------|------------|--------------|-----------------------|
|--------------|------------|--------------|-----------------------|
|-7--x-2--x-3--|-(3)--------|-7--x-3--x-5--|-(5)-------------------|
|-7--x-2--x-3--|-(3)--------|-7--x-3--x-5--|-(5)-2-0h2p0-----------|
|-7--x-2--x-3--|-(3)--------|-7--x-3--x-5--|-(5)---------5-7-5-3-5-|


                                     ~~~~~~~~
   E  E  E  E  E  E  E  E    E E E E H
|-------------------------|-----------------|
|-13s10-10s12-12s=8--8s10-|-10s5-5s3-3------|
|-------------------------|-----------------|
|-------------------------|-----------------|
|-------------------------|-----------------|
|-------------------------|-----------------|
|
|                                    ~
|  E  E  E  E  E  E  E  E    E E E E H
|-------------------------|-----------------|
|-------------------------|-----------------|
|-------------------------|-----------------|
|-10s=7--7s=9--9s=5--5s=7-|--7s2-2s0-0------|
|-------------------------|-----------------|
|-------------------------|-----------------|
|
| Gtr III
|  PM|                       PM|
|  E  E  E  Q     Q.         E E E Q   Q.
|-------------------------|-----------------|
|-------------------------|-----------------|
|-------------------------|-----------------|
|--------7--9----10-------|------2-5--------|
|-----7-------------------|----2-------3----|
|--7----------------------|--2--------------|


 ~~~~~~~~~~~~~
  H       +E  E  E E   Q   E E +H
|--------------------|-------------------|
|--------------------|-------------------|
|-4-------(4)-0--4-5-|-7---9-9-(9)-------|
|--------------------|-------------------|
|--------------------|-------------------|
|--------------------|-------------------|
|
| W                    W
|--------------------|-------------------|
|--------------------|-------------------|
|--------------------|-------------------|
|--------------------|-------------------|
|--------------------|-------------------|
|--------------------|-------------------|
|
| PM|                  PM|   PM      PM
| E E E Q     Q.       E E E E  E  E E E
|--------------------|-------------------|
|--------------------|-------------------|
|--------------------|-------------------|
|-----3-5-----7------|-----5----9------5-|
|---3----------------|---5---------7-----|
|-3------------------|-5-----5-------5---|


  E E  S  S  E  +H           E  E  E  Q   Q    E
|-8---10s12-10-(10)-------|-------15-13--12------|
|---8---------------------|-13----------------15-|
|-------------------------|----12----------------|
|-------------------------|----------------------|
|-------------------------|----------------------|
|-------------------------|----------------------|
|
| PM|                        PM|
| E E  E     Q       Q.      E  E  E  Q   Q.
|-------------------------|----------------------|
|-------------------------|----------------------|
|-------------------------|----------------------|
|------7-----9------10----|--------2--5----------|
|---7---------------------|-----2---------3------|
|-7-----------------------|--2-------------------|


                 ~~
                            |----3----|    |----3----|
   +E   E  E  E  H          Q    Q    Q    Q    Q    Q
|------12---------------|---------------------------------|
|-(15)----15-12---------|-----------------12---13---15----|
|---------------12------|-/14---12---14-------------------|
|-----------------------|---------------------------------|
|-----------------------|---------------------------------|
|-----------------------|---------------------------------|
|
|   PM-|                    PM|         PM        PM
|   E   E  E  Q    Q.       E E    E    E  E E    E    E
|-----------------------|---------------------------------|
|-----------------------|---------------------------------|
|-----------------------|---------------------------------|
|----------3--5----7----|----------5-------9-----------5--|
|-------3---------------|-----5--------------7------------|
|---3-------------------|---5-----------5---------5-------|


     S S  S S  S S  S S  S S  S S  S S  S S
||--12p8----8-12p8-12p8----8-12p8-12p8----8-|
||o------10-------------10-------------10---|
||------------------------------------------|
||------------------------------------------|
||o-----------------------------------------|
||------------------------------------------|
|
|    S S  S S  S S  S S  S S  S S  S S  S S
||------------------------------------------|
||o-----------------------------------------|
||---9p5----5--9p5--9p5----5--9p5--9p5----5-|
||--------7--------------7--------------7---|
||o-----------------------------------------|
||------------------------------------------|
|
|   Gtr III
|    PM--|
|    E    E    E    Q         Q.
||------------------------------------------|
||o-----------------------------------------|
||------------------------------------------|
||-------------7----9--------10-------------|
||o-------7---------------------------------|
||---7--------------------------------------|


   S S S S  S S  S S S S S S S S S S
|-10p7---7-10p7-10p7---7-8p7-8p7---7--|
|------8-------------8-----------8----|
|-------------------------------------|
|-------------------------------------|
|-------------------------------------|
|-------------------------------------|
|
|  S S S S  S S  S S S S S S S S S S
|-------------------------------------|
|-------------------------------------|
|--7p4---4--7p4--7p4---4-5p4-5p4---4--|
|------5-------------5-----------5----|
|-------------------------------------|
|-------------------------------------|
|
|  PM--|
|  E   E    E    Q       Q.
|-------------------------------------|
|-------------------------------------|
|-------------------------------------|
|-----------2----5--------------------|
|------2-----------------3------------|
|--2----------------------------------|


  S S S S S S S S S S S S S S S S
|-8p5---5-8p5-8p5---5-7p5-7p5---5-|
|-----6-----------6-----------6---|
|---------------------------------|
|---------------------------------|
|---------------------------------|
|---------------------------------|
|
| S S S S S S S S S S S S S S S S
|---------------------------------|
|---------------------------------|
|-5p2---2-5p2-5p2---2-4p2-4p2---2-|
|-----3-----------3-----------3---|
|---------------------------------|
|---------------------------------|
|
| PM--|
| E   E   E   Q       Q.
|---------------------------------|
|---------------------------------|
|---------------------------------|
|---------3---5-------7-----------|
|-----3---------------------------|
|-3-------------------------------|


   S  S  S  S  S  S  S  S  S  S  S  S  S  S  S S
|-13-12-10----12-10-------10----------------------||
|----------13-------13-12----13-12-10-13-12-10-8-o||
|-------------------------------------------------||
|-------------------------------------------------||
|------------------------------------------------o||
|-------------------------------------------------||
|
|  S  S  S  S  S  S  S  S  S  S  S  S  S  S  S S
|-------------------------------------------------||
|------------------------------------------------o||
|-10--9--7-----9--7--------7----------------------||
|----------10-------10--9----10--9--7-10--9--7-5--||
|------------------------------------------------o||
|-------------------------------------------------||
|
|  PM---|            PM                PM
|  E     E     E     E     E     E     E     E
|-------------------------------------------------||
|------------------------------------------------o||
|-------------------------------------------------||
|--------------5-----------9-----------------5----||
|--------5-----------------------7---------------o||
|--5-----------------5-----------------5----------||


  E E H.             E E H       q
|------------------|-----------------|
|------------------|-----------------|
|------------------|-----------------|
|-7-7--------------|-2-2---------2---|
|-7-7--------------|-2-2---------2---|
|-7-7--------------|-2-2---------2---|
|
| E E E  E E E E E   E E E E E E E E
|------------------|-----------------|
|------------------|-----------------|
|------------------|-----------------|
|------------------|-----------------|
|-7-7-7--7-7-7-7-7-|-2-2-2-2-2-2-2-2-|
|-7-7-7--7-7-7-7-7-|-2-2-2-2-2-2-2-2-|


                      ~~~~~~~~~~~
   E  E  E  Q     E   Q      +E   E  E  E  E  E  E  E
|-------------------------|---------------------------|
|-13-13-12-13---[12]-13---|-(13)-12----12-13-12-------|
|-------------------------|---------14----------14-12-|
|-------------------------|---------------------------|
|-------------------------|---------------------------|
|-------------------------|---------------------------|
|
|  E  E  E  E E   E   E E     E   E  E  E  E  E  E  E
|-------------------------|---------------------------|
|-------------------------|---------------------------|
|-------------------------|---------------------------|
|--3--3--3--3-3---3---3-3-|---5---5--5--5--2--2--2--2-|
|--3--3--3--3-3---3---3-3-|---5---5--5--5--2--2--2--2-|
|--3--3--3--3-3---3---3-3-|---5---5--5--5--2--2--2--2-|


 4/4
                    ~~~~~~~~~~~
   E  E  E  Q    E  Q      +E   E  E  E  E  E  E  E
|---------------15------|---------------------------|
|-13-13-12-13------13---|-(13)-12----12-13-12-------|
|-----------------------|---------14----------14-12-|
|-----------------------|---------------------------|
|-----------------------|---------------------------|
|-----------------------|---------------------------|
|
|  E  E  E  E E  E  E E     E   E  E  E  E  E  E  E
|-----------------------|---------------------------|
|-----------------------|---------------------------|
|-----------------------|---------------------------|
|--7--7--7--7-7--7--7-7-|---2---2--2--2--2--2--2--2-|
|--7--7--7--7-7--7--7-7-|---2---2--2--2--2--2--2--2-|
|--7--7--7--7-7--7--7-7-|---2---2--2--2--2--2--2--2-|


                      ~~~~~~~~~~~
   E  E  E  Q     E   Q      +E   E  E  E  E  E  E  E
|-------------------------|----------------------------|
|-13-13-12-13---[12]-13---|-(13)-12----12-13-12--------|
|-------------------------|---------14----------14-12--|
|-------------------------|----------------------------|
|-------------------------|----------------------------|
|-------------------------|----------------------------|
|
|  E  E  E  E E   E   E E     E   E  E  E  E  E  E  E
|-------------------------|----------------------------|
|-------------------------|----------------------------|
|-------------------------|----------------------------|
|--3--3--3--3-3---3---3-3-|---5---5--5--5--2--2--2--2--|
|--3--3--3--3-3---3---3-3-|---5---5--5--5--2--2--2--2--|
|--3--3--3--3-3---3---3-3-|---5---5--5--5--2--2--2--2--|


   4/4
                      ~~~~~~~~~~~
     E  E  E  Q    E  Q      +E   E  E  E  E  E  E  E
||----------------17------|---------------------------|
||o-15-15-14-15------15---|-(15)-14----14-15-14-------|
||------------------------|---------16----------16-14-|
||------------------------|---------------------------|
||o-----------------------|---------------------------|
||------------------------|---------------------------|
|
|    E  E  E  E E  E  E E     E   E  E  E  E  E  E  E
||------------------------|---------------------------|
||o-----------------------|---------------------------|
||------------------------|---------------------------|
||---9--9--9--9-9--9--9-9-|---4---4--4--4--4--4--4--4-|
||o--9--9--9--9-9--9--9-9-|---4---4--4--4--4--4--4--4-|
||---9--9--9--9-9--9--9-9-|---4---4--4--4--4--4--4--4-|


                      ~~~~~~~~~~~
   E  E  E  Q     E   Q      +E   E  E  E  E  E  E  E
|-------------------------|-----------------------------||
|-15-15-14-15---[14]-15---|-(15)-14----14-15-14--------o||
|-------------------------|---------16----------16-14---||
|-------------------------|-----------------------------||
|-------------------------|----------------------------o||
|-------------------------|-----------------------------||
|
|  E  E  E  E E   E   E E     E   E  E  E  E  E  E  E
|-------------------------|-----------------------------||
|-------------------------|----------------------------o||
|-------------------------|-----------------------------||
|--5--5--5--5-5---5---5-5-|---7---7--7--7--4--4--4--4---||
|--5--5--5--5-5---5---5-5-|---7---7--7--7--4--4--4--4--o||
|--5--5--5--5-5---5---5-5-|---7---7--7--7--4--4--4--4---||


   4/4
     E  E  E  E  E  E  E  E    E  E  E  E  E  E  E  E
||-----------------17-------|-------------------------|
||o-14-15-14-15-14----15-14-|-15-14----14-15-14-------|
||--------------------------|-------16----------16-14-|
||--------------------------|-------------------------|
||o-------------------------|-------------------------|
||--------------------------|-------------------------|
|
|    E  E  E  E  E  E  E  E    E  E  E  E  E  E  E  E
||--------------------------|-------------------------|
||o----------------19-------|-------------------------|
||--14-16-14-16-14----16-14-|-16-14----14-16-14-------|
||--------------------------|-------16----------16-16-|
||o-------------------------|-------------------------|
||--------------------------|-------------------------|
|
|   Gtr III
|    E  E  E  E  E  E  E  E    E  E  E  E  E  E  E  E
||--------------------------|-------------------------|
||o-------------------------|-------------------------|
||--------------------------|-------------------------|
||---9--9--9--9--9--9--9--9-|--4--4--4--4--4--4--4--4-|
||o--9--9--9--9--9--9--9--9-|--4--4--4--4--4--4--4--4-|
||---9--9--9--9--9--9--9--9-|--4--4--4--4--4--4--4--4-|


   E  E  E  E  E   E   E  E    E  E  E  E  E  E  E  E
|---------------------------|---------------------------||
|-14-15-14-15-14-[14]-15-14-|-15-14----14-15-14--------o||
|---------------------------|-------16----------16-14---||
|---------------------------|---------------------------||
|---------------------------|--------------------------o||
|---------------------------|---------------------------||
|
|  E  E  E  E  E   E   E  E    E  E  E  E  E  E  E  E
|---------------------------|---------------------------||
|---------------------------|--------------------------o||
|-14-16-14-16-14-[14]-16-14-|-16-14----14-16-14---------||
|---------------------------|-------16----------16-16---||
|---------------------------|--------------------------o||
|---------------------------|---------------------------||
|
|  E  E  E  E  E   E   E  E    E  E  E  E  E  E  E  E
|---------------------------|---------------------------||
|---------------------------|--------------------------o||
|---------------------------|---------------------------||
|--5--5--5--5--5---5---5--5-|--7--7--7--7--4--4--4--4---||
|--5--5--5--5--5---5---5--5-|--7--7--7--7--4--4--4--4--o||
|--5--5--5--5--5---5---5--5-|--7--7--7--7--4--4--4--4---||


  PM    PM
  E E E E E E E E   +Q   H.
|-----------------|------------*|
|-----------------|------------*|
|-----------------|------------*|
|-0-8-7-0-3-5-7-0-|-(0)--------*|
|-0-8-7-0-3-5-7-0-|-(0)--------*|
|-0-8-7-0-3-5-7-0-|-(0)--------*|
|
| PM    PM
| E E E E E E E E   +Q   H.
|-----------------|------------*|
|-----------------|------------*|
|-----------------|------------*|
|-0-8-7-0-3-5-7-0-|-(0)--------*|
|-0-8-7-0-3-5-7-0-|-(0)--------*|
|-0-8-7-0-3-5-7-0-|-(0)--------*|



Duration Legend
---------------
W - whole; H - half; Q - quarter; E - 8th; S - 16th; T - 32nd; X - 64th; a - acciaccatura
+ - note tied to previous; . - note dotted; .. - note double dotted
Uncapitalized letters represent notes that are staccato (1/2 duration)
Irregular groupings are notated above the duration line
Duration letters will always appear directly above the note/fret number it represents the
duration for.  Duration letters with no fret number below them represent rests.  Multi-
bar rests are notated in the form Wxn, where n is the number of bars to rest for.  Low
melody durations appear below the staff

Tablature Legend
----------------
 h   - hammer-on
 p   - pull-off
 b   - bend
 pb  - pre-bend
 r   - bend release (if no number after the r, then release immediately)
 /\  - slide into or out of (from/to "nowhere")
 s   - legato slide
 S   - shift slide
 - natural harmonic
[n]  - artificial harmonic
n(n) - tapped harmonic
 ~   - vibrato
 tr  - trill
 T   - tap
 TP  - trem. picking
 PM  - palm muting
\n/  - tremolo bar dip; n = amount to dip
 \n  - tremolo bar down
 n/  - tremolo bar up
/n\  - tremolo bar inverted dip
 =   - hold bend; also acts as connecting device for hammers/pulls
 <> - volume swell (louder/softer)
 x   - on rhythm slash represents muted slash
 o   - on rhythm slash represents single note slash

Misc Legend
-----------
 |  - bar
||  - double bar
||o - repeat start
o|| - repeat end
*|  - double bar (ending)
 :  - bar (freetime)
 $  - Segno
 &  - Coda
Tempo markers -  = BPM(8/16=s8/s16), where s8 = swing 8ths, s16 = swing 16ths

comments
print report bad tab
7 comments total. Showing first comments.
0 reply
seekandestroy93 wrote on November 4 2008, 10:21 pm

how is it that you tabbed three guitars but there are only two in the band?

0 reply
tonedeafidiot wrote on November 5 2008, 12:04 am

^studio dubbing. John 5 is one guy and some of his songs have over ten.

0 reply
FMCmakesmesmart wrote on December 19 2008, 09:45 pm

Good job dude. Great tab

I want to post or [tab]
guest
You may want to rate the tab now too:
select rating
Please do not post tabs as comments. Select "correction" instead!