Oops, an error
Loading. Please wait.

Ember To Inferno Tab

ver3
ver3

Whole song

More versions @911Tabs.com
1,615 views 3 this week
no commentswrite comment
1 2 3 4 5
worth learning
x 3
Autoscroll
+/-
esc
set tempo
stop
Contributor
Difficulty
novice
WARNING: You are trying to view
                                    content from Ultimate-Guitar.com
                                    in an unauthorized application,
                                    which is prohibited.

                                    Please use an official Ultimate
                                    Guitar Tabs application for iPhone,
                                    iPad or Android to access legitimate
                                    chords, guitar, bass, and drum tabs
                                    from Ultimate-Guitar.com database.

                                    Type "ultimate guitar tabs" in Apple
                                    App Store's or Android Market's
                                    search to find the application.
-------------------------------------------------------------------------------
                             EMBER TO INFERNO - Trivium
-------------------------------------------------------------------------------
Tabbed by: GuitarHeroJP
Email: j.proudlove@hotmail.co.uk

Guitar I, Matt Heafy: eBGDAE
Guitar II, Matt Heafy: eBGDAE
Guitar III, Solo Guitar: eBGDAE
Guitar IIII, Harmony Solo Guitar: eBGDAE

This is the best Trivium song EVER!

Q=238

Intro 4/4

Guitar I
       W        E E  Q E E  Q   E E E E E E E E    E E E E E E E Q
|-------------|---------------|------------------|-----------------|
|-------------|---------------|------------------|-----------------|
|-------------|---------------|------------------|-----------------|
|------2------|---------------|------------------|-----------------|
|------2------|-2-2----2-2----|-----7---9--------|-7---9---10---9--|
|------0------|-0-0----0-0----|-0-0---0---0-0-0--|---0---0----0----|
|Start Riff I                  |-PM| PM   |-PM-|    PM  PM   PM 
|
|Guitar II
|      W        E E  Q E E  Q   E E E E E E E E    E E E E E E Q
|-------------|---------------|------------------|----------------|
|-------------|---------------|------------------|----------------|
|-------------|---------------|------------------|----------------|
|------2------|---------------|-----5---7--------|-5---7---9---7--|
|------2------|-2-2----2-2----|------------------|----------------|
|------0------|-0-0----0-0----|-0-0---0---0-0-0--|---0---0---0----|
                               |-PM| PM   |-PM-|    PM  PM   PM 

Guitar I
  E E E E E E E E     E E  E E E E  Q    S S S S Q   S S S S Q
|------------------|-------------------|-------------------------|
|------------------|-------------------|-------------------------|
|------------------|-------------------|-------------------------|
|------------------|-------------------|---------10----------12--|
|-----7---9--------|-12---10---9---10--|---------10----------10--|
|-0-0---0---0-0-0--|----0----0---0-----|-8-8-8-8-8---8-8-8-8-8---|
||-PM| PM   |-PM-|                      |--PM---|   |--PM---|
|
|
|Guitar II
| E E E E E E E E     E E E E E E Q    S S S S Q   S S S S Q
|------------------|-----------------|-------------------------|
|------------------|-----------------|-------------------------|
|------------------|-----------------|-------------------------|
|-----5---7--------|-10---9---7---9--|---------10----------12--|
|------------------|-----------------|---------10----------10--|
|-0-0---0---0-0-0--|----0---0---0----|-8-8-8-8-8---8-8-8-8-8---|
 |-PM| PM   |-PM-|                    |--PM---|   |--PM---|

Guitar I
  S S S S Q   S S S S Q     E E E E E E E E    E E E E E E E Q
|-------------------------|------------------|-----------------|
|-------------------------|------------------|-----------------|
|-------------------------|------------------|-----------------|
|-------------------------|------------------|-----------------|
|---------10----------10--|-----7---9-----7--|---9-----10---9--|
|-8-8-8-8-8---8-8-8-8-8---|-5-5---5---5-5----|-5---5-5----5----|
||--PM---|   |--PM---|
|
|
|Guitar II 
| S S S S Q   S S S S Q     E E E E E E E E    E E E E E E Q
|-------------------------|------------------|----------------|
|-------------------------|------------------|----------------|
|-------------------------|------------------|----------------|
|-------------------------|-----5---7-----5--|---7-----9---7--|
|---------10----------10--|------------------|----------------|
|-8-8-8-8-8---8-8-8-8-8---|-5-5---5---5-5----|-5---5-5---5----|
||--PM---|   |--PM---|

Guitar I
  E E E E  E E E E     H     H
|-------------------|--------------|
|-------------------|--------------|
|-------------------|--------------|
|-------------------|--10----12----|
|-----9---10--------|--10----12----|
|-7-7---7----7-7-7--|--8-----10----|
|                        End Riff I|
|
|Guitar II
| E E E E E E E E      H     H
|------------------|--------------|
|------------------|--------------|
|------------------|--------------|
|-----7---9--------|--10----12----|
|------------------|--10----12----|
|-7-7---7---7-7-7--|--8-----10----|

Verse (Riff I)

Pre-Chorus Pt. 1
Guitar I
  S S H.  +E    +H  Q   Q      S S H.   +E   S S S S S S S S  Q   Q
|-------------|--------------|-------------|---------------------------|
|-------------|--------------|-------------|---------------------------|
|-------------|--------------|-------------|---------------------------|
|-------------|--------------|-------------|---------------------------|
|-----2-------|----10---9----|-----2-------|-9-9-9-9-9-9-9-9-10---9----|
|-0-0-0-------|--------------|-0-0-0-------|---------------------------|
|Riff II
|
|Guitar II
| S S H.  +E   +H  Q    Q      S S H.  +E     S  S  S  S  S  S  S  S  Q    Q
|-------------|--------------|-------------|------------------------------------|
|-------------|--------------|-------------|------------------------------------|
|-------------|--------------|-------------|------------------------------------|
|-------------|----9----7----|-------------|------------------------------------|
|-----2-------|--------------|-----2-------|-12-12-12-12-12-12-12-12-14---12----|
|-0-0-0-------|--------------|-0-0-0-------|------------------------------------|

Guitar I
  S S H.  +E    +H  Q   Q      S S H.   +E   E E  Q E E  Q
|-------------|--------------|-------------|---------------|
|-------------|--------------|-------------|---------------|
|-------------|--------------|-------------|---------------|
|-------------|--------------|-------------|---------------|
|-----2-------|----10---9----|-----2-------|-2-2----2-2----|
|-0-0-0-------|--------------|-0-0-0-------|-0-0----0-0----|
|
|
|Guitar II
| S S H.  +E   +H  Q    Q      S S H.  +E    E E  Q E E  Q
|-------------|--------------|-------------|---------------|
|-------------|--------------|-------------|---------------|
|-------------|--------------|-------------|---------------|
|-------------|----9----7----|-------------|---------------|
|-----2-------|--------------|-----2-------|-2-2----2-2----|
|-0-0-0-------|--------------|-0-0-0-------|-0-0----0-0----|
                                                End Riff II|

Verse 2 (Riff I)

Pre-Chorus (Riff II)

Pre-Chrous Pt.2
Guitar I
     W        +W         W        +W
|---------|---------|---------|---------|
|---------|---------|---------|---------|
|---------|---------|---------|---------|
|----5----|---(5)---|----7----|---(7)---|
|----3----|---(3)---|----5----|---(5)---|
|----3----|---(3)---|----5----|---(5)---|
|
|
|Guitar II
|    W       H     H         W       H     H
|---------|-------------|---------|--------------|
|---------|-------------|---------|--------------|
|----5----|--9----11----|----7----|--11----12----|
|----x----|--x----x-----|----x----|--x-----x-----|
|----3----|--7----9-----|----5----|--9-----10----|
|---------|-------------|---------|--------------|

Pre-Chorus Pt. 1 (Last 4 Bars)

Chorus Guitar I & II
  Q  Q  H   Q  Q  H   Q  Q  H   Q  Q  H      W        +W         W        +W
|---------|---------|---------|---------|---------|---------|---------|---------|
|---------|---------|---------|---------|---------|---------|---------|---------|
|-7--7----|-7--7----|-5--5----|---------|---------|---------|---------|---------|
|-x--x----|-x--x----|-x--x----|-9--9----|----5----|---(5)---|----7----|---(7)---|
|-7--7----|-7--7----|-7--7----|-7--7----|----3----|---(3)---|----5----|---(5)---|
|-0--0----|-0--0----|-0--0----|-0--0----|----3----|---(3)---|----5----|---(5)---|

  Q Q Q  Q       +Q  H.         Q Q Q  Q       +Q  H.
|--------------|--------------|--------------|--------------|
|--------------|--------------|--------------|--------------|
|--------------|--------------|--------------|--------------|
|--------------|--------------|--------------|--------------|
|-2-2---/10----|-----9--------|-2-2---/10----|-----9--------|
|-0-0-0--------|--------------|-0-0-0--------|--------------|

     W        +W         W        +W
|---------|---------|---------|---------|
|---------|---------|---------|---------|
|---------|---------|---------|---------|
|----5----|---(5)---|----7----|---(7)---|
|----3----|---(3)---|----5----|---(5)---|
|----3----|---(3)---|----5----|---(5)---|

Guitar I
  Q Q Q  Q       +Q  H.         Q Q Q  Q       +Q  H.
|--------------|--------------|--------------|--------------|
|--------------|--------------|--------------|--------------|
|--------------|--------------|--------------|--------------|
|--------------|--------------|--------------|--------------|
|-2-2---/10----|-----9--------|-2-2---/10----|-----9--------|
|-0-0-0--------|--------------|-0-0-0--------|--------------|
                              |
                              |
                              |Guitar II
                              | Q Q Q  Q      +Q  H.
                              |-------------|--------------|
                              |-------------|--------------|
                              |-------------|--------------|
                              |-------/9----|-----7--------|
                              |-2-2---------|--------------|
                              |-0-0-0-------|--------------|

     W        +W         W      E E  Q  Q   Q
|---------|---------|---------|-----------------|
|---------|---------|---------|-----------------|
|---------|---------|---------|-----------------|
|----5----|---(5)---|----7----|-9-7-------------|
|----3----|---(3)---|----5----|-----10--9--10---|
|----3----|---(3)---|----5----|-----------------|

Then Play all that again

Interlude                                            ________________
Guitar I                                            |1.
  E5              +E5               +E5                                            
  Q  E E Q  Q      E E Q  Q  Q      Q  E E Q  Q      E E Q  Q  Q
|----------------|----------------|----------------|----------------|
|*---------------|----------------|----------------|---------------*|
|----------------|----------------|----------------|----------------|
|----------------|----------------|----------------|--------5--4----|
|*-------7-------|-----3----------|--------7-------|-----3---------*|
|-0--5/7----0----|-2/5----0--7----|-0--5/7----0----|-2-5------------|
  ________________
 |2.
  E  E Q  Q  Q
|-----------------|
|-----------------|
|-----------------|
|------------7----|
|-10p9-7--9-------|
|-----------------|

Guitar I & II
  Q  E E Q  Q      E E Q  Q  Q      Q  E E Q  Q      E E Q  Q  Q
|----------------|----------------|----------------|----------------|
|*---------------|----------------|----------------|---------------*|
|----------------|----------------|----------------|----------------|
|----------------|----------------|----------------|--------5--4----|
|*-------7-------|-----3----------|--------7-------|-----3---------*|
|-0--5/7----0----|-2/5----0--7----|-0--5/7----0----|-2-5------------|
  ________________
 |2.
  E  E Q  Q  Q
|-----------------|
|-----------------|
|-----------------|
|------------7----|
|-10p9-7--9-------|
|-----------------|

Solo
Guitar III
  |--3--||--3--||--3--||--3---|
  E E  E E E  E E E  E E  E  E
|------------------------------|
|----------------------8-10-12-|
|---------------7-9-11---------|
|--------7-9-10----------------|
|-7-9-10-----------------------|
|------------------------------|
|
|
|Guitar IIII
| |--3-||-3--||--3--||--3--|
| E E E E E E E E  E E E  E
|--------------------7-8-10-|
|-------------7-8-10--------|
|-------5-7-9---------------|
|-5-7-9---------------------|
|---------------------------|
|---------------------------|
|
|
|Guitar I & II
|  C        D
|  H        H
|---------------------------|
|---------------------------|
|---------------------------|
|--5--------7---------------|
|--3--------5---------------|
|--3--------5---------------|

Guitar III
  E5              G5            A5                 C           D
  E E Q  Q.  E    +Q Q   H      E E Q  Q.   S  S    E  E  E  E  E  E  E  E
|---------------|-------------|------------------|-------------------------|
|*8-------------|-------------|-8----------10/12-|-12-12-12-12-10-10-10-10*|
|---9-9--9---7--|----7---7----|---9-9--9---------|-------------------------|
|---------------|-------------|------------------|-------------------------|
|*--------------|-------------|------------------|------------------------*|
|---------------|-------------|------------------|-------------------------|
|
|
|Guitar IIII
| E E Q  Q.  E    +Q Q   H      E E Q  Q. E   S  S    E  E  E  E E E E E
|-7-------------|-------------|-7-------------8/10-|-10-10-10-10-8-8-8-8-|
|*--8-8--8---7--|----7---7----|---8-8--8--8--------|--------------------*|
|---------------|-------------|--------------------|---------------------|
|---------------|-------------|--------------------|---------------------|
|*--------------|-------------|--------------------|--------------------*|
|---------------|-------------|--------------------|---------------------|

Guitar III
  E5              E5                E5            E5
  |--3---||--3---| |--3--| |--3--|  |--3--||--3--||--3--||--3--|
   E  E E  E  E E  E  E E  E  E E    E E E  E E E  E E E  E E E
|-12-10-8-12-10-8-----------------|-----------------------------|
|-----------------12-10-8-12-10-8-|-----------------------------|
|---------------------------------|-11-9-7-11-9-7---------------|
|---------------------------------|---------------10-9-7-10-9-7-|
|---------------------------------|-----------------------------|
|---------------------------------|-----------------------------|
|
|
|Guitar IIII
|  |--3---||---3---||---3---||--3--|  |---3--||--3---||---3--||---3---|
|  E  E  E  E  E  E  E  E E  E  E E    E  E E  E  E E  E  E E  E  E E
|-----------------------------------|---------------------------------|
|-13-12-10-13-12-10-----------------|---------------------------------|
|-------------------12-11-9-12-11-9-|---------------------------------|
|-----------------------------------|-12-10-9-12-10-9-----------------|
|-----------------------------------|-----------------12-10-9-12-10-9-|
|-----------------------------------|---------------------------------|

3/4
Guitar III
     E5
     Q   H
|-------------|
|-------------|
|-------------|
|----5--------|
|-------------|
|-------------|
|
|
|Guitar IIII
|    Q   H
|-------------|
|-------------|
|-------------|
|-------------|
|----7--------|
|-------------|

Verse

Pre-Chorus Pt. 1 & 2

Chorus

Outro Solo
Guitar III
  H.         Q          +W        Q.  Q.    Q       Q.   Q.   Q           W
|-----------------|-------------|----------------|-/3--------------|-------------|
|-18b(20)----0----|-----(0)~~~~-|------3----5----|-------5----3----|------5------|
|-----------------|-------------|-5--------------|-----------------|-------------|
|-----------------|-------------|----------------|-----------------|-------------|
|-----------------|-------------|----------------|-----------------|-------------|
|-----------------|-------------|----------------|-----------------|-------------|

  +H Q    E E         W        Q.   Q.    Q           W         +H     Q.        
|--------------|-------------|-----------------|--------------|----------------10-|
|----5----7h8--|------7------|-7----8----10----|------10b(12)-|-(12)---10b(12)----|
|--------------|-------------|-----------------|--------------|-------------------|
|--------------|-------------|-----------------|--------------|-------------------|
|--------------|-------------|-----------------|--------------|-------------------|
|--------------|-------------|-----------------|--------------|-------------------|

                                   |--3--||--3-||-3--||--3--|
  H.          Q       E E H.        E E E E E E E E E E E E
|------------------|-------------|---------------------------|
|-10b(12)-----12---|-10-8-7------|-10-8-7--------------------|
|------------------|-------------|--------9-7-5-9-7-5--------|
|------------------|-------------|--------------------9-7-5--|
|------------------|-------------|---------------------------|
|------------------|-------------|---------------------------|
 |--3--||-3--||-3--||--3-| |--3--||-3--||-3--||--3-| |---3--|
  E E E E E E E E E E E E   E E E E E E E E E E E E   E E  E E E E E.  E.
|-------------------------|-------------------------|--------7-7-7-8--10--|
|-------------------------|-------------------------|-7-8-10--------------|
|-------------------------|-------------------5-7-9-|---------------------|
|-9-7-5-------------------|-------5-7-9-5-7-9-------|---------------------|
|-------9-7-5-------------|-5-7-9-------------------|---------------------|
|-------------8-7-5-5-7-8-|-------------------------|---------------------|

  H        Q  Q           +H    E  E  Q      H         Q        Q          +W
|----------15-----------|------15----17---|-17b(19)---17b(19)--17~~--|------(17)------|
|-15b(17)-----15b(17)---|---------17------|--------------------------|----------------|
|-----------------------|-----------------|--------------------------|----------------|
|-----------------------|-----------------|--------------------------|----------------|
|-----------------------|-----------------|--------------------------|----------------|
|-----------------------|-----------------|--------------------------|----------------|


Guitar III
        |---3---|    |---3---|       |---3---|    |---3---|
   E  E  E  E  E  Q   E  E  E    E  E  E  E  E  Q   E  E  E
|-20-17-15-----------------15-|-20-17-15-----------------15-|
|----------17-----------17----|----------17-----------17----|
|-------------17-----17-------|-------------17-----17-------|
|----------------17-----------|----------------17-----------|
|-----------------------------|-----------------------------|
|-----------------------------|-----------------------------|
|
|
|Guitar IIII
|       |---3---|    |---3---|        |---3---|    |---3---|
|  E  E  E  E  E  Q   E  E  E    E  E  E  E  E  Q   E  E  E
|-----------------------------|-----------------------------|
|-20-17-15-----------------15-|-20-17-15-----------------15-|
|----------17-----------17----|----------17-----------17----|
|-------------17-----17-------|-------------17-----17-------|
|----------------15-----------|----------------15-----------|
|-----------------------------|-----------------------------|

Guitar III
      |---3---|    |---3---|      |---3---|    |---3---|
   Q   E  E  E  Q   E  E  E    Q   E  E  E  Q  E   E  E
|-22--19-----------------19-|-22--19-----------------19-|
|--------20-----------20----|--------20-----------20----|
|-----------19-----19-------|-----------19-----19-------|
|--------------19-----------|--------------19-----------|
|---------------------------|---------------------------|
|---------------------------|---------------------------|
|
|
|Guitar IIII
|     |---3---|    |---3---|      |---3---|    |---3---|
|  Q   E  E  E  Q   E  E  E    Q   E  E  E  Q   E  E  E
|---------------------------|---------------------------|
|-22--19-----------------19-|-22--19-----------------19-|
|--------19-----------19----|--------19-----------19----|
|-----------19-----19-------|-----------19-----19-------|
|--------------17-----------|--------------17-----------|
|---------------------------|---------------------------|

       W
|------22b(24)------|
|-------------------|
|-------------------|
|-------------------|
|-------------------|
|-------------------|
comments
We did not receive enough feedback on this tab! Please rate:
print report bad tab
1 2 3 4 5
I want to post or [tab]
guest
You may want to rate the tab now too:
select rating
Please do not post tabs as comments. Select "correction" instead!