Oops, an error
Loading. Please wait.

Ember To Inferno Tab

ver4
ver4

Whole song

Interactive

More versions @911Tabs.com
6,885 views 9 this week
1 commentread comment
1 2 3 4 5
accurate
x 3
Autoscroll
+/-
esc
set tempo
stop
Contributor
Tuning
D A D G B E
Hey! There's an official Ultimate Guitar app which is ideal
for learning songs when you're away from computer. Get the app
WARNING: You are trying to view
                                    content from Ultimate-Guitar.com
                                    in an unauthorized application,
                                    which is prohibited.

                                    Please use an official Ultimate
                                    Guitar Tabs application for iPhone,
                                    iPad or Android to access legitimate
                                    chords, guitar, bass, and drum tabs
                                    from Ultimate-Guitar.com database.

                                    Type "ultimate guitar tabs" in Apple
                                    App Store's or Android Market's
                                    search to find the application.
#----------------------------------PLEASE NOTE---------------------------------#
#This file is the author's own work and represents their interpretation of the #
#song. You may only use this file for private study, scholarship, or research. #
#------------------------------------------------------------------------------##

                                EMBER TO INFERNO
                             As recorded by Trivium
                     (From the 2003 Album EMBER TO INFERNO)

Words and Music by Matthew K. Heafy
Transcribed by Lukige

Gtr I (E A D G B E) - 'Guitar I'
Gtr II (E A D G B E) - 'Guitar II'
Gtr III (E A D G B E) - 'Guitar III'
Gtr IV (E A D G B E) - 'Solo I'
Gtr V (E A D G B E) - 'Solo II'

 Intro
  Q=120
  E5                 N.C.
 4/4
  Gtr I
       PM|   PM|     PM|    PM   PM--|    PM   PM   PM ~~
  H    S S E S S E   S S  S S  S S S S  S S  S S  S S  E
|------------------|-------------------------------------|
|------------------|-------------------------------------|
|------------------|-------------------------------------|
|------------------|-------------------------------------|
|-2----2-2---2-2---|------7----9--------7----9---10----9-|
|-0----0-0---0-0---|-0-0----0----0-0-0----0----0----0----|
|
| Gtr II
|      PM|   PM|     PM|    PM   PM--|    PM   PM   PM ~~
| H    S S E S S E   S S  S S  S S S S  S S  S S  S S  E
|------------------|-------------------------------------|
|------------------|-------------------------------------|
|------------------|-------------------------------------|
|------------------|-------------------------------------|
|-2----2-2---2-2---|-----10---12-------10---12---14---12-|
|-0----0-0---0-0---|-0-0----0----0-0-0----0----0----0----|


  PM|    PM   PM--|    PM   PM   PM ~~
  S S  S S  S S S S  S S  S S  S S  E
|-------------------------------------|
|-------------------------------------|
|-------------------------------------|
|-------------------------------------|
|------7----9-------12---10----9---10-|
|-0-0----0----0-0-0----0----0----0----|
|
| PM|    PM   PM--|    PM   PM   PM ~~
| S S  S S  S S S S  S S  S S  S S  E
|-------------------------------------|
|-------------------------------------|
|-------------------------------------|
|-------------------------------------|
|-----10---12-------15---14---12---14-|
|-0-0----0----0-0-0----0----0----0----|


          C5                                    N.C.
  PM----|    PM----|    PM----|    PM----|      PM|   PM  PM|   PM  PM|   PM~
  T T T T  E T T T T  E T T T T  E T T T T  E   S S S S S S S S S S S S S S E
|---------------------------------------------|-------------------------------|
|---------------------------------------------|-------------------------------|
|---------------------------------------------|-------------------------------|
|---------10---------10---------10---------10-|-------------------------5-----|
|---------10---------10---------10---------10-|-----7---9-----7---9---------9-|
|-8-8-8-8--8-8-8-8-8--8-8-8-8-8--8-8-8-8-8--8-|-5-5---5---5-5---5---5-5---5---|
|
| PM----|    PM----|    PM----|    PM----|      PM|   PM  PM|   PM  PM|   PM~
| T T T T  E T T T T  E T T T T  E T T T T  E   S S S S S S S S S S S S S S E
|---------------------------------------------|-------------------------------|
|---------------------------------------------|-------------------------------|
|----------9----------------------------------|-------------------------------|
|---------10---------12----------9---------10-|-------------------------5-----|
|---------10---------10---------10---------10-|-----7---9-----7---9---------9-|
|-8-8-8-8--8-8-8-8-8--8-8-8-8-8--8-8-8-8-8--8-|-5-5---5---5-5---5---5-5---5---|


                                     Verse
                                  $
                                  $$
                   C5     D5          N.C.
  PM|   PM   PM--|                    PM|    PM   PM--|    PM   PM   PM ~~
  S S S S  S S S S  S  E.  S   E.     S S  S S  S S S S  S S  S S  S S  E
|---------------------------------||---------------------------------------|
|---------------------------------||o--------------------------------------|
|---------------------------------||---------------------------------------|
|---------------------------------||---------------------------------------|
|-----9---10-------10-10--12--12--||o------7----9--------7----9---10----9--|
|-7-7---7----7-7-7--8--8--10--10--||--0-0----0----0-0-0----0----0----0-----|
|
| PM|   PM   PM--|                    PM|    PM   PM--|    PM   PM   PM ~~
| S S S S  S S S S  S  E.  S   E.     S S  S S  S S S S  S S  S S  S S  E
|---------------------------------||---------------------------------------|
|---------------------------------||o--------------------------------------|
|---------------------------------||---------------------------------------|
|---------------------------------||---------------------------------------|
|-----9---10--------7--7---7s=10--||o-----10---12-------10---12---14---12--|
|-7-7---7----7-7-7--8--8--10-(10)-||--0-0----0----0-0-0----0----0----0-----|


  PM|    PM   PM--|    PM   PM   PM ~~
  S S  S S  S S S S  S S  S S  S S  E
|-------------------------------------|
|-------------------------------------|
|-------------------------------------|
|-------------------------------------|
|------7----9-------12---10----9---10-|
|-0-0----0----0-0-0----0----0----0----|
|
| PM|    PM   PM--|    PM   PM   PM ~~
| S S  S S  S S S S  S S  S S  S S  E
|-------------------------------------|
|-------------------------------------|
|-------------------------------------|
|-------------------------------------|
|-----10---12-------15---14---12---14-|
|-0-0----0----0-0-0----0----0----0----|


          C5
  PM----|    PM----|    PM----|    PM----|
  T T T T  E T T T T  E T T T T  E T T T T  E
|---------------------------------------------|
|---------------------------------------------|
|---------------------------------------------|
|---------10---------10---------10---------10-|
|---------10---------10---------10---------10-|
|-8-8-8-8--8-8-8-8-8--8-8-8-8-8--8-8-8-8-8--8-|
|
| PM----|    PM----|    PM----|    PM----|
| T T T T  E T T T T  E T T T T  E T T T T  E
|---------------------------------------------|
|---------------------------------------------|
|----------9----------------------------------|
|---------10---------10----------9---------10-|
|---------10---------10---------10---------10-|
|-8-8-8-8--8-8-8-8-8--8-8-8-8-8--8-8-8-8-8--8-|


  N.C.                                             C5     D5
  PM|   PM  PM|   PM  PM|   PM~   PM|   PM   PM--|
  S S S S S S S S S S S S S S E   S S S S  S S S S  S  E.  S   E.
|-------------------------------|----------------------------------|
|-------------------------------|----------------------------------|
|-------------------------------|----------------------------------|
|-------------------------5-----|----------------------------------|
|-----7---9-----7---9---------9-|-----9---10-------10-10--12--12---|
|-5-5---5---5-5---5---5-5---5---|-7-7---7----7-7-7--8--8--10--10---|
|
| PM|   PM  PM|   PM  PM|   PM~   PM|   PM   PM--|
| S S S S S S S S S S S S S S E   S S S S  S S S S  S  E.  S   E.
|-------------------------------|----------------------------------|
|-------------------------------|----------------------------------|
|-------------------------------|----------------------------------|
|-------------------------5-----|----------------------------------|
|-----7---9-----7---9---------9-|-----9---10--------7--7---7s=10---|
|-5-5---5---5-5---5---5-5---5---|-7-7---7----7-7-7--8--8--10-(10)--|


  E5
  Gtr I
  S  E. +H.              S E. +H.
|----------------------|---------------------------|
|----------------------|---------------------------|
|----------------------|---------------------------|
|----------------------|---------------------------|
|-2--2--(2)------------|-2-2--(2)------------------|
|-0--0--(0)------------|-0-0--(0)------------------|
|
| Gtr II
| S  E. +H     S S S S   S E. +Q   S S S S S S S S
|----------------------|---------------------------|
|----------------------|---------------------------|
|----------------------|---------------------------|
|--------------5-5-4-4-|-------------------5-5-4-4-|
|-2--2--(2)------------|-2-2--(2)--7-7-5-5---------|
|-0--0--(0)------------|-0-0--(0)------------------|
|
| Gtr III
| H.           S S S S   H         S S S S S S S S
|----------------------|---------------------------|
|----------------------|---------------------------|
|--------------4-4-2-2-|-------------------4-4-2-2-|
|----------------------|-----------5-5-4-4---------|
|----------------------|---------------------------|
|----------------------|---------------------------|


                        1.                        2.
              To Coda                              &
              To Coda
                                                             N.C.
                                   PM|   PM|                 PM
  S  E. +H.              S E. +Q   S S E S S E     S E. +Q   S   E.  Q
|----------------------|------------------------||-----------------------|
|----------------------|-----------------------o||-----------------------|
|----------------------|------------------------||-----------------------|
|----------------------|------------------------||--------------/9--10\--|
|-2--2--(2)------------|-2-2--(2)--2-2---2-2---o||-2-2--(2)--------------|
|-0--0--(0)------------|-0-0--(0)--0-0---0-0----||-0-0--(0)--0--/7---8\--|
|
|                                  PM|   PM|                 PM
| S  E. +H     S S S S   S E. +Q   S S E S S E     S E. +Q   S   E.  Q
|----------------------|------------------------||-----------------------|
|----------------------|-----------------------o||-----------------------|
|----------------------|------------------------||-------------/11--12\--|
|--------------5-5-4-4-|------------------------||-----------------------|
|-2--2--(2)------------|-2-2--(2)--2-2---2-2---o||-2-2--(2)-----/9--10\--|
|-0--0--(0)------------|-0-0--(0)--0-0---0-0----||-0-0--(0)--0-----------|
|
| H.           S S S S   W                         H         S   E.  Q
|----------------------|------------------------||-----------------------|
|----------------------|-----------------------o||-----------------------|
|--------------4-4-2-2-|------------------------||--------------/7---9\--|
|----------------------|------------------------||-----------------------|
|----------------------|-----------------------o||--------------/5---7\--|
|----------------------|------------------------||-----------------------|


  C5/G            D5/A
  W                W
|---------------|---------------------|
|---------------|---------------------|
|-5-------------|--7------------------|
|-5-------------|--7------------------|
|-3-------------|--5------------------|
|-3-------------|--5------------------|
|
| H     Q    Q     H       Q       Q
|---------------|---------------------|
|---------------|---------------------|
|-9----12--/14--|-11------14-----/16--|
|-x-----x----x--|--x-------x-------x--|
|-7----10--/12--|--9------12-----/14--|
|---------------|---------------------|
|
| H     Q    Q     H    Q      Q
|---------------|---------------------|
|---------------|---------------------|
|-5-----9--/11--|--7---11----/12------|
|-x-----x----x--|--x----x------x------|
|-3-----7---/9--|--5----9----/10------|
|---------------|---------------------|


  E5
                                   PM|   PM|
  S  E. +H.              S E. +Q   S S E S S E
|----------------------|-----------------------||
|----------------------|-----------------------||
|----------------------|-----------------------||
|-2--2--(2)------------|-2-2--(2)--------------||
|-2--2--(2)------------|-2-2--(2)--2-2---2-2---||
|-0--0--(0)------------|-0-0--(0)--0-0---0-0---||
|
|                                  PM|   PM|
| S  E. +H     S S S S   S E. +Q   S S E S S E
|----------------------|-----------------------||
|----------------------|-----------------------||
|----------------------|-----------------------||
|-2--2--(2)----5-5-4-4-|-2-2--(2)--------------||
|-2--2--(2)------------|-2-2--(2)--2-2---2-2---||
|-0--0--(0)------------|-0-0--(0)--0-0---0-0---||
|
| H.           S S S S   W
|----------------------|-----------------------||
|----------------------|-----------------------||
|--------------4-4-2-2-|-----------------------||
|----------------------|-----------------------||
|----------------------|-----------------------||
|----------------------|-----------------------||


   Pre-Chorus
    Dsus2/E             C/E      E5       C5/G       D5/A
    Gtrs I, II
     E  E Q   E  E Q     E  E Q  E E Q    W          W
||--------------------|-----------------|----------|-------||
||o-------------------|-----------------|----------|------o||
||--------------------|-----------------|-5--------|-7-----||
||--12-12----12-12----|-10-10----9-9----|-5--------|-7-----||
||o--7--7-----7--7----|--7--7----7-7----|-3--------|-5----o||
||---0--0-----0--0----|--0--0----0-0----|-3--------|-5-----||


 Chorus
  E5  N.C.                 E5  N.C.
  Gtr I
      PM  ~~~~~~~~~            PM  ~~~~~~~~~
  E E E   E  +E  Q  +E     E E E   E  +E  Q   E
|------------------------|------------------------|
|------------------------|------------------------|
|------------------------|------------------------|
|-2-2----/5--(5)-4--(4)\-|-2-2----/5--(5)-4---4\--|
|-2-2--------------------|-2-2--------------------|
|-0-0-0------------------|-0-0-0------------------|
|
| Gtr II
|     PM  ~~~~~~~~~            PM  ~~~~~~~~~
| E E E   E  +E  Q  +E     E E E   E  +E  Q  +E
|------------------------|------------------------|
|------------------------|------------------------|
|------------------------|------------------------|
|-2-2--------------------|-2-2--------------------|
|-2-2---/10-(10)-9--(9)\-|-2-2---/10-(10)-9--(9)\-|
|-0-0-0------------------|-0-0-0------------------|


  C5/G              D5/A
  E E E E E E E E   E E E E E   E    E    E
|-----------------|---------------------------|
|-----------------|---------------------------|
|-5-5-5-5-5-5-5-5-|-7-7-7-7-7---7----7----7---|
|-5-5-5-5-5-5-5-5-|-7-7-7-7-7---7----7----7---|
|-3-3-3-3-3-3-3-3-|-5-5-5-5-5---5----5----5---|
|-3-3-3-3-3-3-3-3-|-5-5-5-5-5---5----5----5---|
|
|                           |--3---|
| E E E E E E E E   E E E E E E    E S  S S S
|-----------------|---------------------------|
|-----------------|---------------------------|
|-5-5-5-5-5-5-5-5-|-7-7-7-7-------------------|
|-5-5-5-5-5-5-5-5-|-7-7-7-7-9-7-----------7-9-|
|-3-3-3-3-3-3-3-3-|-5-5-5-5-------10-9-10-----|
|-3-3-3-3-3-3-3-3-|-5-5-5-5-------------------|


  E5  N.C.                 E5  N.C.
      PM  ~~~~~~~~~            PM ~~~~~~~~
  E E E   E  +E  Q  +E     E E E  E +E  Q   E
|------------------------|----------------------|
|------------------------|----------------------|
|------------------------|----------------------|
|-2-2----/5--(5)-4--(4)\-|-2-2---/5-(5)-4---4\--|
|-2-2--------------------|-2-2------------------|
|-0-0-0------------------|-0-0-0----------------|
|
|     PM  ~~~~~~~~~            PM ~~~~~~~~
| E E E   E  +E  Q  +E     E E E  E +E  Q  +E
|------------------------|----------------------|
|------------------------|----------------------|
|------------------------|----------------------|
|-2-2--------------------|-2-2---/9-(9)-7--(7)\-|
|-2-2---/10-(10)-9--(9)\-|-2-2------------------|
|-0-0-0------------------|-0-0-0----------------|


                                D.S. al Coda
  C5/G              D5/A
  E E E E E E E E   E E E E E   E    E    E
|-----------------|---------------------------||
|-----------------|---------------------------||
|-5-5-5-5-5-5-5-5-|-7-7-7-7-7---7----7----7---||
|-5-5-5-5-5-5-5-5-|-7-7-7-7-7---7----7----7---||
|-3-3-3-3-3-3-3-3-|-5-5-5-5-5---5----5----5---||
|-3-3-3-3-3-3-3-3-|-5-5-5-5-5---5----5----5---||
|
|                           |--3---|
| E E E E E E E E   E E E E E E    E S  S S S
|-----------------|---------------------------||
|-----------------|---------------------------||
|-5-5-5-5-5-5-5-5-|-7-7-7-7-------------------||
|-5-5-5-5-5-5-5-5-|-7-7-7-7-9-7-----------7-9-||
|-3-3-3-3-3-3-3-3-|-5-5-5-5-------10-9-10-----||
|-3-3-3-3-3-3-3-3-|-5-5-5-5-------------------||


 Bridge
  E5
  W                     +H.                +E  e
|---------------------|--------------------------|
|---------------------|--------------------------|
|---------------------|--------------------------|
|-2-------------------|-(2)----------------(2)-2-|
|-2-------------------|-(2)----------------(2)-2-|
|-0-------------------|-(0)----------------(0)-0-|
|
| E S S E S S E E E E    E  S S E S S E E   E  E
|---------------------|--------------------------|
|---------------------|--------------------------|
|---------------------|--------------------------|
|---------------------|--------------------------|
|-------7-------3---2-|---------7-------3-/10--9-|
|-0-5s7---0h3h5---0---|--0--5s7---0h3h5----------|


                                    N.C.
  W                     +H           S S E E E
|---------------------|-------------------------|
|---------------------|-------------------------|
|---------------------|-------------------------|
|-2-------------------|-(2)---------------------|
|-2-------------------|-(2)---------10p9p7-9----|
|-0-------------------|-(0)------------------8--|
|
|                                 PM
| E S S E S S E E E E    E  S S E E  S S E E E
|---------------------|-------------------------|
|---------------------|-------------------------|
|---------------------|-------------------------|
|---------------------|----------------------7--|
|-------7-------3---2-|---------7---10p9p7-9----|
|-0-5s7---0h3h5---0---|--0--5s7---0-------------|


    E S S E S S E E E E   E S S E S S E E   E E
||----------------------|-----------------------|
||o---------------------|-----------------------|
||----------------------|-----------------------|
||----------------------|-----------------------|
||o-------7-------3---2-|-------7-------3-/10-9-|
||--0-5s7---0h3h5---0---|-0-5s7---0h3h5---------|
|
|   E S S E S S E E E E   E S S E S S E E   E E
||----------------------|-----------------------|
||o---------------------|-----------------------|
||----------------------|-----------------------|
||----------------------|-----------------------|
||o-------7-------3---2-|-------7-------3-/10-9-|
||--0-5s7---0h3h5---0---|-0-5s7---0h3h5---------|


                                PM
  E S S E S S E E E E   E S S E E  S S E E E
|---------------------|-----------------------||
|---------------------|----------------------o||
|---------------------|-----------------------||
|---------------------|-----------------------||
|-------7-------3---2-|-------7---10p9p7-9---o||
|-0-5s7---0h3h5---0---|-0-5s7---0----------8--||
|
|                               PM
| E S S E S S E E E E   E S S E E  S S E E E
|---------------------|-----------------------||
|---------------------|----------------------o||
|---------------------|-----------------------||
|---------------------|--------------------7--||
|-------7-------3---2-|-------7---10p9p7-9---o||
|-0-5s7---0h3h5---0---|-0-5s7---0-------------||


 Guitar Solo
  C5                D5
 2/4
  Gtrs I, II
   Q                 Q
|-------------------------------------|
|-------------------------------------|
|--5-----------------7----------------|
|--5-----------------7----------------|
|--3-----------------5----------------|
|-------------------------------------|
|
| Gtr IV
|  |------6-------|  |------6-------|
|  S  S  S  S  S  S  S  S  S  S  S  S
|-------------------------------------|
|----------------------------12h13h15-|
|-------------------11h12h14----------|
|----------10h12h14-------------------|
|-10h12h14----------------------------|
|-------------------------------------|
|
| Gtr V
|  |------6-------|  |------6-------|
|  S  S  S  S  S  S  S  S  S  S  S  S
|-------------------------------------|
|-------------------------------------|
|----------------------------12h14h16-|
|-------------------12h14h16----------|
|----------12h14h15-------------------|
|-12h14h15----------------------------|


    E5                   G5
   4/4
     H                     H
||-------------------------------------------|
||o------------------------------------------|
||-------------------------------------------|
||---2---------------------5-----------------|
||o--2---------------------5-----------------|
||---0---------------------3-----------------|
|
|    S  S  E  S  S  S  S  +S   S  E  S  S  E
||-------------------------------------------|
||o------------------------------------------|
||--16-14-12-12-12-12-11-(11)-11-11-11-11-11-|
||-------------------------------------------|
||o------------------------------------------|
||-------------------------------------------|
|
|    S  S  E  S  S  S  S  +S   S  E  S  S  E
||-------------------------------------------|
||o------------------------------------------|
||--12-11--9--9--9--9--7--(7)--7--7--7--7--7-|
||-------------------------------------------|
||o------------------------------------------|
||-------------------------------------------|


  A5                     C5            D5
   H                       Q           Q        4x
|-----------------------------------------------||
|----------------------------------------------o||
|--------------------------5-----------7--------||
|--7-----------------------5-----------7--------||
|--7-----------------------3-----------5-------o||
|--5--------------------------------------------||
|
|  S  S  E  S  S  S    S  +S   S  S  E    S  E  4x
|-----------------------------------------------||
|----------------------------------------------o||
|-16-14-12-12-12-12/--19-(19)-19-19-17---17-17--||
|-----------------------------------------------||
|----------------------------------------------o||
|-----------------------------------------------||
|
|  S  S  E  S  S  S    S  +S   S  S  E    S  E  4x
|-----------------------------------------------||
|----------------------------------------------o||
|-12-11--9--9--9--9--/16-(16)-16-16-14---14-14--||
|-----------------------------------------------||
|----------------------------------------------o||
|-----------------------------------------------||


                                                            D.S.S. al Dbl. Coda
  E5
                                                                           3/8
   E        E        E        E        E        E        E        E          E Q
|-------------------------------------------------------------------------|---------||
|-------------------------------------------------------------------------|---------||
|-------------------------------------------------------------------------|---------||
|--2-----------------2-----------------2-----------------2----------------|--2------||
|--2-----------------2-----------------2-----------------2----------------|--2------||
|--0-----------------0-----------------0-----------------0----------------|--0------||
|
|  |------6-------|  |------6-------|  |------6-------|  |------6-------|
|  S  S  S  S  S  S  S  S  S  S  S  S  S  S  S  S  S  S  S  S  S  S  S  S    E Q
|-19p17p15-19p17p15-------------------------------------------------------|---------||
|-------------------19p17p15-19p17p15-------------------------------------|---------||
|-------------------------------------19p17p16-19p17p16-17p16p14-17p16p14-|---------||
|-------------------------------------------------------------------------|-17------||
|-------------------------------------------------------------------------|---------||
|-------------------------------------------------------------------------|---------||
|
|  |------6-------|  |------6-------|  |------6-------|  |------6-------|
|  S  S  S  S  S  S  S  S  S  S  S  S  S  S  S  S  S  S  S  S  S  S  S  S    E Q
|-15p14p12-15p14p12-------------------------------------------------------|---------||
|-------------------15p13p12-15p13p12-------------------------------------|---------||
|-------------------------------------16p14p12-16p14p12-14p12p11-14p12p11-|---------||
|-------------------------------------------------------------------------|-14------||
|-------------------------------------------------------------------------|---------||
|-------------------------------------------------------------------------|---------||


  &&
  E5        N.C.          C5/G            D5/A
 4/4
  Gtr I
            PM
  S E. +Q   S   E.  Q     W                W
|-----------------------|---------------|-----------------|
|-----------------------|---------------|-----------------|
|-----------------------|-5-------------|--7--------------|
|--------------/9--10\--|-5-------------|--7--------------|
|-2-2--(2)--------------|-3-------------|--5--------------|
|-0-0--(0)--0--/7---8\--|-3-------------|--5--------------|
|
| Gtr II
|           PM
| S E. +Q   S   E.  Q     H     Q    Q     H     Q    Q
|-----------------------|---------------|-----------------|
|-----------------------|---------------|-----------------|
|-------------/11--12\--|-9----12--/14--|-11----14--/16---|
|-----------------------|-x-----x----x--|--x-----x----x---|
|-2-2--(2)-----/9--10\--|-7----10--/12--|--9----12--/14---|
|-0-0--(0)--0-----------|---------------|-----------------|
|
| Gtr III
| H         S   E.  Q     H     Q    Q     H     Q    Q
|-----------------------|---------------|-----------------|
|-----------------------|---------------|-----------------|
|--------------/7---9\--|-5-----7---/9--|--7----11--/12---|
|-----------------------|-x-----x----x--|--x-----x----x---|
|--------------/5---7\--|-3-----5---/7--|--5-----9--/10---|
|-----------------------|---------------|-----------------|


  E5
                                   PM|   PM|
  S  E. +H.              S E. +Q   S S E S S E
|----------------------|-----------------------||
|----------------------|-----------------------||
|----------------------|-----------------------||
|-2--2--(2)------------|-2-2--(2)--------------||
|-2--2--(2)------------|-2-2--(2)--2-2---2-2---||
|-0--0--(0)------------|-0-0--(0)--0-0---0-0---||
|
|                                  PM|   PM|
| S  E. +H     S S S S   S E. +Q   S S E S S E
|----------------------|-----------------------||
|----------------------|-----------------------||
|----------------------|-----------------------||
|-2--2--(2)----5-5-4-4-|-2-2--(2)--------------||
|-2--2--(2)------------|-2-2--(2)--2-2---2-2---||
|-0--0--(0)------------|-0-0--(0)--0-0---0-0---||
|
| H.           S S S S   W
|----------------------|-----------------------||
|----------------------|-----------------------||
|--------------4-4-2-2-|-----------------------||
|----------------------|-----------------------||
|----------------------|-----------------------||
|----------------------|-----------------------||


   Pre-Chorus
    Dsus2/E             C/E      E5       C5/G       D5/A
    Gtrs I, II
     E  E Q   E  E Q     E  E Q  E E Q    W          W
||--------------------|-----------------|----------|-------||
||o-------------------|-----------------|----------|------o||
||--------------------|-----------------|-5--------|-7-----||
||--12-12----12-12----|-10-10----9-9----|-5--------|-7-----||
||o--7--7-----7--7----|--7--7----7-7----|-3--------|-5----o||
||---0--0-----0--0----|--0--0----0-0----|-3--------|-5-----||


 Out-Chorus
  E5   N.C.                                   E5           N.C.
  Gtr I
         PM   ~~~~~~~~~~~~~~~                         PM     ~~~~~~~~~
   E E   E    E  +E        Q           +E      E E    E      E  +E  Q       +E
|-------------------------------------------|------------------------------------|
|-------------------------------------------|------------------------------------|
|-------------------------------------------|------------------------------------|
|--2-2-------/5--(5)-------4-----------(4)\-|--2-2----------/5--(5)-4-------(4)\-|
|--2-2--------------------------------------|--2-2-------------------------------|
|--0-0---0----------------------------------|--0-0----0--------------------------|
|
| Gtr II
|        PM   ~~~~~~~~~~~~~~~                         PM     ~~~~~~~~~
|  E E   E    E  +E        Q           +E      E E    E      E  +E  Q       +E
|-------------------------------------------|------------------------------------|
|-------------------------------------------|------------------------------------|
|-------------------------------------------|------------------------------------|
|--2-2--------------------------------------|--2-2-------------------------------|
|--2-2------/10-(10)-------9-----------(9)\-|--2-2---------/10-(10)-9-------(9)\-|
|--0-0---0----------------------------------|--0-0----0--------------------------|
|
| Gtr IV
|        \5       \1/  \1/    \1/  \1/
|                                  ~~~~
|                 |-----3-----|                |----3----|       |---3----|
|  Q    +Q        E   +E     +E   +Q           Q    Q    Q       Q     Q  Q
|-15---(15)---------------------------------|------------------------------------|
|-------------------------------------------|------------------------------------|
|-------------------------------------------|------------------/12---------------|
|-----------------9---(9)----(9)--(9)-------|-10---12---14------------14-12------|
|-------------------------------------------|------------------------------------|
|-------------------------------------------|------------------------------------|


  C5/G                                   D5/A
   E    E E  E        E E   E     E       E E E E  E E    E    E
|--------------------------------------|--------------------------|
|--------------------------------------|--------------------------|
|--5----5-5--5--------5-5---5-----5----|--7-7-7-7--7-7----7----7--|
|--5----5-5--5--------5-5---5-----5----|--7-7-7-7--7-7----7----7--|
|--3----3-3--3--------3-3---3-----3----|--5-5-5-5--5-5----5----5--|
|--3----3-3--3--------3-3---3-----3----|--5-5-5-5--5-5----5----5--|
|
|  E    E E  E        E E   E     E       E E E E  E E    E    E
|--------------------------------------|--------------------------|
|--------------------------------------|--------------------------|
|--5----5-5--5--------5-5---5-----5----|--7-7-7-7--7-7----7----7--|
|--5----5-5--5--------5-5---5-----5----|--7-7-7-7--7-7----7----7--|
|--3----3-3--3--------3-3---3-----3----|--5-5-5-5--5-5----5----5--|
|--3----3-3--3--------3-3---3-----3----|--5-5-5-5--5-5----5----5--|
|
|  ~~~~~              ~~~~~~~~~           ~~
|            |--3--|        |---3----|             |----3----|
|  Q.        S  S  S  Q    +E   E    E    H        Q    Q    Q
|--------------------------------------|--------------------------|
|--------------------------------------|--------------------------|
|-----------12-----------------11---12-|-11-------11---12---14----|
|-12b14--------14-12-14---(14)---------|--------------------------|
|--------------------------------------|--------------------------|
|--------------------------------------|--------------------------|


  E5      N.C.                         E5      N.C.
          PM  ~~~~~~~~~                        PM ~~~~~~~~~~~~~~~~
   E    E E   E  +E  Q       +E         E    E E  E    +E      Q   +E
|------------------------------------|----------------------------------|
|------------------------------------|----------------------------------|
|------------------------------------|----------------------------------|
|--2----2----/5--(5)-4-------(4)\----|--2----2---/5----(5)-----4---(4)\-|
|--2----2----------------------------|--2----2--------------------------|
|--0----0-0--------------------------|--0----0-0------------------------|
|
|         PM  ~~~~~~~~~                        PM ~~~~~~~~~~~~~~~~
|  E    E E   E  +E  Q       +E         E    E E  E    +E      Q   +E
|------------------------------------|----------------------------------|
|------------------------------------|----------------------------------|
|------------------------------------|----------------------------------|
|--2----2----------------------------|--2----2---/9----(9)-----7---(7)\-|
|--2----2---/10-(10)-9-------(9)\----|--2----2--------------------------|
|--0----0-0--------------------------|--0----0-0------------------------|
|
|                                       ~~~~~                  ~~~
|  H.                   E.         S    Q.        E     S   S  Q.
|------------------------------------|----------------------------------|
|---------------------------------15-|----------------------------------|
|-14b16----------------14b16---------|-14b16-----14b16-14--12-11--------|
|------------------------------------|----------------------------------|
|------------------------------------|----------------------------------|
|------------------------------------|----------------------------------|


  C5/G
   E        E        E        E        E        E        E        E
|-------------------------------------------------------------------------|
|-------------------------------------------------------------------------|
|--5--------5--------5--------5--------5--------5--------5--------5-------|
|--5--------5--------5--------5--------5--------5--------5--------5-------|
|--3--------3--------3--------3--------3--------3--------3--------3-------|
|--3--------3--------3--------3--------3--------3--------3--------3-------|
|
|  E        E        E        E        E        E        E        E
|-------------------------------------------------------------------------|
|-------------------------------------------------------------------------|
|--5--------5--------5--------5--------5--------5--------5--------5-------|
|--5--------5--------5--------5--------5--------5--------5--------5-------|
|--3--------3--------3--------3--------3--------3--------3--------3-------|
|--3--------3--------3--------3--------3--------3--------3--------3-------|
|
|  |------6-------|  |------6-------|  |------6-------|  |------6-------|
|  S  S  S  S  S  S  S  S  S  S  S  S  S  S  S  S  S  S  S  S  S  S  S  S
|-------------------------------------------------------------------------|
|-------------------------------------------------------------------------|
|-14-12-------------12----------------------------------------------------|
|-------16-14-12-------16-14-12-------------------------------------12----|
|----------------15-------------15-14-12----12-14-12----12-14-15-14----15-|
|----------------------------------------15----------15-------------------|


  D5/A
   E        E        E        E        E    E     E    E
|------------------------------------------------------------|
|------------------------------------------------------------|
|--7--------7--------7--------7--------7----7-----7----7-----|
|--7--------7--------7--------7--------7----7-----7----7-----|
|--5--------5--------5--------5--------5----5-----5----5-----|
|--5--------5--------5--------5--------5----5-----5----5-----|
|
|  E        E        E        E        E    E     E    E
|------------------------------------------------------------|
|------------------------------------------------------------|
|--7--------7--------7--------7--------7----7-----7----7-----|
|--7--------7--------7--------7--------7----7-----7----7-----|
|--5--------5--------5--------5--------5----5-----5----5-----|
|--5--------5--------5--------5--------5----5-----5----5-----|
|
|  |------6-------|  |------6-------|  |---3---|  |--3---|
|  S  S  S  S  S  S  S  S  S  S  S  S  e  e    e  e  e   E
|------------------------------------------------------------|
|-------------------------------------12-12---13-15-15-------|
|-------------11-12----------11-12-14------------------------|
|-------12-14----------12-14---------------------------------|
|-14-15-------------15---------------------------------------|
|------------------------------------------------------------|


  E5      N.C.
           PM  ~~~~~~~~~~~~
   E    E  E   E     +E  Q       +E
|----------------------------------------|
|----------------------------------------|
|----------------------------------------|
|--2----2-----/5-----(5)-4-------(4)\----|
|--2----2--------------------------------|
|--0----0--0-----------------------------|
|
|          PM  ~~~~~~~~~~~~
|  E    E  E   E     +E  Q       +E
|----------------------------------------|
|----------------------------------------|
|----------------------------------------|
|--2----2--------------------------------|
|--2----2----/10----(10)-9-------(9)\----|
|--0----0--0-----------------------------|
|
|                           |----3-----|
|  Q       E   Q.           E  E       E
|---------15---------------14-15------17-|
|-15b17-------15b17----------------------|
|----------------------------------------|
|----------------------------------------|
|----------------------------------------|
|----------------------------------------|


  E5      N.C.
           PM     ~~~~~~~~~~
   E    E  E      E   +E  Q   +E
|------------------------------------------------------|
|------------------------------------------------------|
|------------------------------------------------------|
|--2----2--------/5---(5)-4---(4)\---------------------|
|--2----2----------------------------------------------|
|--0----0--0-------------------------------------------|
|
|          PM     ~~~~~~~~~~
|  E    E  E      E   +E  Q   +E
|------------------------------------------------------|
|------------------------------------------------------|
|------------------------------------------------------|
|--2----2----------------------------------------------|
|--2----2-------/10--(10)-9---(9)\---------------------|
|--0----0--0-------------------------------------------|
|
|                              |---------5----------|
|  Q       E     +H            T     T    T    T    T
|-17b19---17b19r(17)-----------------------------------|
|---------------------------------------(17)-----------|
|----------------------------------(17)------(17)------|
|----------------------------(17)-----------------(17)-|
|------------------------------------------------------|
|------------------------------------------------------|


  C5/G
  Gtrs I, II
   E        E        E        E        E        E        E        E
|-------------------------------------------------------------------------|
|-------------------------------------------------------------------------|
|--5--------5--------5--------5--------5--------5--------5--------5-------|
|--5--------5--------5--------5--------5--------5--------5--------5-------|
|--3--------3--------3--------3--------3--------3--------3--------3-------|
|--3--------3--------3--------3--------3--------3--------3--------3-------|
|
| Gtr V
|  |------6-------|  |------6-------|  |------6-------|  |------6-------|
|  S  S  S  S  S  S  S  S  S  S  S  S  S  S  S  S  S  S  S  S  S  S  S  S
|-15p12----------12-15p12----------12-15p12----------12-15p12----------12-|
|-------13----13----------13----13----------13----13----------13----13----|
|----------12----------------12----------------12----------------12-------|
|-------------------------------------------------------------------------|
|-------------------------------------------------------------------------|
|-------------------------------------------------------------------------|


  D5/A
    E        E        E        E        E        E        E        E
|---------------------------------------------------------------------------*|
|---------------------------------------------------------------------------*|
|---7--------7--------7--------7--------7--------7--------7--------7--------*|
|---7--------7--------7--------7--------7--------7--------7--------7--------*|
|---5--------5--------5--------5--------5--------5--------5--------5--------*|
|---5--------5--------5--------5--------5--------5--------5--------5--------*|
|
|   |------6-------|  |------6-------|  |------6-------|  |------6-------|
|   S  S  S  S  S  S  S  S  S  S  S  S  S  S  S  S  S  S  S  S  S  S  S  S
|-/17p14----------14-17p14----------14-17p14----------14-17p14----------14--*|
|--------15----15----------15----15----------15----15----------15----15-----*|
|-----------14----------------14----------------14----------------14--------*|
|---------------------------------------------------------------------------*|
|---------------------------------------------------------------------------*|
|---------------------------------------------------------------------------*|


Duration Legend
---------------
W - whole; H - half; Q - quarter; E - 8th; S - 16th; T - 32nd; X - 64th; a - acciaccatura
+ - note tied to previous; . - note dotted; .. - note double dotted
Uncapitalized letters represent notes that are staccato (1/2 duration)
Irregular groupings are notated above the duration line
Duration letters will always appear directly above the note/fret number it represents the
duration for.  Duration letters with no fret number below them represent rests.  Multi-
bar rests are notated in the form Wxn, where n is the number of bars to rest for.  Low
melody durations appear below the staff

Tablature Legend
----------------
 h   - hammer-on
 p   - pull-off
 b   - bend
 pb  - pre-bend
 r   - bend release (if no number after the r, then release immediately)
 /\  - slide into or out of (from/to "nowhere")
 s   - legato slide
 S   - shift slide
  - natural harmonic
[n]  - artificial harmonic
n(n) - tapped harmonic
 ~   - vibrato
 tr  - trill
 T   - tap
 TP  - trem. picking
 PM  - palm muting
\n/  - tremolo bar dip; n = amount to dip
 \n  - tremolo bar down
 n/  - tremolo bar up
/n\  - tremolo bar inverted dip
 =   - hold bend; also acts as connecting device for hammers/pulls
 <>  - volume swell (louder/softer)
 x   - on rhythm slash represents muted slash
 o   - on rhythm slash represents single note slash

Misc Legend
-----------
 |  - bar
||  - double bar
||o - repeat start
o|| - repeat end
*|  - double bar (ending)
 :  - bar (freetime)
 $  - Segno
 &  - Coda
Tempo markers -  = BPM(8/16=s8/s16), where s8 = swing 8ths, s16 = swing 16ths
comments
We did not receive enough feedback on this tab! Please rate:
print report bad tab
1 2 3 4 5
1 comment total.
0 reply
GuitarHero_jp wrote on October 4 2008, 08:16 am

Dude. I don't know if youve noticed but i already have a tab like this, that is ALOT easier to read.

I want to post or [tab]
guest
You may want to rate the tab now too:
select rating
Please do not post tabs as comments. Select "correction" instead!