Oops, an error
Loading. Please wait.

Entrance Of The Conflagration Tab

ver1
ver1

Solo

Whole song

More versions @911Tabs.com
27,475 views 27 this week
54 commentsread comments
1 2 3 4 5
accurate
x 35
Autoscroll
+/-
esc
set tempo
stop
Contributor
WARNING: You are trying to view
                                    content from Ultimate-Guitar.com
                                    in an unauthorized application,
                                    which is prohibited.

                                    Please use an official Ultimate
                                    Guitar Tabs application for iPhone,
                                    iPad or Android to access legitimate
                                    chords, guitar, bass, and drum tabs
                                    from Ultimate-Guitar.com database.

                                    Type "ultimate guitar tabs" in Apple
                                    App Store's or Android Market's
                                    search to find the application.
Trivium
Entrance of the Conflagration
The Crusade
Tabbed by Scott Bennett

Main Riff

Guitar 1

E|--------------------------------------------------------------------------------------------|
B|--------------------------------------------------------------------------------------------|
G|------------------------------8-------------------------------------------------------------|
D|----2-------2-------2---------8--2----------------------------------------------------------|
A|----2-------2-------2------2--6--2----------------------------------------------------------|
E|----0--0-0--0--0-0--0--2-3----6--0--0-0-0-0-0-0-0-0-0-0-0-0-8-7-6-6-8-7-6-6-7-6-5-5-7-6-5-5-|

E|--------------------------------------------------------------------------------------------|
B|--------------------------------------------------------------------------------------------|
G|------------------------------8-------------------------------------------------------------|
D|----2-------2-------2---------8--2---------------------------------------5-4----------------|
A|----2-------2-------2------2--6--2---------------------------------0-1-2--------------------|
E|----0--0-0--0--0-0--0--2-3----6--0--0-0-0-0-0-0-0-0-0-0-0-0--0-2-3--------------------------|

Guitar 2

E|-----------------------------------------------------------------------------------------------|
B|-----------------------------------------------------------------------------------------------|
G|------------------------------8----------------------------------------------------------------|
D|----2-------2-------2---------8--2-------------------------------------------------------------|
A|----2-------2-------2------2--6--2-------------------------12-10-10-10-12-10-10-10-9-9-10-9-9--|
E|----0--0-0--0--0-0--0--2-3----6--0--0-0-0-0-0-0-0-0-0-0-0-0------------------------------------|

E|--------------------------------------------------------------------------------------------|
B|--------------------------------------------------------------------------------------------|
G|------------------------------8-------------------------------------------------------------|
D|----2-------2-------2---------8--2---------------------------------------5-4----------------|
A|----2-------2-------2------2--6--2---------------------------------0-1-2--------------------|
E|----0--0-0--0--0-0--0--2-3----6--0--0-0-0-0-0-0-0-0-0-0-0-0--0-2-3--------------------------|

End verse fill

Guitar 1

E|-----------------------------------------|
B|-----------------------------------------|
G|-------------------------------0-5-4~----|
D|----2----------------------1-2-----------|
A|----2----------------0-1-2---------------|
E|----0------bass--------------------------|

Guitar 2

E|----------------------------------------|
B|----------------------------------------|
G|---------------------------------chorus-|
D|----------------5-4~--------------------|
A|----------0-1-2-------------------------|
E|----0-2-3-------------------------------|


Chorus

E|----------------------------------------------------------------------------------------------|
B|---------------------------------------------------------8--8--8--8--8------------------------|
G|---------------------------------------------------------9--9--9--9--9------------------------|
D|--------5------------5---------8------------8--------9---9--9--9--9--9---7--------------------|
A|----0---3---3--3--3--3--3--3---6---6--6--6--10p6--6--7---7--7--7--7--7---7--------------------|
E|-------------------------------------------------------------------------5--------------------|

E|----------------------------------------------------------------------------------------------|
B|----------------------------------------------------------------------------------------------|
G|----------------------------------------------------------------------------------------------|
D|--------------------------------------------------------9-----9-----9-----9-----9-------------|
A|-----6-7-8-9-----9-----------9-----------9--------5--6--7-7-7-7-7-7-7-7-7-7-7-7-6----6--6--6--|
E|-----4-5-6-7--7--7--7--7--7--7--7--7--7--7--7--7----------------------------------------------|

Main Riff
End Verse
Chorus


E|----------------------------------------------------------------------------------------------|
B|---------------------------------------------------------8--8--8--8--8------------------------|
G|---------------------------------------------------------9--9--9--9--9------------------------|
D|--------5------------5---------8------------8--------9---9--9--9--9--9---7--------------------|
A|----0---3---3--3--3--3--3--3---6---6--6--6--10p6--6--7---7--7--7--7--7---7--------------------|
E|-------------------------------------------------------------------------5--------------------|

E|----------------------------------------------------------------------------------------------|
B|----------------------------------------------------------------------------------------------|
G|----------------------------------------------------------------------------------------------|
D|--------------------------------------------------------9-----9-----9-----9-----9-------------|
A|-----6-7-8-9-----9-----------9-----------9--------5--6--7-7-7-7-7-7-7-7-7-7-7-7-6----6--6--6--|
E|-----4-5-6-7--7--7--7--7--7--7--7--7--7--7--7--7----------------------------------------------|

E|----------------------------------------------------------------------------------------------|
B|---------------------------------------------------------8--8--8--8--8------------------------|
G|---------------------------------------------------------9--9--9--9--9------------------------|
D|--------5------------5---------8------------8--------9---9--9--9--9--9---7--------------------|
A|----0---3---3--3--3--3--3--3---6---6--6--6--10p6--6--7---7--7--7--7--7---7--------------------|
E|-------------------------------------------------------------------------5--------------------|

E|----------------------------------------------------------------------------------------------|
B|----------------------------------------------------------------------------------------------|
G|----------------------------------------------------------------------------------------------|
D|--------------------------------------------------------9-----9-----9-----9-----9-------------|
A|-----6-7-8-9-----9-----------9-----------9--------5--6--7-7-7-7-7-7-7-7-7-7-7-7-6----6--6--6--|
E|-----4-5-6-7--7--7--7--7--7--7--7--7--7--7--7--7----------------------------------------------|

Break

Guitar 1
E|----------------------------------------------------------------------------------------------|
B|----------------------------------------------------------------------------------------------|
G|----------------------------------------------------------------------------------------------|
D|----2-----------------------------------------------------------------------------------------|
A|----2-----------------------------------------------------------------------------------------|
E|----0-----------------------------------------------------------------------------------------|

Guitar 2

E|----------------------------------------------------------------------------------------------|
B|----------------------------------------------------------------------------------------------|
G|----------------------------------------------------------------------------------------------|
D|----9---------------9-11--------------11-12----------------------------12-8-------------------|
A|----7--777777777777-7-9--999999999999-9--10--101010101010101010101010--10-6--666666666666-----|
E|----------------------------------------------------------------------------------------------|

Both guitars

E|----------------------------------------------------------------------------------------------|
B|----------------------------------------------------------------------------------------------|
G|----------------------------------------------------------------------------------------------|
D|----9---------------9-5---------------5--8----------------8--4--------------------------------|
A|----7--777777777777-7-3--333333333333-3--6--666666666666--6--2--222222222222------------------|
E|----------------------------------------------------------------------------------------------|

Both guitars

E|----------------------------------------------------------------------------------------------|
B|----------------------------------------------------------------------------------------------|
G|----------------------------------------------------------------------------------------------|
D|----9---------------9-11--------------11-12----------------------------12-8-------------------|
A|----7--777777777777-7-9--999999999999-9--10--101010101010101010101010--10-6--666666666666-----|
E|----------------------------------------------------------------------------------------------|


Both guitars

E|----------------------------------------------------------------------------------------------|
B|----------------------------------------------------------------------------------------------|
G|----------------------------------------------------------------------------------------------|
D|----9---------------9-5---------------5--8----------------8--4--------------------------------|
A|----7--777777777777-7-3--333333333333-3--6--666666666666--6--2--222222222222------------------|
E|----------------------------------------------------------------------------------------------|

Guitar 1

E|----------------------------------------------------------------------------------------------------------------|
B|----------------------------------------------------------------------------------------------------------------|
G|----12--------------------------12-14--------------------------14-16--------------------------16-11-------------|
D|----------------------------------------------------------------------------------------------------------------|
A|----10-101010101010101010101010-10-12-121212121212121212121212-12-14-141414141414141414141414-14-9-999999999999-|
E|----------------------------------------------------------------------------------------------------------------|

Guitar 2

E|----------------------------------------------------------------------------------------------|
B|----------------------------------------------------------------------------------------------|
G|----------------------------------------------------------------------------------------------|
D|----9---------------9-11--------------11-12----------------------------12-8-------------------|
A|----7--777777777777-7-9--999999999999-9--10--101010101010101010101010--10-6--666666666666-----|
E|----------------------------------------------------------------------------------------------|

Guitar 1

E|----------------------------------------------------------------------------------------------|
B|----------------------------------------------------------------------------------------------|
G|----12---------------------------12-9--------------9-11-------------11-8----------------------|
D|----------------------------------------------------------------------------------------------|
A|----10--101010101010101010101010-10-7-777777777777-7-9-999999999999-9--6-666666666666---------|
E|----------------------------------------------------------------------------------------------|

Guitar 2

E|----------------------------------------------------------------------------------------------|
B|----------------------------------------------------------------------------------------------|
G|----------------------------------------------------------------------------------------------|
D|----9---------------9-5---------------5--8----------------8--4--------------------------------|
A|----7--777777777777-7-3--333333333333-3--6--666666666666--6--2--222222222222------------------|
E|----------------------------------------------------------------------------------------------|

GO!

Both Guitars

Im not 100% sure about the fill, but it sounds pretty correct

E|----------------------------------------------------------------------------------------------|
B|----------------------------------------------------------------------------------------------|
G|----------------------------------------------------------------------------------------------|
D|----9------9------9------9------9---8---9------9------9---------------------------------------|
A|----7------7------7------7------7---6---7------7------7--------10---------------13------------|
E|------0--0---0--0---0--0---0--0---0-------0--0---0--0---0-8-11----11-8--0-11-14----14-11------|

E|----------------------------------------------------------------------------------------------|
B|----------------------------------------------------------------------------------------------|
G|----------------------------------------------------------------------------------------------|
D|----9------9------9------9------9---8---9------9------9---------14----------------13----------|
A|----7------7------7------7------7---6---7------7------7-0-12-15----15-12--0-11-14----14-11----|
E|------0--0---0--0---0--0---0--0---0-------0--0---0--0-----------------------------------------|X2

E|-----------------------------------------------------------------------------------------------------------|
B|-----------------------------------------------------------------------------------------------------------|
G|-----------------------------------------------------------------------------------------------------------|
D|-----------------------------------------------------------------------------------------------------------|
A|------------14----------------13---------------10--------------9---------------14----------------13--------|
E|----0-12-15----15-12--0-11-14----14-11--0-8-11----11-8--0-7-10---10-7--0-12-15----15-12--0-11-14----14-11--|

Next riff (Rythym under Solos)

E|----------------------------------------------------------------------------------------------------------------|
B|----------------------------------------------------------------------------------------------------------------|
G|----5s7-7-----7---5-5-----5-----4h5p4------5---4-4-----5-----4h5p4-----5---4-4-----4-----2-2-----2-----5-5---4--|
D|----5s7-7-----7---5-5-----5-----5---5------5---5-5-----5-----5---5-----5---5-5-----5-----3-3-----3-----5-5---5--|
A|----------0-0---0-----0-0---0-0--------------------------------------------------------------0-0---0-0----------|
E|---------------------------------------3-3---3-----3-3---3-3-------0-0---0-----0-0---0-0-------------------3----|

Solos (Not Done)

Back to this riff


E|----------------------------------------------------------------------------------------------|
B|----------------------------------------------------------------------------------------------|
G|----------------------------------------------------------------------------------------------|
D|----9------9------9------9------9---8---9------9------9---------------------------------------|
A|----7------7------7------7------7---6---7------7------7--------10---------------13------------|
E|------0--0---0--0---0--0---0--0---0-------0--0---0--0---0-8-11----11-8--0-11-14----14-11------|

E|----------------------------------------------------------------------------------------------|
B|----------------------------------------------------------------------------------------------|
G|----------------------------------------------------------------------------------------------|
D|----9------9------9------9------9---8---9------9------9---------14----------------13----------|
A|----7------7------7------7------7---6---7------7------7-0-12-15----15-12--0-11-14----14-11----|
E|------0--0---0--0---0--0---0--0---0-------0--0---0--0-----------------------------------------|X2

E|-----------------------------------------------------------------------------------------------------------|
B|-----------------------------------------------------------------------------------------------------------|
G|-----------------------------------------------------------------------------------------------------------|
D|-----------------------------------------------------------------------------------------------------------|
A|------------14----------------13---------------10--------------9---------------14----------------13--------|
E|----0-12-15----15-12--0-11-14----14-11--0-8-11----11-8--0-7-10---10-7--0-12-15----15-12--0-11-14----14-11--|

Main Riff
Chorus
End

Enjoy People!
comments
print report bad tab
54 comments total. Showing first comments.
0 reply
Sculptor wrote on September 5 2006, 05:00 pm

Awsome tab dude, 5*s howz the solo coming?

0 reply
blsjunkieSDMF wrote on September 5 2006, 08:22 pm

sweet tab
its axendancy from the trivium forums btw

0 reply
skotyb wrote on September 6 2006, 09:58 pm

Hey axe, cheers man

I will have a go at the solos when I get a chance.

I want to post or [tab]
guest
You may want to rate the tab now too:
select rating
Please do not post tabs as comments. Select "correction" instead!