Oops, an error
Loading. Please wait.

Entrance Of The Conflagration Tab

ver4
ver4
More versions @911Tabs.com
4,458 views 3 this week
5 commentsread comments
1 2 3 4 5
excellent!
x 8
Autoscroll
+/-
esc
set tempo
stop
Contributor
Hey! There's an official Ultimate Guitar app which is ideal
for learning songs when you're away from computer. Get the app
WARNING: You are trying to view
                                    content from Ultimate-Guitar.com
                                    in an unauthorized application,
                                    which is prohibited.

                                    Please use an official Ultimate
                                    Guitar Tabs application for iPhone,
                                    iPad or Android to access legitimate
                                    chords, guitar, bass, and drum tabs
                                    from Ultimate-Guitar.com database.

                                    Type "ultimate guitar tabs" in Apple
                                    App Store's or Android Market's
                                    search to find the application.
------------------------------|
Trivium                       |
                              |
Entrance of the Conflagration |
                              |
Tabbed by Luke tasker         |
------------------------------|

Ive watched em play this and im 99.9% sure

(I dont think the pulloffs in the main riff are right but you get a way better sound)


intro

Guitar 1

E|-----------------------------------------------------------------------------------------------|
B|-----------------------------------------------------------------------------------------------|
G|-----------------------------------------------------------------------------------------------|
D|--2-------2-------2--4--5--8--8--8--2----------------------------------------------------------|
A|--2-------2-------2--2--3--6--6--6--2----------------------------------------------------------|
E|--0--0-0--0--0-0--0--2--3--6--6--6--0--0-0-0-0-0-0-0-0-0-0-0-0-5p3-3-3-5p3-3-3-3p2-2-2-3p2-2-2-|

Guitar 2

E|--------------------------------------------------------------------------------------------------|
B|--------------------------------------------------------------------------------------------------|
G|--------------------------------------------------------------------------------------------------|
D|--2-------2-------2--4--5--8--8--8--2-------------------------------------------------------------|
A|--2-------2-------2--2--3--6--6--6--2-------------------------12p10-10-10-12p10-10-10p9-9-10p9-9--|
E|--0--0-0--0--0-0--0--2--3--6--6--6--0--0-0-0-0-0-0-0-0-0-0-0-0------------------------------------|

guitar 1

E|-----------------------------------------------------------------------------------------------|
B|-----------------------------------------------------------------------------------------------|
G|-----------------------------------------------------------------------------------------------|
D|--2-------2-------2--4--5--8--8--8--2---------------------------------------5-4----------------|
A|--2-------2-------2--2--3--6--8--8--2---------------------------------0-1-2--------------------|
E|--0--0-0--0--0-0--0--2--3--6--6--6--0--0-0-0-0-0-0-0-0-0-0-0-0--0-2-3--------------------------|

guitar 2

E|-----------------------------------------------------------------------------------------------|
B|-----------------------------------------------------------------------------------------------|
G|-----------------------------------------------------------------------------------------------|
D|--2-------2-------2--4--5--8--8--8--2---------------------------------------5-4----------------|
A|--2-------2-------2--2--3--6--8--8--2---------------------------------0-1-2--------------------|
E|--0--0-0--0--0-0--0--2--3--6--6--6--0--0-0-0-0-0-0-0-0-0-0-0-0--0-2-3--------------------------|


Main Riff

Guitar 1

E|-----------------------------------------------------------------------------------------------|
B|-----------------------------------------------------------------------------------------------|
G|-----------------------------------------------------------------------------------------------|
D|--2-------2-------2--4--5--8--8--8--2----------------------------------------------------------|
A|--2-------2-------2--2--3--6--6--6--2----------------------------------------------------------|
E|--0--0-0--0--0-0--0--2--3--6--6--6--0--0-0-0-0-0-0-0-0-0-0-0-0-5p3-3-3-5p3-3-3-3p2-2-2-3p2-2-2-|

Guitar 2

E|--------------------------------------------------------------------------------------------------|
B|--------------------------------------------------------------------------------------------------|
G|--------------------------------------------------------------------------------------------------|
D|--2-------2-------2--4--5--8--8--8--2-------------------------------------------------------------|
A|--2-------2-------2--2--3--6--6--6--2-------------------------12p10-10-10-12p10-10-10p9-9-10p9-9--|
E|--0--0-0--0--0-0--0--2--3--6--6--6--0--0-0-0-0-0-0-0-0-0-0-0-0------------------------------------|

guitar 1

E|-----------------------------------------------------------------------------------------------|
B|-----------------------------------------------------------------------------------------------|
G|-----------------------------------------------------------------------------------------------|
D|--2-------2-------2--4--5--8--8--8--2---------------------------------------5-4----------------|
A|--2-------2-------2--2--3--6--8--8--2---------------------------------0-1-2--------------------|
E|--0--0-0--0--0-0--0--2--3--6--6--6--0--0-0-0-0-0-0-0-0-0-0-0-0--0-2-3--------------------------|

guitar 2

E|-----------------------------------------------------------------------------------------------|
B|-----------------------------------------------------------------------------------------------|
G|-----------------------------------------------------------------------------------------------|
D|--2-------2-------2--4--5--8--8--8--2---------------------------------------5-4----------------|
A|--2-------2-------2--2--3--6--8--8--2---------------------------------0-1-2--------------------|
E|--0--0-0--0--0-0--0--2--3--6--6--6--0--0-0-0-0-0-0-0-0-0-0-0-0--0-2-3--------------------------|

Guitar 1

E|-----------------------------------------------------------------------------------------------|
B|-----------------------------------------------------------------------------------------------|
G|-----------------------------------------------------------------------------------------------|
D|--2-------2-------2--4--5--8--8--8--2----------------------------------------------------------|
A|--2-------2-------2--2--3--6--6--6--2----------------------------------------------------------|
E|--0--0-0--0--0-0--0--2--3--6--6--6--0--0-0-0-0-0-0-0-0-0-0-0-0-5p3-3-3-5p3-3-3-3p2-2-2-3p2-2-2-|

Guitar 2

E|--------------------------------------------------------------------------------------------------|
B|--------------------------------------------------------------------------------------------------|
G|--------------------------------------------------------------------------------------------------|
D|--2-------2-------2--4--5--8--8--8--2-------------------------------------------------------------|
A|--2-------2-------2--2--3--6--6--6--2-------------------------12p10-10-10-12p10-10-10p9-9-10p9-9--|
E|--0--0-0--0--0-0--0--2--3--6--6--6--0--0-0-0-0-0-0-0-0-0-0-0-0------------------------------------|

guitar 1

E|-----------------------------------------------------------------------------------------------|
B|-----------------------------------------------------------------------------------------------|
G|------------------------------------------------------------------------------------------5-4~-|
D|--2-------2-------2--4--5--8--8--8--2---------------------------2-------------------1-2-5------|
A|--2-------2-------2--2--3--6--8--8--2---------------------------2-------------0-1-2------------|
E|--0--0-0--0--0-0--0--2--3--6--6--6--0--0-0-0-0-0-0-0-0-0-0-0-0--0------------------------------|

guitar 2

E|-----------------------------------------------------------------------------------------------|
B|-----------------------------------------------------------------------------------------------|
G|-----------------------------------------------------------------------------------------------|
D|--2-------2-------2--4--5--8--8--8--2---------------------------------------5-4~---------------|
A|--2-------2-------2--2--3--6--8--8--2---------------------------------0-1-2--------------------|
E|--0--0-0--0--0-0--0--2--3--6--6--6--0--0-0-0-0-0-0-0-0-0-0-0-0--0-2-3--------------------------|


Chorus

Guitars 1+2

E|-------------------------------------------------------------------------------------------|
B|------------------------------------------------------8--8--8--8--8------------------------|
G|----4-------------------------------------------------9--9--9--9--9------------------------|
D|----5------7-----5--7------4------7-----4--7------9---9--9--9--9--9---7--7--7--------------|
A|----3---3--3--3--3--3--3---6---6--6--6--6--6--6---7---7--7--7--7--7---7--7--7--------------|
E|----------------------------------------------------------------------5--5--5--------------|

E|----------------------------------------------------------------------------------------|
B|----------------------------------------------------------------------------------------|
G|-----------------9--------9--------8----------------------------------------------------|
D|-----------9-----9--------9--------9-----7--8--9-----9-----9-----9-----9--9--9--9-------|
A|-----7-7-8-9-----9--------9--------9--9--5--6--7-7-7-7-7-7-7-7-7-7-7-7-6--6--6--7-------|
E|-----5-5-6-7--7--7--7--7--7--7--7--7--7--------------------------------------------0--0-|

Main riff

Guitar 1

E|-----------------------------------------------------------------------------------------------|
B|-----------------------------------------------------------------------------------------------|
G|-----------------------------------------------------------------------------------------------|
D|--2-------2-------2--4--5--8--8--8--2----------------------------------------------------------|
A|--2-------2-------2--2--3--6--6--6--2----------------------------------------------------------|
E|--0--0-0--0--0-0--0--2--3--6--6--6--0--0-0-0-0-0-0-0-0-0-0-0-0-5p3-3-3-5p3-3-3-3p2-2-2-3p2-2-2-|

Guitar 2

E|--------------------------------------------------------------------------------------------------|
B|--------------------------------------------------------------------------------------------------|
G|--------------------------------------------------------------------------------------------------|
D|--2-------2-------2--4--5--8--8--8--2-------------------------------------------------------------|
A|--2-------2-------2--2--3--6--6--6--2-------------------------12p10-10-10-12p10-10-10p9-9-10p9-9--|
E|--0--0-0--0--0-0--0--2--3--6--6--6--0--0-0-0-0-0-0-0-0-0-0-0-0------------------------------------|

guitar 1

E|-----------------------------------------------------------------------------------------------|
B|-----------------------------------------------------------------------------------------------|
G|-----------------------------------------------------------------------------------------------|
D|--2-------2-------2--4--5--8--8--8--2---------------------------------------5-4----------------|
A|--2-------2-------2--2--3--6--8--8--2---------------------------------0-1-2--------------------|
E|--0--0-0--0--0-0--0--2--3--6--6--6--0--0-0-0-0-0-0-0-0-0-0-0-0--0-2-3--------------------------|

guitar 2

E|-----------------------------------------------------------------------------------------------|
B|-----------------------------------------------------------------------------------------------|
G|-----------------------------------------------------------------------------------------------|
D|--2-------2-------2--4--5--8--8--8--2---------------------------------------5-4----------------|
A|--2-------2-------2--2--3--6--8--8--2---------------------------------0-1-2--------------------|
E|--0--0-0--0--0-0--0--2--3--6--6--6--0--0-0-0-0-0-0-0-0-0-0-0-0--0-2-3--------------------------|

Guitar 1

E|-----------------------------------------------------------------------------------------------|
B|-----------------------------------------------------------------------------------------------|
G|-----------------------------------------------------------------------------------------------|
D|--2-------2-------2--4--5--8--8--8--2----------------------------------------------------------|
A|--2-------2-------2--2--3--6--6--6--2----------------------------------------------------------|
E|--0--0-0--0--0-0--0--2--3--6--6--6--0--0-0-0-0-0-0-0-0-0-0-0-0-5p3-3-3-5p3-3-3-3p2-2-2-3p2-2-2-|

Guitar 2

E|--------------------------------------------------------------------------------------------------|
B|--------------------------------------------------------------------------------------------------|
G|--------------------------------------------------------------------------------------------------|
D|--2-------2-------2--4--5--8--8--8--2-------------------------------------------------------------|
A|--2-------2-------2--2--3--6--6--6--2-------------------------12p10-10-10-12p10-10-10p9-9-10p9-9--|
E|--0--0-0--0--0-0--0--2--3--6--6--6--0--0-0-0-0-0-0-0-0-0-0-0-0------------------------------------|

guitar 1

E|-----------------------------------------------------------------------------------------------|
B|-----------------------------------------------------------------------------------------------|
G|------------------------------------------------------------------------------------------5-4~-|
D|--2-------2-------2--4--5--8--8--8--2---------------------------2-------------------1-2-5------|
A|--2-------2-------2--2--3--6--8--8--2---------------------------2-------------0-1-2------------|
E|--0--0-0--0--0-0--0--2--3--6--6--6--0--0-0-0-0-0-0-0-0-0-0-0-0--0------------------------------|

guitar 2

E|-----------------------------------------------------------------------------------------------|
B|-----------------------------------------------------------------------------------------------|
G|-----------------------------------------------------------------------------------------------|
D|--2-------2-------2--4--5--8--8--8--2---------------------------------------5-4~---------------|
A|--2-------2-------2--2--3--6--8--8--2---------------------------------0-1-2--------------------|
E|--0--0-0--0--0-0--0--2--3--6--6--6--0--0-0-0-0-0-0-0-0-0-0-0-0--0-2-3--------------------------|


Chorus


E|-------------------------------------------------------------------------------------------|
B|------------------------------------------------------8--8--8--8--8------------------------|
G|----4-------------------------------------------------9--9--9--9--9------------------------|
D|----5------7-----5--7------4------7-----4--7------9---9--9--9--9--9---7--7--7--------------|
A|----3---3--3--3--3--3--3---6---6--6--6--6--6--6---7---7--7--7--7--7---7--7--7--------------|
E|----------------------------------------------------------------------5--5--5--------------|

E|----------------------------------------------------------------------------------------|
B|----------------------------------------------------------------------------------------|
G|-----------------9--------9--------8----------------------------------------------------|
D|-----------9-----9--------9--------9-----7--8--9-----9-----9-----9-----9--9--9--9-------|
A|-----7-7-8-9-----9--------9--------9--9--5--6--7-7-7-7-7-7-7-7-7-7-7-7-6--6--6--7-------|
E|-----5-5-6-7--7--7--7--7--7--7--7--7--7--------------------------------------------0--0-|

E|-------------------------------------------------------------------------------------------|
B|------------------------------------------------------8--8--8--8--8------------------------|
G|----4-------------------------------------------------9--9--9--9--9------------------------|
D|----5------7-----5--7------4------7-----4--7------9---9--9--9--9--9---7--7--7--------------|
A|----3---3--3--3--3--3--3---6---6--6--6--6--6--6---7---7--7--7--7--7---7--7--7--------------|
E|----------------------------------------------------------------------5--5--5--------------|

E|----------------------------------------------------------------------------------------|
B|----------------------------------------------------------------------------------------|
G|-----------------9--------9--------8----------------------------------------------------|
D|-----------9-----9--------9--------9-----7--8--9-----9-----9-----9-----9--9--9--9-------|
A|-----7-7-8-9-----9--------9--------9--9--5--6--7-7-7-7-7-7-7-7-7-7-7-7-6--6--6--7-------|
E|-----5-5-6-7--7--7--7--7--7--7--7--7--7--------------------------------------------0--0-|

Break

Guitar 1
E|----------------------------------------------------------------------------------------------|
B|----------------------------------------------------------------------------------------------|
G|----------------------------------------------------------------------------------------------|
D|----2-----------------------------------------------------------------------------------------|
A|----2-----------------------------------------------------------------------------------------|
E|----0-----------------------------------------------------------------------------------------|

Guitar 2

E|----------------------------------------------------------------------------------------------|
B|----------------------------------------------------------------------------------------------|
G|----------------------------------------------------------------------------------------------|
D|----9---------------9-11--------------11-12----------------------------12-8-------------------|
A|----7--777777777777-7-9--999999999999-9--10--101010101010101010101010--10-6--666666666666-----|
E|----------------------------------------------------------------------------------------------|

Guitars 1+2

E|----------------------------------------------------------------------------------------------|
B|----------------------------------------------------------------------------------------------|
G|----------------------------------------------------------------------------------------------|
D|----9---------------9-5---------------5--8----------------8--4--------------------------------|
A|----7--777777777777-7-3--333333333333-3--6--666666666666--6--2--222222222222------------------|
E|----------------------------------------------------------------------------------------------|

Guitars 1+2

E|----------------------------------------------------------------------------------------------|
B|----------------------------------------------------------------------------------------------|
G|----------------------------------------------------------------------------------------------|
D|----9---------------9-11--------------11-12----------------------------12-8-------------------|
A|----7--777777777777-7-9--999999999999-9--10--101010101010101010101010--10-6--666666666666-----|
E|----------------------------------------------------------------------------------------------|


Guitars 1+2

E|----------------------------------------------------------------------------------------------|
B|----------------------------------------------------------------------------------------------|
G|----------------------------------------------------------------------------------------------|
D|----9---------------9-5---------------5--8----------------8--4--------------------------------|
A|----7--777777777777-7-3--333333333333-3--6--666666666666--6--2--222222222222------------------|
E|----------------------------------------------------------------------------------------------|

Guitar 1

E|----------------------------------------------------------------------------------------------------------------|
B|----------------------------------------------------------------------------------------------------------------|
G|----12--------------------------12-14--------------------------14-16--------------------------16-11-------------|
D|----------------------------------------------------------------------------------------------------------------|
A|----10-101010101010101010101010-10-12-121212121212121212121212-12-14-141414141414141414141414-14-9-999999999999-|
E|----------------------------------------------------------------------------------------------------------------|

Guitar 2

E|----------------------------------------------------------------------------------------------|
B|----------------------------------------------------------------------------------------------|
G|----------------------------------------------------------------------------------------------|
D|----9---------------9-11--------------11-12----------------------------12-8-------------------|
A|----7--777777777777-7-9--999999999999-9--10--101010101010101010101010--10-6--666666666666-----|
E|----------------------------------------------------------------------------------------------|

Guitar 1

E|----------------------------------------------------------------------------------------------|
B|----------------------------------------------------------------------------------------------|
G|----12---------------------------12-9--------------9-11-------------11-8----------------------|
D|----------------------------------------------------------------------------------------------|
A|----10--101010101010101010101010-10-7-777777777777-7-9-999999999999-9--6-666666666666---------|
E|----------------------------------------------------------------------------------------------|

Guitar 2

E|----------------------------------------------------------------------------------------------|
B|----------------------------------------------------------------------------------------------|
G|----------------------------------------------------------------------------------------------|
D|----9---------------9-5---------------5--8----------------8--4--------------------------------|
A|----7--777777777777-7-3--333333333333-3--6--666666666666--6--2--222222222222------------------|
E|----------------------------------------------------------------------------------------------|

Guitars 1+2


E|----------------------------------------------------------------------------------------------|
B|----------------------------------------------------------------------------------------------|
G|----------------------------------------------------------------------------------------------|
D|----9------9------9------9------9---8---9------9------9---------------------------------------|
A|----7------7------7------7------7---6---7------7------7--------10---------------13------------|
E|------0--0---0--0---0--0---0--0---0-------0--0---0--0---0-8-11----11-8--0-11-14----14-11------|

E|----------------------------------------------------------------------------------------------|
B|----------------------------------------------------------------------------------------------|
G|----------------------------------------------------------------------------------------------|
D|----9------9------9------9------9---8---9------9------9---------14----------------13----------|
A|----7------7------7------7------7---6---7------7------7-0-12-15----15-12--0-11-14----14-11----|
E|------0--0---0--0---0--0---0--0---0-------0--0---0--0-----------------------------------------|X2

E|----------------------------------------------------------------------------------------------------------|
B|----------------------------------------------------------------------------------------------------------|
G|----------------------------------------------------------------------------------------------------------|
D|------------------------------------------------------------------------------9-------------8-------------|
A|------------14----------------13---------------10--------------9-------0-7-10---10-7--0-6-9---9-6---------|
E|----0-12-15----15-12--0-11-14----14-11--0-8-11----11-8--0-7-10---10-7-------------------------------------|

Next riff (Rythym under Solos)

E|----------------------------------------------------------------------------------------------------------------|
B|----------------------------------------------------------------------------------------------------------------|
G|----5s7-7-----7---5-5-----5-----4h5p4------5---4-4-----5-----4h5p4-----5---4-4-----4-----2-2-----2-----5-5---4--|
D|----5s7-7-----7---5-5-----5-----5---5------5---5-5-----5-----5---5-----5---5-5-----5-----3-3-----3-----5-5---5--|
A|----------0-0---0-----0-0---0-0--------------------------------------------------------------0-0---0-0----------|
E|---------------------------------------3-3---3-----3-3---3-3-------0-0---0-----0-0---0-0-------------------3----|

Solos

coreys solo

PM PM    PM PM             PM
  E  E  E  E  E  E  E  E     E  E  E  E  E  E   E  E
--------------------------|---------------------------|
--------------------------|---------------------------|
--L--2--------2--------5--|--L--5-----4--L--9s--4--4--|
--L--3--------3--------5--|--L--5-----5---------------|
--------------------------|---------------------------|
--------1--1-----1--3-----|--------3------------------|


  Q    Q    E  E  E  E     Q    Q    Q    E  E
------------------------|-----------------------|
------------------5--3--|--L--------------------|
--L----5----L--5--------|-------5----4----5--4--|
------------------------|-----------------------|
------------------------|-----------------------|
------------------------|-----------------------|


     PM PM PM PM PM             PM PM PM PM
  E  E  E  E  E  E  E  E     E  E  E  E  Q    E  E
--------------------------|-------------------------|
--------------------6--5--|--L----------------6--5--|
--L-----------4--7--------|-----7--5--7--5----------|
-----7--5--7--------------|-------------------------|
--------------------------|-------------------------|
--------------------------|-------------------------|


        PM PM        PM             PM PM PM
  E  E  E  E  S S E  E  E     E  E  E  E  E  E  E    E
---------------------------|----------------------------|
--L---------------------6--|--L--5-----------5--6S--10--|
-----7--5--7--5-5-5--7-----|--------7--5--7-------------|
---------------------------|----------------------------|
---------------------------|----------------------------|
---------------------------|----------------------------|


  Q     Q     E   Q    E     E   Q     E   Q     E   E
--------------------------|------------------------------|
--L----10----10S--8----8--|--L--13----13~--L~-------15b--|
--------------------------|------------------------------|
--------------------------|----------------------x-------|
--------------------------|------------------------------|
--------------------------|------------------------------|


                   |-------3-------|
   Q       Q       Q       Q       Q
------------------------------------------|
--15pb----15pb----15pb----15pb----15pb----|
------------------------------------------|
------------------------------------------|
------------------------------------------|
------------------------------------------|


   E     E     E     E     E     E     S   S  E
-------------------------------------------------|
--15pb--15pb--15pb--15pb--15pb--15pb--15p-13-15--|
-------------------------------------------------|
-------------------------------------------------|
-------------------------------------------------|
-------------------------------------------------|


                          |----3---|
   E   S  S  S   S   E    E    E   E   S  S   E
--------------------------------------------------|
---L--13-13-15p-13s-12h--13p--12------12----------|
----------------------------------14-----14p-12h--|
--------------------------------------------------|
--------------------------------------------------|
--------------------------------------------------|


  E    E    E   E   Q.      E
-------------------------------|
---------------------------17--|
--Lh--14s--17--14~--L----------|
-------------------------------|
-------------------------------|
-------------------------------|


  E   E   E   E   E    E   E   E
-----------------------------------|
--L--17--17--17--17s--15--15--15s--|
-----------------------------------|
-----------------------------------|
-----------------------------------|
-----------------------------------|


   E   E   E   E   E   E  Q
--------------------------------|
--10--10--10--10--10s--8--8\----|
--------------------------------|
--------------------------------|
--------------------------------|
--------------------------------|


  |--3--|   |---3---|  |---3--|
  E  E  E   E   E   E  E   E  E   S   S  S  S
--------5--12p--9-------------8--17p-12-------|
-----6-------------10-----10------------13----|
--7--------------------9-------------------14-|
----------------------------------------------|
----------------------------------------------|
----------------------------------------------|


   E   E   E   E  E   E    E   E      Q    Q    Q    Q
-----------------------------------|----------------------|
----------13--12--L----------------|----------------------|
---------------------14s--12--14~--|--L-------------------|
-----------------------------------|----------------------|
--12--14---------------------------|----------------------|
-----------------------------------|----------------------|

Corey Solo Harmony
You should be able to figure out where these parts go!

E  E  E  E  E  E  E  E     Q    Q    E   Q    E
-----------------------8--|--L----8----8S--7----7--|
--------------------------|------------------------|
--------------------------|------------------------|
--------------------------|------------------------|
--------------------------|------------------------|
--------------------------|------------------------|


  E   Q     E   Q     E  E
--L--12----12~--L~----------|-------|-------|-------|
----------------------------|-------|-------|-------|
----------------------------|-------|-------|-------|
----------------------------|-------|-------|-------|
----------------------------|-------|-------|-------|
----------------------------|-------|-------|-------|


  E  E  E  E  Q.      E     E   E   E   E   E    E   E   E
---------------------15--|--L--15--15--15--15s--13--13--13s--|
-------------------------|-----------------------------------|
-------------------------|-----------------------------------|
-------------------------|-----------------------------------|
-------------------------|-----------------------------------|
-------------------------|-----------------------------------|


  E  E  E  E  E   E  Q
--8--8--8--8--8s--7--7\----|-------|
---------------------------|-------|
---------------------------|-------|
---------------------------|-------|
---------------------------|-------|
---------------------------|-------|


  E  E   E   E  E   E    E   E      Q    Q    Q    Q
--------12--10--L----------------|----------------------|-------|
-------------------13s--12--13~--|--L-------------------|-------|
---------------------------------|----------------------|-------|
---------------------------------|----------------------|-------|
---------------------------------|----------------------|-------|
---------------------------------|----------------------|-------|


Matt Solo

H        Q    E   E
-----|-----|-----|-----|-----------------------|
-----|-----|-----|-----|-------------------20--|
-----|-----|-----|-----|-----------------------|
-----|-----|-----|-----|-----------------------|
-----|-----|-----|-----|-----------------------|
-----|-----|-----|-----|-----------------------|


  S  S  E   S  S  E   S  S  S  S  S  S  S  S
----17--------17--------17-20-17-20-17-20-22-|
--L----20b--L----20b--L----------------------|
---------------------------------------------|
---------------------------------------------|
---------------------------------------------|
---------------------------------------------|


   S  S  S  S  S  S  S  S  S  S  S  S  S  S  S  S
--20-17-------20-17-------20-17-18-17-19-17-20-17-|
--------20-17-------20-17-------------------------|
--------------------------------------------------|
--------------------------------------------------|
--------------------------------------------------|
--------------------------------------------------|


   S   E   S   E  S  S   E   S   S  S  S  S  S
-----------------------------------------------|
--20p-17--20p-17----20p-17--20p-17-------------|
-----------------------------------19-17-19-17-|
-----------------------------------------------|
-----------------------------------------------|
-----------------------------------------------|


   Q      Q      Q      Q
-----------------------------|
-----------------------------|
--19b----19~----17~----------|
-----------------------19----|
-----------------------------|
-----------------------------|


   E   E   E    E   E   E    E   E
------------------------------------|
------------------------------------|
--17------17s--16------16s--14------|
------19-----------17-----------15--|
------------------------------------|
------------------------------------|


   E    E   E   E    E   E   E   E     Q    Q      E   E  E  E
------------------------------------|---------------------------|
------------------------------------|---------------------------|
--14s--12------12s--10------10--10--|--L----L~----10s--9--9--9--|
-----------14-----------12----------|---------------------------|
------------------------------------|---------------------------|
------------------------------------|---------------------------|


         |---3--|
  E   E  S   S  S  E  E   Q.
---------------------------------|
---------------------------------|
--L--10--9h-10p-9----------------|
------------------12--L--10------|
---------------------------------|
---------------------------------|


  PM  PM  PM     PM  PM PM  PM  PM PM  PM  PM
  |---3---|  |---3---|  |---3---|  |---3---|
  E   E   E  E   E   E  E   E   E  E   E   E
----------------------------------------------|
----------------------------------------------|
----------------------------------------------|
-------------9--------------------------------|
-----------------------------------8--10--12--|
--8--10--12-----12--10--8--10--12-------------|


  PM  PM  PM     PM  PM PM  PM  PM PM  PM  PM
  |---3---|  |---3---|  |---3---|  |---3---|
  E   E   E  E   E   E  E   E   E  E   E   E
----------------------------------------------|
----------------------------------------------|
-------------9--------------------------------|
-----------------------------------9--10--12--|
--8--10--12-----12--10--8--10--12-------------|
----------------------------------------------|


  PM  PM  PM      PM  PM PM  PM  PM
  |---3---|   |---3---|  |---3---|   |---3---|
  E   E   E   E   E   E  E   E   E   E   E   E
------------------------------------------------|
-------------10---------------------10--12--13--|
------------------------------------------------|
--9--10--12------12--10--9--10--12--------------|
------------------------------------------------|
------------------------------------------------|


   |---3---|   |---3---|   |---3---|   |---3---|
   E   E   E   E   E   E   E   E   E   E   E   E
--------------10----------------------10--12--13--|
--10--12--13------13--12--10--12--13--------------|
--------------------------------------------------|
--------------------------------------------------|
--------------------------------------------------|
--------------------------------------------------|


  E  E   E   E   E   E   E   E
--------13--12--10---------------|
--------------------13--12--10~--|
---------------------------------|
--x--x---------------------------|
--x--x---------------------------|
---------------------------------|


  Q      E   E  E   E   E   E     Q     E  E  E   E  E  E
--------12--10--8--------------|-------10--8--7-------------|
--L~---------------12--10------|-----------------10--8------|
---------------------------10--|--L---------------------9~--|
-------------------------------|----------------------------|
-------------------------------|----------------------------|
-------------------------------|----------------------------|


  Q.       E   H
-------------------------||
-------------------------||
--L~------10~--L~--------||
-------------------------||
-------------------------||
-------------------------||

Back to this riff


E|----------------------------------------------------------------------------------------------|
B|----------------------------------------------------------------------------------------------|
G|----------------------------------------------------------------------------------------------|
D|----9------9------9------9------9---8---9------9------9---------------------------------------|
A|----7------7------7------7------7---6---7------7------7--------10---------------13------------|
E|------0--0---0--0---0--0---0--0---0-------0--0---0--0---0-8-11----11-8--0-11-14----14-11------|

E|----------------------------------------------------------------------------------------------|
B|----------------------------------------------------------------------------------------------|
G|----------------------------------------------------------------------------------------------|
D|----9------9------9------9------9---8---9------9------9---------14----------------13----------|
A|----7------7------7------7------7---6---7------7------7-0-12-15----15-12--0-11-14----14-11----|
E|------0--0---0--0---0--0---0--0---0-------0--0---0--0-----------------------------------------|X2

E|----------------------------------------------------------------------------------------------------------|
B|----------------------------------------------------------------------------------------------------------|
G|----------------------------------------------------------------------------------------------------------|
D|------------------------------------------------------------------------------9-------------8-------------|
A|------------14----------------13---------------10--------------9-------0-7-10---10-7--0-6-9---9-6---------|
E|----0-12-15----15-12--0-11-14----14-11--0-8-11----11-8--0-7-10---10-7-------------------------------------|

Main riff

Guitar 1

E|-----------------------------------------------------------------------------------------------|
B|-----------------------------------------------------------------------------------------------|
G|-----------------------------------------------------------------------------------------------|
D|--2-------2-------2--4--5--8--8--8--2----------------------------------------------------------|
A|--2-------2-------2--2--3--6--6--6--2----------------------------------------------------------|
E|--0--0-0--0--0-0--0--2--3--6--6--6--0--0-0-0-0-0-0-0-0-0-0-0-0-5p3-3-3-5p3-3-3-3p2-2-2-3p2-2-2-|

Guitar 2

E|--------------------------------------------------------------------------------------------------|
B|--------------------------------------------------------------------------------------------------|
G|--------------------------------------------------------------------------------------------------|
D|--2-------2-------2--4--5--8--8--8--2-------------------------------------------------------------|
A|--2-------2-------2--2--3--6--6--6--2-------------------------12p10-10-10-12p10-10-10p9-9-10p9-9--|
E|--0--0-0--0--0-0--0--2--3--6--6--6--0--0-0-0-0-0-0-0-0-0-0-0-0------------------------------------|

guitar 1

E|-----------------------------------------------------------------------------------------------|
B|-----------------------------------------------------------------------------------------------|
G|------------------------------------------------------------------------------------------5-4~-|
D|--2-------2-------2--4--5--8--8--8--2---------------------------2-------------------1-2-5------|
A|--2-------2-------2--2--3--6--8--8--2---------------------------2-------------0-1-2------------|
E|--0--0-0--0--0-0--0--2--3--6--6--6--0--0-0-0-0-0-0-0-0-0-0-0-0--0------------------------------|

guitar 2

E|-----------------------------------------------------------------------------------------------|
B|-----------------------------------------------------------------------------------------------|
G|-----------------------------------------------------------------------------------------------|
D|--2-------2-------2--4--5--8--8--8--2---------------------------------------5-4~---------------|
A|--2-------2-------2--2--3--6--8--8--2---------------------------------0-1-2--------------------|
E|--0--0-0--0--0-0--0--2--3--6--6--6--0--0-0-0-0-0-0-0-0-0-0-0-0--0-2-3--------------------------|

Chorus

Guitars 1+2
E|-------------------------------------------------------------------------------------------|
B|------------------------------------------------------8--8--8--8--8------------------------|
G|----4-------------------------------------------------9--9--9--9--9------------------------|
D|----5------7-----5--7------4------7-----4--7------9---9--9--9--9--9---7--7--7--------------|
A|----3---3--3--3--3--3--3---6---6--6--6--6--6--6---7---7--7--7--7--7---7--7--7--------------|
E|----------------------------------------------------------------------5--5--5--------------|

E|----------------------------------------------------------------------------------------|
B|----------------------------------------------------------------------------------------|
G|-----------------9--------9--------8----------------------------------------------------|
D|-----------9-----9--------9--------9-----7--8--9-----9-----9-----9-----9--9--9--9-------|
A|-----7-7-8-9-----9--------9--------9--9--5--6--7-7-7-7-7-7-7-7-7-7-7-7-6--6--6--7-------|
E|-----5-5-6-7--7--7--7--7--7--7--7--7--7--------------------------------------------0--0-|


Duration Legend
---------------
W - whole
H - half
Q - quarter
E - 8th
S - 16th
T - 32nd
X - 64th
. - note dotted
|-n-|  - n-tuplets


Tablature Legend
----------------
L - tied note
x - dead note
g - grace note
(n) - ghost note
> - accentuded note
NH - natural harmonic
AH - artificial harmonic
TH - tapped harmonic
SH - semi harmonic
PH - pitch harmonic
h - hammer on
p - pull off
b - bend
br - bendRelease
pb - preBend
pbr - preBendRelease
brb - bendReleaseBend
\n/ - tremolo bar dip
\n - tremolo bar dive
-/n - tremolo bar Release up
/n\ - tremolo bar inverted dip
/n - tremolo bar return
-\n - tremolo bar Release down
S - shift slide
s - legato slide
/ -  slide into from below or out of upwards
\ -  slide into from above or out of downwards
~ - vibrato
W - wide vibrato
tr - trill
TP - tremolo picking
T - tapping
S - slap
P - pop
< - fade in
^ - brush up
v - brush down
comments
print report bad tab
5 comments total. Showing first comments.
0 reply
metalliveson wrote on January 14 2007, 10:37 am

brilliant tab.....exactly what i got....anybody underating this tab visit youtube and you can see its 100% correct

0 reply
sidneydoyley wrote on January 14 2007, 10:41 am

hes right..... http://youtube.com/watch?v=TXPf3DMcn8g

0 reply
not-human00 wrote on June 30 2007, 05:45 pm

what does tied note mean

I want to post or [tab]
guest
You may want to rate the tab now too:
select rating
Please do not post tabs as comments. Select "correction" instead!