Oops, an error
Loading. Please wait.

Entrance Of The Conflagration Tab

ver5
ver5

Solo

Whole song

More versions @911Tabs.com
2,675 views 1 this week
no commentswrite comment
1 2 3 4 5
worth learning
x 2
Autoscroll
+/-
esc
set tempo
stop
Contributor
Difficulty
advanced
WARNING: You are trying to view
                                    content from Ultimate-Guitar.com
                                    in an unauthorized application,
                                    which is prohibited.

                                    Please use an official Ultimate
                                    Guitar Tabs application for iPhone,
                                    iPad or Android to access legitimate
                                    chords, guitar, bass, and drum tabs
                                    from Ultimate-Guitar.com database.

                                    Type "ultimate guitar tabs" in Apple
                                    App Store's or Android Market's
                                    search to find the application.
Gtr I (E A D G B E) - 'Untitled'
Gtr II (E A D G B E) - 'Untitled'
Gtr III (E A D G B E) - 'Untitled'
Gtr IV (E A D G B E) - 'Untitled'


   Intro / Verse 1
    Q=180
    E5                          Bb5       E5
   4/4
    Gtr I
       PM|    PM|         PM--|              PM--------------------|
    Q  S S Q  S S E +E    E E E Q.   Q    Q  S S S S S S S S S S S S
||----------------------|---------------|----------------------------|
||o---------------------|---------------|----------------------------|
||----------------------|-------8----8--|----------------------------|
||--2------2------2-(2)-|-------8----8--|-2--------------------------|
||o-2------2------2-(2)-|-------6----6--|-2--------------------------|
||--0--0-0-0--0-0-0-(0)-|-0-2-3-6----6--|-0--0-0-0-0-0-0-0-0-0-0-0-0-|
|
|   Gtr II
|      PM|    PM|         PM--|              PM--------------------|
|   Q  S S Q  S S E +E    E E E Q.   Q    Q  S S S S S S S S S S S S
||----------------------|---------------|----------------------------|
||o---------------------|---------------|----------------------------|
||----------------------|-------8----8--|----------------------------|
||--2------2------2-(2)-|-------8----8--|-2--------------------------|
||o-2------2------2-(2)-|-------6----6--|-2--------------------------|
||--0--0-0-0--0-0-0-(0)-|-0-2-3-6----6--|-0--0-0-0-0-0-0-0-0-0-0-0-0-|


  N.C.
   PM-------------------------------------|
   S  S  S  S  S  S  S  S  S S S S  S S S S
|-------------------------------------------|
|-------------------------------------------|
|-------------------------------------------|
|-------------------------------------------|
|-12p10-10-10-12p10-10-10-10p9-9-9-10p9-9-9-|
|-------------------------------------------|
|
|  PM-------------------------------------|
|  S  S  S  S  S  S  S  S  S S S S  S S S S
|-------------------------------------------|
|-------------------------------------------|
|-------------------------------------------|
|-------------------------------------------|
|-------------------------------------------|
|--6p=3--3--3--6p=3--3--3--3p2-2-2--3p2-2-2-|


  E5                          Bb5
     PM|    PM|         PM--|
  Q  S S Q  S S E +E    E E E Q.   Q
|---------------------|---------------|
|---------------------|---------------|
|---------------------|-------8----8--|
|-2------2------2-(2)-|-------8----8--|
|-2------2------2-(2)-|-------6----6--|
|-0--0-0-0--0-0-0-(0)-|-0-2-3-6----6--|
|
|    PM|    PM|         PM--|
| Q  S S Q  S S E +E    E E E Q.   Q
|---------------------|---------------|
|---------------------|---------------|
|---------------------|-------8----8--|
|-2------2------2-(2)-|-------8----8--|
|-2------2------2-(2)-|-------6----6--|
|-0--0-0-0--0-0-0-(0)-|-0-2-3-6----6--|


                              1.,2.
  E5                           N.C.
     PM--------------------|
  Q  S S S S S S S S S S S S   E E E E E E E E  3x
|----------------------------|------------------||
|----------------------------|-----------------o||
|----------------------------|------------------||
|-2--------------------------|-------------5-4--||
|-2--------------------------|-------0h1h2-----o||
|-0--0-0-0-0-0-0-0-0-0-0-0-0-|-0h2h3------------||
|
|    PM--------------------|
| Q  S S S S S S S S S S S S   E E E E E E E E  3x
|----------------------------|------------------||
|----------------------------|-----------------o||
|----------------------------|------------------||
|-2--------------------------|-------------5-4--||
|-2--------------------------|-------0h1h2-----o||
|-0--0-0-0-0-0-0-0-0-0-0-0-0-|-0h2h3------------||


 Bridge / Chorus 1
  3.
  F#5                 Bb5                 C5                    D#5
  Gtrs III, IV
                                                      PM  PM
  E H..                E H       E.   E   S   +E.     E E E E E  E S
|-------------------|-----------------------|------------------------|
|-------------------|-----------------------|------------------------|
|-------------------|---------------------4-|-(4)--------------------|
|-------------------|--2------------------5-|-(5)-------7---5-7----4-|
|-2-----------------|--0--------------3---3-|-(3)-----3-3-3-3-3S=6-6-|
|-0-----------------|-----------------------|------------------------|
|
| Gtr I
|                 ~~~~~~~~
| E E   E E E E E E   +W                       W
|-------------------|-----------------------|------------------------|
|-------------------|-----------------------|------------------------|
|-------------------|-----------------------|------------------------|
|---------------5-4-|-(4)-------------------|------------------------|
|---------0h1h2-----|-----------------------|------------------------|
|-0h2h==3-----------|-----------------------|------------------------|
|
| Gtr II
|                                       ~~~~~~~~~~
| E E   E E E E E E    E E E E E E  E   E     +E  H..
|-------------------|-----------------------|------------------------|
|-------------------|-----------------------|------------------------|
|-------------------|---------------5---4---|-(4)--------------------|
|---------------5-4-|--------1-2s5----------|------------------------|
|---------0h1h2-----|--0h1h2----------------|------------------------|
|-0h2h==3-----------|-----------------------|------------------------|


                  E5VII    Em      A5                B5
      PM  PM    PM                             PM--|             PM--|   PM
  +E. E E E E E E S   +Q   Q  E Q  E   +Q   Q  E E E E   +E  E E E E E E E
|-------------------|----------------|------5----------|-------------------|
|-------------------|------8--8-8----|------5----------|-------------------|
|-------------------|------9--9-9----|------5----------|-------9-------9---|
|-(4)---7---4-7---9-|-(9)--9--9-9--7-|-(7)--7----------|-------9-------9---|
|-(6)-6-6-6-6-6-6-7-|-(7)--7--7-7--7-|-(7)--7--------9-|-(9)---9-------9---|
|-------------------|--------------5-|-(5)--5--5-6-7-7-|-(7)-7-7-7-7-7-7-7-|


                E5VII                           D#E5VII      E5
  PM|       PM          PM|   PM|   PM|   PM|            PM--|
  E E E E E E E E   +E  S S E S S E S S E S S   E E E Q  E E E
|-----------------|---------------------------|----------------|
|-----------------|---------------------------|----------------|
|-----8---------9-|-(9)-----9-----9-----9-----|----------------|
|-----9-----7-8-9-|-(9)-----9-----9-----9-----|-9-9-9-9--------|
|-----9---9-5-6-7-|-(7)-7-7-7-7-7-7-7-7-7-7-7-|-6-6-6s7--------|
|-7-7-7-7-7-------|---------------------------|----------0-0-0-|


 Verse 2 & 3
  $
  E5                          Bb5       E5
     PM|    PM|         PM--|              PM--------------------|
  Q  S S Q  S S E +E    E E E Q.   Q    Q  S S S S S S S S S S S S
|---------------------|---------------|-----------------------------|
|---------------------|---------------|-----------------------------|
|---------------------|-------8----8--|-----------------------------|
|-2------2------2-(2)-|-------8----8--|-2---------------------------|
|-2------2------2-(2)-|-------6----6--|-2---------------------------|
|-0--0-0-0--0-0-0-(0)-|-0-2-3-6----6--|-0--0-0-0-0-0-0-0-0-0-0-0-0--|


  N.C.
  Gtr I
   PM-------------------------------------|
   S  S  S  S  S  S  S  S  S S S S  S S S S
|-------------------------------------------|
|-------------------------------------------|
|-------------------------------------------|
|-------------------------------------------|
|-12p10-10-10-12p10-10-10-10p9-9-9-10p9-9-9-|
|-------------------------------------------|
|
| Gtr II
|  PM-------------------------------------|
|  S  S  S  S  S  S  S  S  S S S S  S S S S
|-------------------------------------------|
|-------------------------------------------|
|-------------------------------------------|
|-------------------------------------------|
|-------------------------------------------|
|--6p=3--3--3--6p=3--3--3--3p2-2-2--3p2-2-2-|


  E5                          Bb5
     PM|    PM|         PM--|
  Q  S S Q  S S E +E    E E E Q.   Q
|---------------------|---------------|
|---------------------|---------------|
|---------------------|-------8----8--|
|-2------2------2-(2)-|-------8----8--|
|-2------2------2-(2)-|-------6----6--|
|-0--0-0-0--0-0-0-(0)-|-0-2-3-6----6--|
|
|    PM|    PM|         PM--|
| Q  S S Q  S S E +E    E E E Q.   Q
|---------------------|---------------|
|---------------------|---------------|
|---------------------|-------8----8--|
|-2------2------2-(2)-|-------8----8--|
|-2------2------2-(2)-|-------6----6--|
|-0--0-0-0--0-0-0-(0)-|-0-2-3-6----6--|


  E5                           N.C.
     PM--------------------|
  Q  S S S S S S S S S S S S   E E E E E E E E
|----------------------------|-----------------|
|----------------------------|-----------------|
|----------------------------|-----------------|
|-2--------------------------|-------------5-4-|
|-2--------------------------|-------0h1h2-----|
|-0--0-0-0-0-0-0-0-0-0-0-0-0-|-0h2h3-----------|
|
|    PM--------------------|
| Q  S S S S S S S S S S S S   E E E E E E E E
|----------------------------|-----------------|
|----------------------------|-----------------|
|----------------------------|-----------------|
|-2--------------------------|-------------5-4-|
|-2--------------------------|-------0h1h2-----|
|-0--0-0-0-0-0-0-0-0-0-0-0-0-|-0h2h3-----------|


  E5                          Bb5       E5
     PM|    PM|         PM--|              PM--------------------|
  Q  S S Q  S S E +E    E E E Q.   Q    Q  S S S S S S S S S S S S
|---------------------|---------------|-----------------------------|
|---------------------|---------------|-----------------------------|
|---------------------|-------8----8--|-----------------------------|
|-2------2------2-(2)-|-------8----8--|-2---------------------------|
|-2------2------2-(2)-|-------6----6--|-2---------------------------|
|-0--0-0-0--0-0-0-(0)-|-0-2-3-6----6--|-0--0-0-0-0-0-0-0-0-0-0-0-0--|
|
|    PM|    PM|         PM--|              PM--------------------|
| Q  S S Q  S S E +E    E E E Q.   Q    Q  S S S S S S S S S S S S
|---------------------|---------------|-----------------------------|
|---------------------|---------------|-----------------------------|
|---------------------|-------8----8--|-----------------------------|
|-2------2------2-(2)-|-------8----8--|-2---------------------------|
|-2------2------2-(2)-|-------6----6--|-2---------------------------|
|-0--0-0-0--0-0-0-(0)-|-0-2-3-6----6--|-0--0-0-0-0-0-0-0-0-0-0-0-0--|


  N.C.
   PM-------------------------------------|
   S  S  S  S  S  S  S  S  S S S S  S S S S
|-------------------------------------------|
|-------------------------------------------|
|-------------------------------------------|
|-------------------------------------------|
|-12p10-10-10-12p10-10-10-10p9-9-9-10p9-9-9-|
|-------------------------------------------|
|
|  PM-------------------------------------|
|  S  S  S  S  S  S  S  S  S S S S  S S S S
|-------------------------------------------|
|-------------------------------------------|
|-------------------------------------------|
|-------------------------------------------|
|-------------------------------------------|
|--6p=3--3--3--6p=3--3--3--3p2-2-2--3p2-2-2-|


  E5                          Bb5
     PM|    PM|         PM--|
  Q  S S Q  S S E +E    E E E Q.   Q
|---------------------|---------------|
|---------------------|---------------|
|---------------------|-------8----8--|
|-2------2------2-(2)-|-------8----8--|
|-2------2------2-(2)-|-------6----6--|
|-0--0-0-0--0-0-0-(0)-|-0-2-3-6----6--|
|
|    PM|    PM|         PM--|
| Q  S S Q  S S E +E    E E E Q.   Q
|---------------------|---------------|
|---------------------|---------------|
|---------------------|-------8----8--|
|-2------2------2-(2)-|-------8----8--|
|-2------2------2-(2)-|-------6----6--|
|-0--0-0-0--0-0-0-(0)-|-0-2-3-6----6--|


                              Bridge / Chorus 2 &
  E5                           F#5
  Gtrs III, IV
  W                            E H..
|----------------------------|-------------------|
|----------------------------|-------------------|
|----------------------------|-------------------|
|----------------------------|-------------------|
|----------------------------|-2-----------------|
|----------------------------|-0-----------------|
|
| Gtr I
|    PM--------------------|                   ~~~
| Q  S S S S S S S S S S S S   E E   E E E E E E
|----------------------------|-------------------|
|----------------------------|-------------------|
|----------------------------|-------------------|
|-2--------------------------|---------------5-4-|
|-2--------------------------|---------0h1h2-----|
|-0--0-0-0-0-0-0-0-0-0-0-0-0-|-0h2h==3-----------|
|
| Gtr II
|    PM--------------------|
| Q  S S S S S S S S S S S S   W
|----------------------------|-------------------|
|----------------------------|-------------------|
|----------------------------|-------------------|
|-2--------------------------|-------------------|
|-2--------------------------|-------------------|
|-0--0-0-0-0-0-0-0-0-0-0-0-0-|-------------------|


 3
  Bb5                 C5                       D#5
                              PM     PM
   E H       E.   E   S   +E. E    E E E E E S
|-----------------------|-------------------------|
|-----------------------|-------------------------|
|-----------------------|-------------------------|
|--2------------------5-|-(5)------7---5-7---4----|
|--0--------------3---3-|-(3)-3----3-3-3-3S6-6----|
|-----------------------|-------------------------|
|
|~~~~~
| +W                       W
|-----------------------|-------------------------|
|-----------------------|-------------------------|
|-----------------------|-------------------------|
|-(4)-------------------|-------------------------|
|-----------------------|-------------------------|
|-----------------------|-------------------------|
|
|                   ~~~~~~~~~~
|  E E E E E E  E   E     +Q    H.
|-----------------------|-------------------------|
|-----------------------|-------------------------|
|---------------5---4---|-(4)---------------------|
|--------1-2s5----------|-------------------------|
|--0h1h2----------------|-------------------------|
|-----------------------|-------------------------|


                  E5VII       Em     A5                 B5
  Gtrs III, IV
      PM  PM    PM                              PM--|              PM--|   PM
  +E. E E E E E E S   +Q   Q  E Q  E    +Q   Q  E E E E    +E  E E E E E E E
|-------------------|-----------------|------5-----------|---------------------|
|-------------------|------8--8-8-----|------5-----------|---------------------|
|-------------------|------9--9-9-----|------5-----------|-------9-------9-----|
|-(4)---7---4-7---9-|-(9)--9--9-9--7--|-(7)--7-----------|-------9-------9-----|
|-(6)-6-6-6-6-6-6-7-|-(7)--7--7-7--7--|-(7)--7--------9--|-(9)---9-------9-----|
|-------------------|--------------5--|-(5)--5--5-6-7-7--|-(7)-7-7-7-7-7-7-7---|


                E5VII
  PM|       PM          PM|   PM|   PM|   PM|
  E E E E E E E E   +E  S S E S S E S S E S S
|-----------------|---------------------------|
|-----------------|---------------------------|
|-----8---------9-|-(9)-----9-----9-----9-----|
|-----9-----7-8-9-|-(9)-----9-----9-----9-----|
|-----9---9-5-6-7-|-(7)-7-7-7-7-7-7-7-7-7-7-7-|
|-7-7-7-7-7-------|---------------------------|


  D#E5VII      C5                     D#5
           PM|          PM  PM
  E E E Q  E E  E   +E. E E E E E E S
|-----------------|--------------------|
|-----------------|--------------------|
|-----------------|--------------------|
|-9-9-9-9-------5-|-(5)---7---5-7---4--|
|-6-6-6s7--3-3--3-|-(3)-3-3-3-3-3S6-6--|
|-----------------|--------------------|


                  E5VII       Em     A5                 B5
      PM  PM    PM                              PM--|              PM--|   PM
  +E. E E E E E E S   +Q   Q  E Q  E    +Q   Q  E E E E    +E  E E E E E E E
|-------------------|-----------------|------5-----------|---------------------|
|-------------------|------8--8-8-----|------5-----------|---------------------|
|-------------------|------9--9-9-----|------5-----------|-------9-------9-----|
|-(4)---7---4-7---9-|-(9)--9--9-9--7--|-(7)--7-----------|-------9-------9-----|
|-(6)-6-6-6-6-6-6-7-|-(7)--7--7-7--7--|-(7)--7--------9--|-(9)---9-------9-----|
|-------------------|--------------5--|-(5)--5--5-6-7-7--|-(7)-7-7-7-7-7-7-7---|


                                                    To Coda
                E5VII                           D#E5VII        E5
  PM|       PM          PM|   PM|   PM|   PM|            PM--|
  E E E E E E E E   +E  S S E S S E S S E S S   E E E Q  E E E
|-----------------|---------------------------|-----------------|
|-----------------|---------------------------|-----------------|
|-----8---------9-|-(9)-----9-----9-----9-----|-----------------|
|-----9-----7-8-9-|-(9)-----9-----9-----9-----|-9-9-9-9---------|
|-----9---9-5-6-7-|-(7)-7-7-7-7-7-7-7-7-7-7-7-|-6-6-6s7---------|
|-7-7-7-7-7-------|---------------------------|----------0-0-0--|


 Break
  Q=195
                                       E5VII
  Gtrs III, IV
  W          +W           +W           +W
|----------|------------|------------|------------------------------|
|----------|------------|------------|------------------------------|
|----------|------------|------------|------------------------------|
|-2--------|-(2)--------|-(2)--------|-(2)--------------------------|
|-2--------|-(2)--------|-(2)--------|-(2)--------------------------|
|-0--------|-(0)--------|-(0)--------|-(0)--------------------------|
|
| Gtr I
|                                           PM----------------|
| W           W            W            Q   S S S S S S S S S S E
|----------|------------|------------|------------------------------|
|----------|------------|------------|------------------------------|
|----------|------------|------------|--9-----------------------9S==|
|----------|------------|------------|--9-----------------------9S==|
|----------|------------|------------|--7-----------------------7S==|
|----------|------------|------------|------0-0-0-0-0-0-0-0-0-0-----|
|
| Gtr II
| W           W            W            W
|----------|------------|------------|------------------------------|
|----------|------------|------------|------------------------------|
|----------|------------|------------|------------------------------|
|----------|------------|------------|------------------------------|
|----------|------------|------------|------------------------------|
|----------|------------|------------|------------------------------|


  F#5                          G5
|----------------------------|----------------------------|
|----------------------------|----------------------------|
|----------------------------|----------------------------|
|----------------------------|----------------------------|
|----------------------------|----------------------------|
|----------------------------|----------------------------|
|
|     PM----------------|            PM------------|
|  Q  S S S S S S S S S S  E    Q  S S S S S S S S S S  E
|----------------------------|----------------------------|
|----------------------------|----------------------------|
|-11----------------------11S|=12----------------------12S|
|-11----------------------11S|=12----------------------12S|
|--9-----------------------9S|=10----------------------10S|
|-----0-0-0-0-0-0-0-0-0-0----|-----0-0-0-0-0-0-0-0-0-0----|
|
|  W                            W
|----------------------------|----------------------------|
|----------------------------|----------------------------|
|----------------------------|----------------------------|
|----------------------------|----------------------------|
|----------------------------|----------------------------|
|----------------------------|----------------------------|


  D#5
|------------------------------|
|------------------------------|
|------------------------------|
|------------------------------|
|------------------------------|
|------------------------------|
|
|      PM----|   PM--------|
| Q  S S S S S S S S S S S S
|------------------------------|
|------------------------------|
|-8----------------------------|
|-8----------------------------|
|-6--6-6-6-6-6-6-6-6-6-6-6-6---|
|------------------------------|
|
|    PM--------------------|
| Q  S S S S S S S S S S S S
|------------------------------|
|------------------------------|
|------------------------------|
|-8----------------------------|
|-6--6-6-6-6-6-6-6-6-6-6-6-6---|
|------------------------------|


  E5VII
  Gtr I
     PM----------------|
  Q  S S S S S S S S S S E
|--------------------------|
|--------------------------|
|-9----------------------9S|
|-9----------------------9S|
|-7--7-7-7-7-7-7-7-7-7-7-7S|
|--------------------------|
|
| Gtr II
|    PM----------------|
| Q  S S S S S S S S S S E
|--------------------------|
|--------------------------|
|--------------------------|
|-9----------------------9S|
|-7--7-7-7-7-7-7-7-7-7-7-7S|
|--------------------------|


  C5                         D#5
     PM----------------|        PM----------------|
  Q  S S S S S S S S S S E   Q  S S S S S S S S S S E
|--------------------------|---------------------------|
|--------------------------|---------------------------|
|-5----------------------5S|=8----------------------8S=|
|-5----------------------5S|=8----------------------8S=|
|-3--3-3-3-3-3-3-3-3-3-3-3S|=6--6-6-6-6-6-6-6-6-6-6-6S=|
|--------------------------|---------------------------|
|
|    PM----------------|        PM----------------|
| Q  S S S S S S S S S S E   Q  S S S S S S S S S S E
|--------------------------|---------------------------|
|--------------------------|---------------------------|
|--------------------------|---------------------------|
|-5----------------------5S|=8----------------------8S=|
|-3--3-3-3-3-3-3-3-3-3-3-3S|=6--6-6-6-6-6-6-6-6-6-6-6S=|
|--------------------------|---------------------------|


  B5II                         E5VII
     PM--------------------|      PM----------------|
  Q  S S S S S S S S S S S S   Q  S S S S S S S S S S E
|----------------------------|--------------------------|
|----------------------------|--------------------------|
|-4--------------------------|-9----------------------9S|
|-4--------------------------|-9----------------------9S|
|-2--2-2-2-2-2-2-2-2-2-2-2-2-|-7--7-7-7-7-7-7-7-7-7-7-7S|
|----------------------------|--------------------------|
|
|    PM--------------------|      PM----------------|
| Q  S S S S S S S S S S S S   Q  S S S S S S S S S S E
|----------------------------|--------------------------|
|----------------------------|--------------------------|
|----------------------------|--------------------------|
|-4--------------------------|-9----------------------9S|
|-2--2-2-2-2-2-2-2-2-2-2-2-2-|-7--7-7-7-7-7-7-7-7-7-7-7S|
|----------------------------|--------------------------|


  F#5
      PM----------------|
   Q  S S S S S S S S S S  E
|-------------------------------|
|-------------------------------|
|-11----------------------11S===|
|-11----------------------11S===|
|--9--9-9-9-9-9-9-9-9-9-9--9S===|
|-------------------------------|
|
|     PM----------------|
|  Q  S S S S S S S S S S  E
|-------------------------------|
|-------------------------------|
|-------------------------------|
|-11----------------------11S===|
|--9--9-9-9-9-9-9-9-9-9-9--9S===|
|-------------------------------|


  G5
          PM---------------------|
   Q   S  S  S  S  S  S  S  S  S  S  E
|--------------------------------------|
|--------------------------------------|
|-12--------------------------------12S|
|-12--------------------------------12S|
|-10--10-10-10-10-10-10-10-10-10-10-10S|
|--------------------------------------|
|
|         PM---------------------|
|  Q   S  S  S  S  S  S  S  S  S  S  E
|--------------------------------------|
|--------------------------------------|
|--------------------------------------|
|-12--------------------------------12S|
|-10--10-10-10-10-10-10-10-10-10-10-10S|
|--------------------------------------|


  D#5                          E5VII
     PM--------------------|      PM----------------|
  Q  S S S S S S S S S S S S   Q  S S S S S S S S S S E
|----------------------------|-----------------------------|
|----------------------------|-----------------------------|
|-8--------------------------|-9----------------------9S===|
|-8--------------------------|-9----------------------9S===|
|-6--6-6-6-6-6-6-6-6-6-6-6-6-|-7--7-7-7-7-7-7-7-7-7-7-7S===|
|----------------------------|-----------------------------|
|
|    PM--------------------|      PM----------------|
| Q  S S S S S S S S S S S S   Q  S S S S S S S S S S E
|----------------------------|-----------------------------|
|----------------------------|-----------------------------|
|----------------------------|-----------------------------|
|-8--------------------------|-9----------------------9S===|
|-6--6-6-6-6-6-6-6-6-6-6-6-6-|-7--7-7-7-7-7-7-7-7-7-7-7S===|
|----------------------------|-----------------------------|


  C5                         D#5
     PM----------------|        PM----------------|
  Q  S S S S S S S S S S E   Q  S S S S S S S S S S E
|--------------------------|--------------------------|
|--------------------------|--------------------------|
|-5----------------------5S|=8----------------------8S|
|-5----------------------5S|=8----------------------8S|
|-3--3-3-3-3-3-3-3-3-3-3-3S|=6--6-6-6-6-6-6-6-6-6-6-6S|
|--------------------------|--------------------------|
|
|    PM----------------|        PM----------------|
| Q  S S S S S S S S S S E   Q  S S S S S S S S S S E
|--------------------------|--------------------------|
|--------------------------|--------------------------|
|--------------------------|--------------------------|
|-5----------------------5S|=8----------------------8S|
|-3--3-3-3-3-3-3-3-3-3-3-3S|=6--6-6-6-6-6-6-6-6-6-6-6S|
|--------------------------|--------------------------|


  B5II
     PM--------------------|
  Q  S S S S S S S S S S S S
|------------------------------|
|------------------------------|
|-4----------------------------|
|-4----------------------------|
|-2--2-2-2-2-2-2-2-2-2-2-2-2---|
|------------------------------|
|
|    PM--------------------|
| Q  S S S S S S S S S S S S
|------------------------------|
|------------------------------|
|------------------------------|
|-4----------------------------|
|-2--2-2-2-2-2-2-2-2-2-2-2-2---|
|------------------------------|


  E5VII
      PM----------------|
   Q  S S S S S S S S S S  E
|----------------------------|
|----------------------------|
|-12----------------------12S|
|--x-----------------------x-|
|-10----------------------10S|
|-----0-0-0-0-0-0-0-0-0-0----|
|
|     PM----------------|
|  Q  S S S S S S S S S S  E
|----------------------------|
|----------------------------|
|----------------------------|
|--9-----------------------9S|
|--7-----------------------7S|
|-----0-0-0-0-0-0-0-0-0-0----|


  F#5                          G5
      PM----------------|          PM----------------|
   Q  S S S S S S S S S S  E    Q  S S S S S S S S S S  E
|----------------------------|-----------------------------|
|----------------------------|-----------------------------|
|-14----------------------14S|=16----------------------16S=|
|--x-----------------------x-|--x-----------------------x--|
|-12----------------------12S|=14----------------------14S=|
|-----0-0-0-0-0-0-0-0-0-0----|-----0-0-0-0-0-0-0-0-0-0-----|
|
|     PM----------------|            PM--------------|
|  Q  S S S S S S S S S S  E    Q  S S S S S S S S S S  E
|----------------------------|-----------------------------|
|----------------------------|-----------------------------|
|----------------------------|-----------------------------|
|-11----------------------11S|=12----------------------12S=|
|--9-----------------------9S|=10----------------------10S=|
|-----0-0-0-0-0-0-0-0-0-0----|-----0-0-0-0-0-0-0-0-0-0-----|


  D#5
      PM--------------------|
   Q  S S S S S S S S S S S S
|-----------------------------|
|-----------------------------|
|-11--------------------------|
|--x--------------------------|
|--9--9-9-9-9-9-9-9-9-9-9-9-9-|
|-----------------------------|
|
|     PM--------------------|
|  Q  S S S S S S S S S S S S
|-----------------------------|
|-----------------------------|
|-----------------------------|
|--8--------------------------|
|--6--6-6-6-6-6-6-6-6-6-6-6-6-|
|-----------------------------|


  E5VII                                  C5
       PM------------------------|          PM----------------|
   Q   S  S  S  S  S  S  S  S  S  S  E   Q  S S S S S S S S S S E
|--------------------------------------|-----------------------------|
|--------------------------------------|-----------------------------|
|-12--------------------------------12S|=9----------------------9S===|
|--x---------------------------------x-|-x----------------------x----|
|-10--10-10-10-10-10-10-10-10-10-10-10S|=7--7-7-7-7-7-7-7-7-7-7-7S===|
|--------------------------------------|-----------------------------|
|
|      PM------------------------|          PM----------------|
|  Q   S  S  S  S  S  S  S  S  S  S  E   Q  S S S S S S S S S S E
|--------------------------------------|-----------------------------|
|--------------------------------------|-----------------------------|
|--------------------------------------|-----------------------------|
|--9---------------------------------9S|=5----------------------5S===|
|--7---7--7--7--7--7--7--7--7--7--7--7S|=3--3-3-3-3-3-3-3-3-3-3-3S===|
|--------------------------------------|-----------------------------|


  D#5                          B5II
      PM----------------|         PM--------------------|
   Q  S S S S S S S S S S  E   Q  S S S S S S S S S S S S
|----------------------------|-----------------------------|
|----------------------------|-----------------------------|
|-11----------------------11S|=8---------------------------|
|--x-----------------------x-|-x---------------------------|
|--9--9-9-9-9-9-9-9-9-9-9--9S|=6--6-6-6-6-6-6-6-6-6-6-6-6--|
|----------------------------|-----------------------------|
|
|     PM----------------|         PM--------------------|
|  Q  S S S S S S S S S S  E   Q  S S S S S S S S S S S S
|----------------------------|-----------------------------|
|----------------------------|-----------------------------|
|----------------------------|-----------------------------|
|--8-----------------------8S|=4---------------------------|
|--6--6-6-6-6-6-6-6-6-6-6--6S|=2--2-2-2-2-2-2-2-2-2-2-2-2--|
|----------------------------|-----------------------------|


   Breakdown
    E5VII                         D#5
    Gtrs I, II
      PM|   PM|   PM--|   PM|   PM
    E E E E E E E E   E E E E E E E E
||------------------|-----------------|
||o-----------------|-----------------|
||------------------|-----------------|
||--9-----9-----9---|---9-----9---8-8-|
||o-7-----7-----7---|---7-----7---7-7-|
||----0-0---0-0---0-|-0---0-0---0-----|


  E5VII             N.C.
    PM|   PM|   PM
                    |-3--|  |-3--| |--3--|  |--3--|
  E E E E E E E E   E E  E  E  E E E  E  E  E  E  E
|-----------------|----------------------------------|
|-----------------|----------------------------------|
|-----------------|----------------------------------|
|-9-----9-----9---|----------------------------------|
|-7-----7-----7---|--------10--------------13--------|
|---0-0---0-0---0-|-0-8-11----11-8-0-11-14----14-11--|


  E5VII                         D#5   E5VII
    PM|   PM|   PM--|   PM|   PM        PM|   PM|   PM
  E E E E E E E E   E E E E E E E E   E E E E E E E E
|-----------------|-----------------|-----------------|
|-----------------|-----------------|-----------------|
|-----------------|-----------------|-----------------|
|-9-----9-----9---|---9-----9---8-8-|-9-----9-----9---|
|-7-----7-----7---|---7-----7---7-7-|-7-----7-----7---|
|---0-0---0-0---0-|-0---0-0---0-----|---0-0---0-0---0-|


  N.C.
  |--3--|  |--3--| |--3--|  |--3--|
  E  E  E  E  E  E E  E  E  E  E  E
|------------------------------------||
|-----------------------------------o||
|------------------------------------||
|---------14---------------13--------||
|-0-12-15----15-12-0-11-14----14-11-o||
|------------------------------------||


  |--3--|  |--3--| |--3--|  |--3--|
  E  E  E  E  E  E E  E  E  E  E  E
|-----------------------------------|
|-----------------------------------|
|-----------------------------------|
|-----------------------------------|
|---------14---------------13-------|
|-0-12-15----15-12-0-11-14----14-11-|


  |-3--|  |-3--| |-3--| |-3--|   |-3--| |-3--| |-3-| |-3-|
  E E  E  E  E E E E  E E  E E   E E  E E  E E E E E E E E
|------------------------------|----------------------------|
|------------------------------|----------------------------|
|------------------------------|----------------------------|
|------------------------------|--------9------------8------|
|--------10-------------9------|-0-7-10---10-7-0-6-9---9-6--|
|-0-8-11----11-8-0-7-10---10-7-|----------------------------|


 Bridge
  N.C.
  Gtr III
        PM|   PM          PM|   PM|               PM|   PM           PM|   PM
  E E E E E E E E   +E  E E E E E E E   +E   E  E E E E E E   +Q   E E E E E E
|-----------------|-------------------|---------------------|------------------|
|-----------------|-------------------|---------------------|------------------|
|-5S7-7-----7---5-|-(5)-5-----5-----4-|-(4)--5--5-----5---4-|-(4)--4-----4---4-|
|-5S7-7-----7---5-|-(5)-5-----5-----5-|-(5)-(5)-5-----5---5-|-(5)--5-----5---5-|
|-------0-0---0---|-------0-0---0-0---|---------------------|------------------|
|-----------------|-------------------|-----------3-3---3---|--------3-3---3---|


            PM|   PM           PM|   PM
  +E   E  E E E E E E   +Q   E E E E E E
|---------------------|------------------|
|---------------------|------------------|
|-(4)--5--5-----5---4-|-(4)--4-----4---2-|
|-(5)-(5)-5-----5---5-|-(5)--5-----5---3-|
|---------------------|------------------|
|-----------0-0---0---|--------0-0---0---|
|
| Gtr I
|  W                     W
|---------------------|------------------|
|---------------------|------------------|
|---------------------|------------------|
|---------------------|------------------|
|---------------------|------------------|
|---------------------|------------------|


         PM|   PM                     PM|
  +Q   E E E E E E   +E   E E E +E  E E E
|------------------|-----------------------|
|------------------|-----------------------|
|-(2)--2-----2---5-|-(5)--5---4-(4)-4------|
|-(3)--3-----3---5-|-(5)--5---5-(5)-5------|
|--------0-0---0---|-----------------------|
|------------------|------------------0-0--|
|
|  W                  H..               E
|------------------|-----------------------|
|------------------|-----------------------|
|------------------|--------------------9S=|
|------------------|-----------------------|
|------------------|-----------------------|
|------------------|-----------------------|


 Solo 1
        PM|   PM          PM|   PM|
  E E E E E E E E   +E  E E E E E E E
|-----------------|--------------------|
|-----------------|--------------------|
|-5S7-7-----7---5-|-(5)-5-----5-----4--|
|-5S7-7-----7---5-|-(5)-5-----5-----5--|
|-------0-0---0---|-------0-0---0-0----|
|-----------------|--------------------|
|
|     ~
| Q   H     E   E   +Q    Q   Q   E Q
|-----------------|--------------------|
|-----------5-----|--------------------|
|-4---5---------7-|-(7)---5---4---5-4--|
|-----------------|--------------------|
|-----------------|--------------------|
|-----------------|--------------------|


            PM|   PM              PM|     PM
  +E   E  E E E E E  E    +Q    E E  E  E E  E
|-----------------------|-----------------------|
|-----------------------|-----------------------|
|-(4)--5--5-----5----4--|-(4)---4-------5----4--|
|-(5)-(5)-5-----5----5--|-(5)---5-------5----5--|
|-----------------------|-----------------------|
|-----------3-3---3-----|---------3--3----3-----|
|
|  PM-----|                PM---|
|  E   E  E E E E E +E     E  E E E +E  E E +E
|-----------------------|-----------------------|
|---------------6-5-(5)-|---------------6-5-(5)-|
|-----------4-5---------|--7--5-7-5-(5)---------|
|--7---5--7-------------|-----------------------|
|-----------------------|-----------------------|
|-----------------------|-----------------------|


            PM|       PM             PM|   PM
  +E   E  E E  E  E   E E   +Q     E E E E E   E
|-------------------------|----------------------|
|-------------------------|----------------------|
|-(4)--5--5-------5-----4-|-(4)----4-----4-----2-|
|-(5)-(5)-5-------5-----5-|-(5)----5-----5-----3-|
|-------------------------|----------------------|
|-----------0--0------0---|----------0-0---0-----|
|
|  PM-------|                      PM--|
|  E   E  E E +Q    E   E   +E   E E E E E E   E
|-------------------------|----------------------|
|-----------------------6-|-(6)--5-------5-6-/10-|
|--7---5--7-5-(5)---5-----|--------7-5-7---------|
|-------------------------|----------------------|
|-------------------------|----------------------|
|-------------------------|----------------------|
|
| Gtr II
|  W                         H..               E
|-------------------------|-------------------/8-|
|-------------------------|----------------------|
|-------------------------|----------------------|
|-------------------------|----------------------|
|-------------------------|----------------------|
|-------------------------|----------------------|


            PM---|     PM                                PM|
   +Q     E E    E   E E   E   +E   E E  E +E  E         E E
|----------------------------|--------------------------------|
|----------------------------|--------------------------------|
|--(2)----2----------2-----5-|-(5)--5----4-(4)-4--------------|
|--(3)----3----------3-----5-|-(5)--5----5-(5)-5--------------|
|-----------0----0-----0-----|--------------------------------|
|----------------------------|---------------------------0-0--|
|
|  +Q   Q      E   Q     E     +E   Q    Q     E.  E.
|----------------------------|--------------------------------|
|-(10)-10-----10---8-----8---|-(8)-13---13--------15b17=======|
|----------------------------|--------------------------------|
|----------------------------|--------------------------------|
|----------------------------|--------------------------------|
|----------------------------|--------------------------------|
|
|  +Q   Q      E   Q     E     +E   Q    Q     Q         E
|--(8)--8------8---7-----7---|-(7)-12---12--------------------|
|----------------------------|--------------------------------|
|----------------------------|--------------------------------|
|----------------------------|--------------------------------|
|----------------------------|--------------------------------|
|----------------------------|--------------------------------|


             PM|    PM             PM|      PM|
    E   E E  E E  E E  E   +E   E  E  E  E  E  E  E
|------------------------|--------------------------|
|------------------------|--------------------------|
|---5S==7-7-------7----5-|-(5)--5--------5--------4-|
|---5S==7-7-------7----5-|-(5)--5--------5--------5-|
|------------0-0----0----|---------0--0-----0--0----|
|------------------------|--------------------------|
|
|  +E   Q    Q    Q    E    E   E  E  E  Q     E  E
|------------------------|--------------------------|
|-(15)-15---15---15---15-|-15--15-15-15-15r---13-15-|
|------------------------|--------------------------|
|------------------------|--------------------------|
|------------------------|--------------------------|
|------------------------|--------------------------|
|
|   W                       W
|------------------------|--------------------------|
|------------------------|--------------------------|
|------------------------|--------------------------|
|------------------------|--------------------------|
|------------------------|--------------------------|
|------------------------|--------------------------|


                 PM|        PM                PM-|    PM
   +E   E     E  E E  E     E  E   +Q      E  E  E E  E  E
|--------------------------------|---------------------------|
|--------------------------------|---------------------------|
|--(4)--5-----5-------5--------4-|-(4)-----4-------4-----4---|
|--(5)-(5)----5-------5--------5-|-(5)-----5-------5-----5---|
|--------------------------------|---------------------------|
|----------------3-3--------3----|------------3--3----3------|
|
|                                             ~~~
|  +E   S  S  E  Q    S  S  E  E    E   E  E  Q.      Q
|--------------------------------|---------------------------|
|-(15)-13h15p13-12---12h13p12-10-|-----10s13p10------17------|
|--------------------------------|-12------------------------|
|--------------------------------|---------------------------|
|--------------------------------|---------------------------|
|--------------------------------|---------------------------|
|
|   W                               H.                   Q
|--------------------------------|----------------------15---|
|--------------------------------|---------------------------|
|--------------------------------|---------------------------|
|--------------------------------|---------------------------|
|--------------------------------|---------------------------|
|--------------------------------|---------------------------|


               PM|      PM                PM|      PM
   +E   E   E  E  E  E  E  E   +Q      E  E  E  E  E  E
|----------------------------|--------------------------|
|----------------------------|--------------------------|
|--(4)--5---5--------5-----4-|-(4)-----4--------4-----2-|
|--(5)-(5)--5--------5-----5-|-(5)-----5--------5-----3-|
|----------------------------|--------------------------|
|--------------0--0-----0----|------------0--0-----0----|
|
|  +E   E   E  E  E  E  E  E    E   E  E  E  E  E  E  E
|----------------------------|--------------------------|
|-(17)-17--17-17-17-15-15-15-|-----10-10-10-10--8--8--8-|
|----------------------------|--------------------------|
|----------------------------|--------------------------|
|----------------------------|--------------------------|
|----------------------------|--------------------------|
|
|  +E   E   E  E  E  E  E  E    E   E  E  E  E  E  E  E
|-(15)-15--15-15-15-13-13-13-|--------------------------|
|----------------------------|-----13-13-13-13-12-12-12-|
|----------------------------|--------------------------|
|----------------------------|--------------------------|
|----------------------------|--------------------------|
|----------------------------|--------------------------|


                  PM---|           PM                                    PM|
  +Q         E    E    E     E     E   E        +E       E     E E +E  E E E
|-----------------------------------------|----------------------------------|
|-----------------------------------------|----------------------------------|
|-(2)--------2---------------2---------5--|-----(5)------5-------4-(4)-4-----|
|-(3)--------3---------------3---------5--|-----(5)------5-------5-(5)-5-----|
|-----------------0----0-----------0------|----------------------------------|
|-----------------------------------------|------------------------------0-0-|
|
|                                                              ~~
|  S  S S  S S  S S  S S  S  S  S  E   E     E   E   Q.  E  E  E
|-------5-12-8---------8-17-12------------|----------------------------------|
|-----6--------10---10---------13---------|-----13--12-----------------------|
|--7--------------9---------------14------|-------------14-12-14-------------|
|-----------------------------------------|----------------------------------|
|-------------------------------------12--|-14-------------------------------|
|-----------------------------------------|----------------------------------|
|
|                                                              ~~
|  W                                         E   E   Q.  E  E  E
|-----------------------------------------|-----12--10-----------------------|
|-----------------------------------------|-------------13-12-13-------------|
|-----------------------------------------|----------------------------------|
|-----------------------------------------|----------------------------------|
|-----------------------------------------|----------------------------------|
|-----------------------------------------|----------------------------------|


 Solo 2
  Gtr III
                              PM---|            PM                         PM---|            PM---|
   E        E        E        E     E     E     E     E      +E      E     E     E     E     E     E     E
|----------------------------------------------------------|--------------------------------------------------|
|----------------------------------------------------------|--------------------------------------------------|
|--5S=======7--------7--------------------7-----------5----|-(5)-----5-----------------5-----------------4----|
|--5S=======7--------7--------------------7-----------5----|-(5)-----5-----------------5-----------------5----|
|-----------------------------0-----0-----------0----------|---------------0-----0-----------0-----0----------|
|----------------------------------------------------------|--------------------------------------------------|
|
| Gtr I
|  S  S     S  S     S  S     S  S  S  S  S  S  S  S  S  S    S   S  S  S  S  S  S  S  S  S  S  S  S  S  S  S
|-17-------17-------17-------17-17-17-17-17-17-20-17-20-17-|-22--20-17-20-17----20-17----17-20-17-17----------|
|----20b22----20b22----20b22-------------------------------|-----------------20-------20-------------20-17-20-|
|----------------------------------------------------------|--------------------------------------------------|
|----------------------------------------------------------|--------------------------------------------------|
|----------------------------------------------------------|--------------------------------------------------|
|----------------------------------------------------------|--------------------------------------------------|


                       PM---|            PM                     PM|     PM
  +E      E      E     E     E     E     E     E      +Q      E E  E E  E E
|---------------------------------------------------|-----------------------|
|---------------------------------------------------|-----------------------|
|-(4)-----5------5-----------------4-----------4----|-(4)-----4------4----4-|
|-(5)----(5)-----5-----------------5-----------5----|-(5)-----5------5----5-|
|---------------------------------------------------|-----------------------|
|----------------------3-----3-----------3----------|-----------3--3----3---|
|
|  S   S  S   S  S  S  S  S  S  S  S  S  S  S  S  S    Q      Q    Q    Q
|-20--17-----17-------------------------------------|-----------------------|
|--------20-----20-17----20-20-17----20-------------|-----------------------|
|---------------------19----------19----19-17----17-|-19b21--19---17--------|
|---------------------------------------------19----|------------------19---|
|---------------------------------------------------|-----------------------|
|---------------------------------------------------|-----------------------|


              PM|      PM                 PM|      PM
  +E   E   E  E  E  E  E  E    +Q      E  E  E  E  E  E
|---------------------------|---------------------------|
|---------------------------|---------------------------|
|-(4)--5---5--------5-----4-|--(4)-----4--------4-----2-|
|-(5)-(5)--5--------5-----5-|--(5)-----5--------5-----3-|
|---------------------------|---------------------------|
|-------------0--0-----0----|-------------0--0-----0----|
|
|      PM        PM       PM           PM       PM
|  E   E   E  E  E  E  E  E     E   E  E  E  E  E  E  E
|---------------------------|---------------------------|
|---------------------------|---------------------------|
|-17------17-16----16-14----|-[14]-12----12-10----10-10-|
|-----19--------17-------15-|---------14-------12-------|
|---------------------------|---------------------------|
|---------------------------|---------------------------|


          PM|    PM                             PM|
   +Q   E E  E E E E   +E   E E       E +E   E  E E
|--------------------|--------------------------------|
|--------------------|--------------------------------|
|--(2)--2------2---5-|-(5)--5---------4-(4)--4--------|
|--(3)--3------3---5-|-(5)--5---------5-(5)--5--------|
|---------0--0---0---|--------------------------------|
|--------------------|--------------------------0-0---|
|
|   ~~~~
|                             |-3--|
|  +H        E E E E   +E   E S  S S  Q      Q.
|--------------------|--------------------------------|
|--------------------|--------------------------------|
|-(10)------10-9-9-9-|-(9)-10p9h10p9------------------|
|--------------------|---------------12-----10--------|
|--------------------|--------------------------------|
|--------------------|--------------------------------|


                 PM---|         PM                      PM---|         PM---|
  E    E    E    E    E    E    E    E      +E     E    E    E    E    E    E    E
|-----------------------------------------|-------------------------------------------|
|-----------------------------------------|-------------------------------------------|
|-5S===7----7--------------7---------5----|-(5)----5--------------5--------------4----|
|-5S===7----7--------------7---------5----|-(5)----5--------------5--------------5----|
|----------------0----0---------0---------|-------------0----0---------0----0---------|
|-----------------------------------------|-------------------------------------------|
|
| PM-----|     PM------------------------------------|     PM--------------------------
| |---3---| |---3---| |---3---| |---3---|    |---3----| |---3---| |---3---| |---3---|
| E  E    E E  E    E E  E    E E  E    E    E   E    E E  E    E E  E    E E  E    E
|-----------------------------------------|-------------------------------------------|
|-----------------------------------------|-------------------------------------------|
|-----------------------------------------|-------------9-----------------------------|
|-----------9-----------------------------|---------------------------------9-10---12-|
|-------------------------------8-10---12-|--8--10---12---12---10-8-10---12-----------|
|-8-10---12---12---10-8-10---12-----------|-------------------------------------------|


                      PM---|          PM                          PM---|           PM
  +E      E      E    E    E    E     E    E      +Q         E    E     E    E     E    E
|-----------------------------------------------|-----------------------------------------------|
|-----------------------------------------------|-----------------------------------------------|
|-(4)-----5------5--------------5----------4----|-(4)--------4---------------4----------4-------|
|-(5)----(5)-----5--------------5----------5----|-(5)--------5---------------5----------5-------|
|-----------------------------------------------|-----------------------------------------------|
|---------------------3----3----------3---------|-----------------3-----3----------3------------|
|
|------------|      PM------------|
|  |----3-----|  |---3---| |---3---|  |---3---|    |--3---|  |---3---|  |---3---|  |---3---|
|  E   E      E  E  E    E E  E    E  E  E    E    E   E  E  E  E    E  E  E    E  E  E    E
|-----------------------------------------------|-----------10--------------------10-12---13----|
|---------------10-------------------10-12---13-|-10--12-13----13---12-10-12---13---------------|
|-----------------------------------------------|-----------------------------------------------|
|--9--10-----12----12---10-9-10---12------------|-----------------------------------------------|
|-----------------------------------------------|-----------------------------------------------|
|-----------------------------------------------|-----------------------------------------------|


              PM|      PM               PM|      PM
  +E   E   E  E  E  E  E  E    +Q    E  E  E  E  E  E
|---------------------------|-------------------------|
|---------------------------|-------------------------|
|-(4)--5---5--------5-----4-|--(4)---4--------4-----2-|
|-(5)-(5)--5--------5-----5-|--(5)---5--------5-----3-|
|---------------------------|-------------------------|
|-------------0--0-----0----|-----------0--0-----0----|
|
|                         ~~~~~~~~~                 ~~~
|  Q       E  E  E  E  E  E    +Q    E  E  E  E  E  E
|---------13-12-10----------|-------12-10-------------|
|------------------13-12-10-|-(10)--------13-12-10----|
|---------------------------|----------------------10-|
|---------------------------|-------------------------|
|---------------------------|-------------------------|
|---------------------------|-------------------------|


            PM|      PM                       PM|
   +Q    E  E  E  E  E E   +E  E E   E  +E  E E   E
|------------------------|---------------------------|
|------------------------|---------------------------|
|--(2)---2--------2----5-|-(5)-5-----4--(4)-4--------|
|--(3)---3--------3----5-|-(5)-5-----5--(5)-5--------|
|-----------0--0-----0---|---------------------------|
|------------------------|--------------------0---0--|
|
|~~~~~~                ~~~~~~~~~~~~~~~~~~~~~~~~~~~~~~
|  +Q    E  E  E  E  E E   +Q.       H           +E
|-------10---------------|---------------------------|
|----------13-12-10------|---------------------------|
|-(10)--------------10-9-|-(9)-----[10]---------(10)-|
|------------------------|---------------------------|
|------------------------|---------------------------|
|------------------------|---------------------------|


 Breakdown
  E5VII                              D#5
  Gtrs III, IV
      PM|   PM|    PM----|   PM|   PM
  E   E E E E E E  E     E E E E E E E E
|----------------------|-----------------|
|----------------------|-----------------|
|----------------------|-----------------|
|-9-------9-----9------|---9-----9---8-8-|
|-7-------7-----7------|---7-----7---7-7-|
|-----0-0---0-0----0---|-0---0-0---0-----|
|
| Gtr I
| ~~~
| H..             +E     W
|----------------------|-----------------|
|----------------------|-----------------|
|-9---------------(9)\-|-----------------|
|----------------------|-----------------|
|----------------------|-----------------|
|----------------------|-----------------|


  E5VII             N.C.
    PM|   PM|   PM
                    |-3--|  |-3--| |--3--|  |--3--|
  E E E E E E E E   E E  E  E  E E E  E  E  E  E  E
|-----------------|---------------------------------|
|-----------------|---------------------------------|
|-----------------|---------------------------------|
|-9-----9-----9---|---------------------------------|
|-7-----7-----7---|--------10--------------13-------|
|---0-0---0-0---0-|-0-8-11----11-8-0-11-14----14-11-|
|
| W                 W
|-----------------|---------------------------------|
|-----------------|---------------------------------|
|-----------------|---------------------------------|
|-----------------|---------------------------------|
|-----------------|---------------------------------|
|-----------------|---------------------------------|


  E5VII                         D#5
    PM|   PM|   PM--|   PM|   PM
  E E E E E E E E   E E E E E E E E
|-----------------|-----------------|
|-----------------|-----------------|
|-----------------|-----------------|
|-9-----9-----9---|---9-----9---8-8-|
|-7-----7-----7---|---7-----7---7-7-|
|---0-0---0-0---0-|-0---0-0---0-----|


  E5VII             N.C.
    PM|   PM|   PM
                    |--3--|  |--3--| |--3--|  |--3--|
  E E E E E E E E   E  E  E  E  E  E E  E  E  E  E  E
|-----------------|-----------------------------------|
|-----------------|-----------------------------------|
|-----------------|-----------------------------------|
|-9-----9-----9---|---------14---------------13-------|
|-7-----7-----7---|-0-12-15----15-12-0-11-14----14-11-|
|---0-0---0-0---0-|-----------------------------------|


  E5VII                         D#5
    PM|   PM|   PM--|   PM|   PM
  E E E E E E E E   E E E E E E E E
|-----------------|-----------------|
|-----------------|-----------------|
|-----------------|-----------------|
|-9-----9-----9---|---9-----9---8-8-|
|-7-----7-----7---|---7-----7---7-7-|
|---0-0---0-0---0-|-0---0-0---0-----|


  E5VII             N.C.
    PM|   PM|   PM
                    |-3--|  |-3--| |--3--|  |--3--|
  E E E E E E E E   E E  E  E  E E E  E  E  E  E  E
|-----------------|---------------------------------|
|-----------------|---------------------------------|
|-----------------|---------------------------------|
|-9-----9-----9---|---------------------------------|
|-7-----7-----7---|--------10--------------13-------|
|---0-0---0-0---0-|-0-8-11----11-8-0-11-14----14-11-|


  E5VII                         D#5
    PM|   PM|   PM--|   PM|   PM
  E E E E E E E E   E E E E E E E E
|-----------------|-----------------|
|-----------------|-----------------|
|-----------------|-----------------|
|-9-----9-----9---|---9-----9---8-8-|
|-7-----7-----7---|---7-----7---7-7-|
|---0-0---0-0---0-|-0---0-0---0-----|


  E5VII             N.C.
    PM|   PM|   PM
                    |--3--|  |--3--| |--3--|  |--3--|
  E E E E E E E E   E  E  E  E  E  E E  E  E  E  E  E
|-----------------|-----------------------------------|
|-----------------|-----------------------------------|
|-----------------|-----------------------------------|
|-9-----9-----9---|---------14---------------13-------|
|-7-----7-----7---|-0-12-15----15-12-0-11-14----14-11-|
|---0-0---0-0---0-|-----------------------------------|


  |--3--|  |--3--| |--3--|  |--3--|
  E  E  E  E  E  E E  E  E  E  E  E
|-----------------------------------|
|-----------------------------------|
|-----------------------------------|
|-----------------------------------|
|---------14---------------13-------|
|-0-12-15----15-12-0-11-14----14-11-|


                                             D.S. al Coda
  |-3--|  |-3--| |-3--| |-3--|   |-3--| |-3--| |-3-| |-3-|
  E E  E  E  E E E E  E E  E E   E E  E E  E E E E E E E E
|------------------------------|----------------------------|
|------------------------------|----------------------------|
|------------------------------|----------------------------|
|------------------------------|--------9------------8------|
|--------10-------------9------|-0-7-10---10-7-0-6-9---9-6--|
|-0-8-11----11-8-0-7-10---10-7-|----------------------------|


 End
  Q=180
  &
  E5
  Gtr I
  W          +W           +W           +W
|----------|------------|------------|--------*|
|----------|------------|------------|--------*|
|----------|------------|------------|--------*|
|-2--------|-(2)--------|-(2)--------|-(2)----*|
|-2--------|-(2)--------|-(2)--------|-(2)----*|
|-0--------|-(0)--------|-(0)--------|-(0)----*|
|
| Gtr II
| W          +W           +W           +W
|----------|------------|------------|--------*|
|----------|------------|------------|--------*|
|----------|------------|------------|--------*|
|-2--------|-(2)--------|-(2)--------|-(2)----*|
|-2--------|-(2)--------|-(2)--------|-(2)----*|
|-0--------|-(0)--------|-(0)--------|-(0)----*|




--------------------------------------------------------------------------------


Duration Legend
---------------
W - whole; H - half; Q - quarter; E - 8th; S - 16th; T - 32nd; X - 64th; a - acciaccatura
+ - note tied to previous; . - note dotted; .. - note double dotted
Uncapitalized letters represent notes that are staccato (1/2 duration)
Irregular groupings are notated above the duration line
Duration letters will always appear directly above the note/fret number it represents the
duration for.  Duration letters with no fret number below them represent rests.  Multi-
bar rests are notated in the form Wxn, where n is the number of bars to rest for.  Low
melody durations appear below the staff

Tablature Legend
----------------
 h   - hammer-on
 p   - pull-off
 b   - bend
 pb  - pre-bend
 r   - bend release (if no number after the r, then release immediately)
 /\  - slide into or out of (from/to "nowhere")
 s   - legato slide
 S   - shift slide
 - natural harmonic
[n]  - artificial harmonic
n(n) - tapped harmonic
 ~   - vibrato
 tr  - trill
 T   - tap
 TP  - trem. picking
 PM  - palm muting
\n/  - tremolo bar dip; n = amount to dip
 \n  - tremolo bar down
 n/  - tremolo bar up
/n\  - tremolo bar inverted dip
 =   - hold bend; also acts as connecting device for hammers/pulls
 <> - volume swell (louder/softer)
 x   - on rhythm slash represents muted slash
 o   - on rhythm slash represents single note slash

Misc Legend
-----------
 |  - bar
||  - double bar
||o - repeat start
o|| - repeat end
*|  - double bar (ending)
 :  - bar (freetime)
 $  - Segno
 &  - Coda
Tempo markers -  = BPM(8/16=s8/s16), where s8 = swing 8ths, s16 = swing 16ths


comments
We did not receive enough feedback on this tab! Please rate:
print report bad tab
1 2 3 4 5
I want to post or [tab]
guest
You may want to rate the tab now too:
select rating
Please do not post tabs as comments. Select "correction" instead!