Oops, an error
Loading. Please wait.

Falling To Grey Tab

ver2
ver2

Whole song

More versions @911Tabs.com
5,920 views 18 this week
16 commentsread comments
1 2 3 4 5
accurate
x 14
Autoscroll
+/-
esc
set tempo
stop
Contributor
Difficulty
advanced
WARNING: You are trying to view
                                    content from Ultimate-Guitar.com
                                    in an unauthorized application,
                                    which is prohibited.

                                    Please use an official Ultimate
                                    Guitar Tabs application for iPhone,
                                    iPad or Android to access legitimate
                                    chords, guitar, bass, and drum tabs
                                    from Ultimate-Guitar.com database.

                                    Type "ultimate guitar tabs" in Apple
                                    App Store's or Android Market's
                                    search to find the application.
-----------------------------------------------------------------------------
                             Falling into grey - Trivium
-----------------------------------------------------------------------------
Tabbed by:Tom
Email:WhyTheHellShouldITellYou@hotmail.co.uk

This is a very awesome song ive been searching for ages for it and not found
a tab so ill tab it myself.This is gonna be one son of a bitch to tab so here goes.


Tuning:Stadard

e|---------------------------------------------------O------D---------------|
B|--------------------------------------------------L------E----------------|
G|---11-9-11----9-----------11-9-11----9-----------M------K-----------------|
D|-9---------12---11-12---9---------12---11-12----E------C------------------|
A|-----------------------------------------------R------I-------------------|
E|----------------------------------------------T------P--------------------|

e|---------------------------------------------------O------D---------------|
B|--------------------------------------------------L------E----------------|
G|-----12-11-12-9-11-7-9----12-11-12-9-11-7-9------M------K-----------------|
D|--12-------------------12-----------------------E------C------------------|
A|-----------------------------------------------R------I-------------------|
E|----------------------------------------------T------P--------------------|

e|---------------------------------------------------O------D---------------|
B|--------------------------------------------------L------E----------------|
G|----9-8-9----8---------9-8-9----8----------------M------K-----------------|
D|--9-------11---9-11--9-------11---9-11----------E------C------------------|
A|-----------------------------------------------R------I-------------------|
E|----------------------------------------------T------P--------------------|

e|---------------------------------------------------O-----D----------------|
B|-------------------------------11-12--------------L-----E-----------------|
G|----------9-------9-11-12-11-12------------------M-----K------------------|
D|--9-11-12---11-12-------------------------------E-----C-------------------|
A|-----------------------------------------------R-----I--------------------|
E|----------------------------------------------T-----P---------------------|

OMG that intro was a friggin bitch to tab!Anyway u shud play that twice

e|--------------------------------------------------------------------------|
B|---------------------------------------------------------13-10------------|
G|-11-----------------------------------------11-12-12(14)------------------|
D|----9-11-11(12)11-9-11-12-14-14(15)14-12-14-------------------------------|
A|--------------------------------------------------------------------------|
E|--------------------------------------------------------------------------|

e|--------------------------------------------------------------------------|
B|-19(20)19-19(20)-19-17-15-14-12-11-12-14-12-11-8-7------------------------|
G|--------------------------------------------------------------------------|
D|---------------------------------------------------4----------------------|
A|--------------------------------------------------------------------------|
E|--------------------------------------------------------------------------|

e|--------------------------------------------------------------------------|
B|--------------------------------------------------------------------------|
G|--------------------------------------------------------------------------|
D|--------------------------------------------------------------------------|
A|-5---9--10----9---7---------------5---4----7---5---4---2------------------|
E|-7-7-7-7-7-77-7-7-7-7-10-9-----33---3---33---3---3---3--------------------|

e|--------------------------------------------------------------------------|
B|--------------------------------------------------------------------------|
G|--------------------------------------------------------------------------|
D|--------------------------------------------------------------------------|
A|----5---4----7---5---4---5------5---4p2------7----------------------------|
E|-00---0---00---0---0---0-----22---2------555---5-7h9p5--------------------|

e|--------------------------------------------------------------------------|
B|--------------------------------------------------------------------------|
G|--------------------------------------------------------------------------|
D|--------------------------------------------------------------------------|
A|-5---9--10----9---7---------------5---4----7---5---4---2------------------|
E|-7-7-7-7-7-77-7-7-7-7-10-9-----33---3---33---3---3---3--------------------|

e|--------------------------------------------------------------------------|
B|--------------------------------------------------------------------------|
G|--------------------------------------------------------------------------|
D|--------------------------------------------------------------------------|
A|----5---4----7---5---4---5------5---4p2------7----------------------------|
E|-00---0---00---0---0---0-----22---2------555---5-7h9p5--------------------|

e|--------------------------------------------------------------------------|
B|--------------------------------------------------------------------------|
G|--------------------------------------------------------------------------|
D|-9-----5-----2------------------------------------------------------------|
A|-9-----5-----2------5---4p2------7----------------------------------------|
E|-7-----3-----0---22---2------555---5-7h9p5--------------------------------|

e|--------------------------------------------------------------------------|
B|--------------------------------------------------------------------------|
G|--------------------------------------------------------------------------|
D|-9-----5-----2------------------------------------------------------------|
A|-9-----5-----2------5---4p2------7----------------------------------------|
E|-7-----3-----0---22---2------555---5-7h9p5--------------------------------|

e|--------------------------------------------------------------------------|
B|--------------------------------------------------------------------------|
G|-------------------------------7---9--11----------------------------------|
D|-------------------------------x---x---x----------------------------------|
A|-5-------2------5p4----5-------5---7---9-5--------2-------5p4---2--4-5p4--|
E|-7-00000-3-0000-----5--7-00000---0---0---7-000000-3-00000----5--3--5-----5|

e|--------------------------------------------------------------------------|
B|--------------------------------------------------------------------------|
G|--------------------------------------------------------------------------|
D|-9-----5-----2------------------------------------------------------------|
A|-9-----5-----2------5---4p2------7----------------------------------------|
E|-7-----3-----0---22---2------555---5-7h9p5--------------------------------|

e|--------------------------------------------------------------------------|
B|--------------------------------------------------------------------------|
G|--------------------------------------------------------------------------|
D|-9-----5-----2------------------------------------------------------------|
A|-9-----5-----2------5---4p2------7----------------------------------------|
E|-7-----3-----0---22---2------555---5-7h9p5--------------------------------|

e|--------------------------------------------------------------------------|
B|--------------------------------------------------------------------------|
G|-------------------------------7---9--11----------------------------------|
D|-------------------------------x---x---x----------------------------------|
A|-5-------2------5p4----5-------5---7---9-5--------2-------5p4---2--4-5p4--|
E|-7-00000-3-0000-----5--7-00000---0---0---7-000000-3-00000----5--3--5-----5|

e|--------------------------------------------------------------------------|
B|--------------------------------------------------------------------------|
G|-------------------------------7---9--11----------------------------------|
D|-------------------------------x---x---x----------------------------------|
A|-5-------2------5p4----5-------5---7---9-5--------2-------5p4---2--4-5p4--|
E|-7-00000-3-0000-----5--7-00000---0---0---7-000000-3-000------5--3--5-----5|

e|--------------------------------------------------------------------------|
B|--------------------------------------------------------------------------|
G|--------------------------------------------------------------------------|
D|-2--------4---------9----------9-11-7-9-6-7-4-6---------------------------|
A|-2--------4---------9-----------------------------------------------------|
E|-0000000--22222222--7777777777--------------------------------------------|

e|--------------------------------------------------------------------------|
B|--------------------------------------------------------------------------|
G|--------------------------------------------------------------------------|
D|-2--------4---------9-----------------------------------------------------|
A|-2--------4---------9-----------9-7-9--10-9--7----------------------------|
E|-0000000--22222222--7777777777--7-9-10-12-10-9----------------------------|

e|--------------------------------------------------------------------------|
B|--------------------------------------------------------------------------|
G|--------------------------------------------------------------------------|
D|-2-2-2-2--4-4-4-4---9-9-9-9-9---999999------------------------------------|
A|-2-2-2-2--4-4-4-4---9-9-9-9-9---999999------------------------------------|
E|-0-0-0-0--2-2-2-2---7-7-7-7-7---777777------------------------------------|

e|--------------------------------------------------------------------------|
B|--------------------------------------------------------------------------|
G|--------------------------------------------------------------------------|
D|-2-2-2-2--4-4-4-4---9-9-9-9-9---999999------------------------------------|
A|-2-2-2-2--4-4-4-4---9-9-9-9-9---999999------------------------------------|
E|-0-0-0-0--2-2-2-2---7-7-7-7-7---777777------------------------------------|

|---------------------------------------------------------------------------|
B|--------------------------------------------------------------------------|
G|--------------------------------------------------------------------------|
D|-2-2-2-2--4-4-4-4---9-9-9-9-9---999999------------------------------------|
A|-2-2-2-2--4-4-4-4---9-9-9-9-9---999999------------------------------------|
E|-0-0-0-0--2-2-2-2---7-7-7-7-7---777777------------------------------------|

e|--------------------------------------------------------------------------|
B|--------------------------------------------------------------------------|
G|--------------------------------------------------------------------------|
D|-2-2-2-2--4-4-4-4---9-9-9-9-9---999999------------------------------------|
A|-2-2-2-2--4-4-4-4---9-9-9-9-9---999999------------------------------------|
E|-0-0-0-0--2-2-2-2---7-7-7-7-7---777777------------------------------------|

e|--------------------------------------------------------------------------|
B|--------------------------------------------------------------------------|
G|--------------------------------------------------------------------------|
D|-9-----5-----2------------------------------------------------------------|
A|-9-----5-----2------5---4p2------7----------------------------------------|
E|-7-----3-----0---22---2------555---5-7h9p5--------------------------------|

e|-----------------------------------------O-----D--------------------------|
B|----------------------------------------L-----E---------------------------|
G|---------------------------------------M-----K----------------------------|
D|--11--12--7---14---9---12---7---8-----E-----C-----------------------------|
A|--9---10--7---12---9---12---7---8----R-----I------------------------------|
E|--7---7---9---10---7---10---5---6---T-----P-------------------------------|

e|--------------------------------------------------------------------------|
B|--------------------------------------------------------------------------|
G|-------------------------------7---9--11----------------------------------|
D|-------------------------------x---x---x----------------------------------|
A|-5-------2------5p4----5-------5---7---9-5--------2-------5p4---2--4-5p4--|
E|-7-00000-3-0000-----5--7-00000---0---0---7-000000-3-00000----5--3--5-----5|

e|--------------------------------------------------------------------------|
B|--------------------------------------------------------------------------|
G|-------------------------------7---9--11----------------------------------|
D|-------------------------------x---x---x----------------------------------|
A|-5-------2------5p4----5-------5---7---9-5--------2-------5p4---2--4-5p4--|
E|-7-00000-3-0000-----5--7-00000---0---0---7-000000-3-000------5--3--5-----5|

e|--------------------------------------------------------------------------|
B|--------------------------------------------------------------------------|
G|--------------------------------------------------------------------------|
D|-2--------4---------9----------9-11-7-9-6-7-4-6---------------------------|
A|-2--------4---------9-----------------------------------------------------|
E|-0000000--22222222--7777777777--------------------------------------------|

e|--------------------------------------------------------------------------|
B|--------------------------------------------------------------------------|
G|--------------------------------------------------------------------------|
D|-2--------4---------9-----------------------------------------------------|
A|-2--------4---------9-----------9-7-9--10-9--7----------------------------|
E|-0000000--22222222--7777777777--7-9-10-12-10-9----------------------------|

e|--------------------------------------------------------------------------|
B|--------------------------------------------------------------------------|
G|--------------------------------------------------------------------------|
D|-2-2-2-2--4-4-4-4---9-9-9-9-9---999999------------------------------------|
A|-2-2-2-2--4-4-4-4---9-9-9-9-9---999999------------------------------------|
E|-0-0-0-0--2-2-2-2---7-7-7-7-7---777777------------------------------------|

e|--------------------------------------------------------------------------|
B|--------------------------------------------------------------------------|
G|--------------------------------------------------------------------------|
D|-2-2-2-2--4-4-4-4---9-9-9-9-9---999999------------------------------------|
A|-2-2-2-2--4-4-4-4---9-9-9-9-9---999999------------------------------------|
E|-0-0-0-0--2-2-2-2---7-7-7-7-7---777777------------------------------------|

|--------------------------------------------------------------------------|
B|--------------------------------------------------------------------------|
G|--------------------------------------------------------------------------|
D|-2-2-2-2--4-4-4-4---9-9-9-9-9---999999------------------------------------|
A|-2-2-2-2--4-4-4-4---9-9-9-9-9---999999------------------------------------|
E|-0-0-0-0--2-2-2-2---7-7-7-7-7---777777------------------------------------|

e|--------------------------------------------------------------------------|
B|--------------------------------------------------------------------------|
G|--------------------------------------------------------------------------|
D|-2-2-2-2--4-4-4-4---9-9-9-9-9---999999------------------------------------|
A|-2-2-2-2--4-4-4-4---9-9-9-9-9---999999------------------------------------|
E|-0-0-0-0--2-2-2-2---7-7-7-7-7---777777------------------------------------|


Thats all you really need there its taken about 3 hours to do (i dont like the
solo so haha) i might finish it another day lol oh and there are a load of repeats
after the solo i gotta go watch a film now bye for now have fun and good luck

| /  slide up
| \  slide down
| h  hammer-on
| p  pull-off
| ~  vibrato
| +  harmonic
| x  Mute note
=============================================================================
16 comments total. Showing first comments.
0 reply
METSOAD wrote on April 7 2006, 02:47 am

Lazy person, pt in the solos and the repeats now!!

0 reply
MiniMosher wrote on April 13 2006, 09:06 am

mayb someday

0 reply
Rhythman wrote on May 17 2006, 08:38 pm

this is why I use power tab.

I want to post or [tab]
guest
You may want to rate the tab now too:
select rating
Please do not post tabs as comments. Select "correction" instead!