Oops, an error
Loading. Please wait.

Forsake Not The Dream Tab

ver3
ver3

Whole song

More versions @911Tabs.com
13,675 views 153 this week
6 commentsread comments
1 2 3 4 5
excellent!
x 14
Autoscroll
+/-
esc
set tempo
stop
Contributor
Difficulty
Tuning
intermediate
C# G# C# F# A# D#
Hey! There's an official Ultimate Guitar app which is ideal
for learning songs when you're away from computer. Get the app
WARNING: You are trying to view
                                    content from Ultimate-Guitar.com
                                    in an unauthorized application,
                                    which is prohibited.

                                    Please use an official Ultimate
                                    Guitar Tabs application for iPhone,
                                    iPad or Android to access legitimate
                                    chords, guitar, bass, and drum tabs
                                    from Ultimate-Guitar.com database.

                                    Type "ultimate guitar tabs" in Apple
                                    App Store's or Android Market's
                                    search to find the application.
Band:  Trivium
Song:  Forsake Not The Dream
Album: In Waves

Tuning: Drop C# (C#, G#, C#, F#, A#, D#)
(Tune all strings down half a step then drop tune)

This took me ages, so I urge people to please rate.
This should be note perfect. Let me know if there is anything I have missed.
Again, please rate :)

Also if you think some parts are wrong, check this video
http://www.youtube.com/watch?v=em8krTUsVLE

Please rate, comment, correct, anything that helps :)

Hammer on:    h
Pull off:     p
Slide up:     /
Slide down:   \
Bend up:      BU(?)
Mutted note:  x

Guitar 1:        Matt Heafy
Guitar 2:        Corey Beaulieu
Guitar 3:        Corey Beaulieu


Intro/Chorus
Guitar 1 (Clean-Recorded on a telecaster)
|---------------------------------------------------------------------|
|---------------------------------------------------------------------|
|-7-7-7-7-x-x-x-x-x-x-x-x-x-x-x-x-7-7-7-7-x-x-x-x-10-10-10-10-9-9-9-9-|
|---------x-x-x-x-x-x-x-x-x-x-x-x---------x-x-x-x---------------------|
|-5-5-5-5-x-x-x-x-x-x-x-x-x-x-x-x-5-5-5-5-x-x-x-x--8--8--8--8-7-7-7-7-|
|---------------------------------------------------------------------|

|-----------------------------------------------------------------|
|-----------------------------------------------------------------|
|-3-3-3-3-3-3-3-3-3-3-3-3-3-3-3-3-5-5-5-5-5-5-5-5-5-5-5-5-5-5-5-5-|
|-3-3-3-3-3-3-3-3-3-3-3-3-3-3-3-3-5-5-5-5-5-5-5-5-5-5-5-5-5-5-5-5-|
|-1-1-1-1-1-1-1-1-1-1-1-1-1-1-1-1-3-3-3-3-3-3-3-3-3-3-3-3-3-3-3-3-|
|-----------------------------------------------------------------|

Guitar 2 (Harmony)
|---------------------------------------------------------------------------------|
|---------------------------------------------------------------------------------|
|-10-10-10-10-x-x-x-x-x-x-x-x-x-x-x-x-10-10-10-10-x-x-x-x-14-14-14-14-12-12-12-12-|
|-------------x-x-x-x-x-x-x-x-x-x-x-x-------------x-x-x-x-------------------------|
|--8--8--8--8-x-x-x-x-x-x-x-x-x-x-x-x--8--8--8--8-x-x-x-x-12-12-12-12-10-10-10-10-|
|---------------------------------------------------------------------------------|

|-----------------------------------------------------------------|
|-----------------------------------------------------------------|
|-7-7-7-7-7-7-7-7-7-7-7-7-7-7-7-7-9-9-9-9-9-9-9-9-9-9-9-9-9-9-9-9-|
|-----------------------------------------------------------------|
|-5-5-5-5-5-5-5-5-5-5-5-5-5-5-5-5-7-7-7-7-7-7-7-7-7-7-7-7-7-7-7-7-|
|-----------------------------------------------------------------|

Guitar 2 (Lead Distorted)
|------------------------------------|-------------------------------------|
|------------------------------------|-------------------------------------|
|-/10-----9--------------------------|-/10-----9-----12-------10p9\7-------|
|---------------10-------------------|-------------------------------------|
|------------------------------------|-------------------------------------|
|------------------------------------|-------------------------------------|

___________________________________________________________________________________

Verse 1
Guitar 1
|---------------------------------|---------------------------------|
|-------3-------------------------|-------3-------------------------|
|-------2-------------------------|-------2-------------------------|
|-------0-------------------------|-------0-------------------------|
|-0-0-0-0-------------------------|-0-0-0-0-------------------------|
|-0-0-0-0-------------------------|-0-0-0-0-------------------------|

Guitar 2
|-------0-------------------------|-------5-------------------------|
|-----------6---------------------|-----------6---------------------|
|---------------7-----------------|---------------7-----------------|
|---------------------------------|---------------------------------|
|-0-0-0---------------------------|-0-0-0---------------------------|
|-0-0-0---------------------------|-0-0-0---------------------------|

Guitar 1
|---------------------------------|---------------------------------|
|---------------------------------|---------------------------------|
|-3-3-3-3-3-3-3-3-3-3-3-3-3-3-3-3-|-5-5-5-5-5-5-5-5-5-5-5-5-5-5-5-5-|
|-3-3-3-3-3-3-3-3-3-3-3-3-3-3-3-3-|-5-5-5-5-5-5-5-5-5-5-5-5-5-5-5-5-|
|-1-1-1-1-1-1-1-1-1-1-1-1-1-1-1-1-|-3-3-3-3-3-3-3-3-3-3-3-3-3-3-3-3-|
|---------------------------------|---------------------------------|

Guitar 2
|-------------------------------------------------|
|-------------------------------------------------|
|-17-17-17-17-17-17-15-15-15-15-15-15-14-14-14-14-|
|-------------------------------------------------|
|-15-15-15-15-15-15-13-13-13-13-13-13-12-12-12-12-|
|-------------------------------------------------|

|------------------------------------------|
|------------------------------------------|
|-12-12-12-12-12-12-12-12-10---9---7---5---|
|------------------------------------------|
|-10-10-10-10-10-10-10-10--8---7---5---3---|
|------------------------------------------|

Guitar 1
|---------------------------------|---------------------------------|
|-------3-------------------------|-------3-------------------------|
|-------2-------------------------|-------2-------------------------|
|-------0-------------------------|-------0-------------------------|
|-0-0-0-0-------------------------|-0-0-0-0-------------------------|
|-0-0-0-0-------------------------|-0-0-0-0-------------------------|

Guitar 2
|-------0-------------------------|-------5-------------------------|
|-----------6---------------------|-----------6---------------------|
|---------------7-----------------|---------------7-----------------|
|---------------------------------|---------------------------------|
|-0-0-0---------------------------|-0-0-0---------------------------|
|-0-0-0---------------------------|-0-0-0---------------------------|

Guitar 1
|---------------------------------|---------------------------------|
|---------------------------------|---------------------------------|
|-3-3-3-3-3-3-3-3-3-3-3-3-3-3-3-3-|-5-5-5-5-5-5-5-5-5-5-5-5-5-5-5-5-|
|-3-3-3-3-3-3-3-3-3-3-3-3-3-3-3-3-|-5-5-5-5-5-5-5-5-5-5-5-5-5-5-5-5-|
|-1-1-1-1-1-1-1-1-1-1-1-1-1-1-1-1-|-3-3-3-3-3-3-3-3-3-3-3-3-3-3-3-3-|
|---------------------------------|---------------------------------|

Guitar 2
|-------------------------------------------------|
|-------------------------------------------------|
|-17-17-17-17-17-17-15-15-15-15-15-15-14-14-14-14-|
|-------------------------------------------------|
|-15-15-15-15-15-15-13-13-13-13-13-13-12-12-12-12-|
|-------------------------------------------------|

|--------------------------------------------|
|--------------------------------------------|
|-12-12-12-12-12-12-12-12-10---9---10---12---|
|--------------------------------------------|
|-10-10-10-10-10-10-10-10--8---7----8---10---|
|--------------------------------------------|

___________________________________________________________________________________


Verse 2
Both guitars
|-------------------------------------|
|-------------------------------------|
|-------------------------------------|
|-12-----8-----10-----8-----10---12---|
|-------------------------------------|
|----8-8---8-8----8-8---8-8----8----8-|

|-------------------------------------------------|
|-------------------------------------------------|
|-------------------------------------------------|
|-15-------12-------14-------12-------14----15----|
|-------------------------------------------------|
|----12-12----12-12----12-12----12-12----12----12-|

|-------------------------------------------------|
|-------------------------------------------------|
|-------------------------------------------------|
|-19-------15-------17-------15-------17----19----|
|-------------------------------------------------|
|----15-15----15-15----15-15----15-15----15----15-|

Guitar 1
|-------------------------------------------------|
|-------------------------------------------------|
|-------------------------------------------------|
|-15-------14-------12----14-------12-------10----|
|-------------------------------------------------|
|----12-12----12-12----12----10-10----10-10----10-|
|
|Guitar 2
|-------------------------------------------------|
|-------------------------------------------------|
|-14-------12-------------12-------10-------------|
|-------------------15----------------------14----|
|-------------------------------------------------|
|----12-12----12-12----12----10-10----10-10----10-|

___________________________________________________________________________________


Repeat Intro/Chorus


Repeat Verse 1


Repeat Verse 2


Repeat Intro/Chorus

___________________________________________________________________________________


Verse 3
Guitar 1
|---------------------------------|---------------------------------|
|---------------------------------|---------------------------------|
|---------------------------------|---------------------------------|
|---------------------------------|---------------------------------|
|-1-1-1-1-1-1-1-1-1-1-1-1-1-1-1-1-|-1-1-1-1-1-1-1-1-3-3-3-3-3-3-3-3-|
|---------------------------------|---------------------------------|

Guitar 2
|-----5-----3---------------------|-----5-----3---------------------|
|-----------------6-----5-----6---|-----------------6-------5---5-6-|
|-3-3---3-3---3-3---3-3---3-3---3-|-3-3---3-3---3-3---3-3-3---5-----|
|---------------------------------|---------------------------------|
|---------------------------------|---------------------------------|
|---------------------------------|---------------------------------|

Guitar 1
|---------------------------------|---------------------------------|
|---------------------------------|---------------------------------|
|---------------------------------|---------------------------------|
|---------------------------------|---------------------------------|
|---------------------------------|-------------------------3-3-3-3-|
|-0-0-0-0-0-0-0-0-0-0-0-0-0-0-0-0-|-0-0-0-0-2-2-2-2-3-3-3-3---------|

Guitar 2
|-----5---------------------------|---------------------------8---8---|
|-----------8-----6-----5-----6---|-10---10---8---8---6---6-----5---5-|
|-7-7---7-7---7-7---7-7---7-7---7-|----7----7---9---9---5---5---------|
|---------------------------------|-----------------------------------|
|---------------------------------|-----------------------------------|
|---------------------------------|-----------------------------------|


(Second time this is played Corey plays the below instead of the final
Box above)
Guitar 2
|-----------------------------------------------------12-13-15-|-17\---|
|-----------------------------------10-11-13-11-13-15----------|-------|
|--------------------7-9-10-9-10-12----------------------------|-------|
|-------5-7-8-7-8-10-------------------------------------------|-------|
|-5-7-8--------------------------------------------------------|-------|
|--------------------------------------------------------------|-------|

___________________________________________________________________________________


Breakdown 1
Guitar 1
|---------------------------------|---------------------------------|
|---------------------------------|---------------------------------|
|---------------------------------|---------------------------------|
|---------------------------------|---------------------------------|
|-5p0---------5p0---------8p0-5h7-|-5p0---------5p0---------8p0-5h7-|
|-----0-5h8-0-----0-5h8-0---------|-----0-5h8-0-----0-5h8-0---------|

Guitar 2
|---------------------------------|---------------------------------|
|---------------------------------|---------------------------------|
|---------------------------------|---------------------------------|
|---------------------------------|---------------------------------|
|---------------------------------|---------------------------------|
|---------------------------------|---------------------------------|

Guitar 1
|---------------------------------|---------------------------------|
|---------------------------------|---------------------------------|
|---------------------------------|---------------------------------|
|---------------------------------|---------------------------------|
|-5p0---------5p0---------8p0-5h7-|-5p0---------5p0-----------------|
|-----0-5h8-0-----0-5h8-0---------|-----0-5h8-0-----00000---00000---|

Guitar 2
|---------------------------------|---------------------------------|
|---------------------------------|---------------------------------|
|---------------------------------|---------------------------------|
|-0-------------------------------|---------------------------------|
|-0-------------------------------|---------------------------------|
|-0-------------------------------|-----------------00000---00000---|

Guitar 1
|---------------------------------|---------------------------------|
|---------------------------------|---------------------------------|
|---------------------------------|---------------------------------|
|---------------------------------|---------------------------------|
|-5p0---------5p0---------8p0-5h7-|-5p0---------5p0---------8p0-5h7-|
|-----0-5h8-0-----0-5h8-0---------|-----0-5h8-0-----0-5h8-0---------|

|---------------------------------|-------------------------------------|
|---------------------------------|-------------------------------------|
|---------------------------------|-----------------10-10-10-10-9-9-9-9-|
|---------------------------------|-------------------------------------|
|-5p0---------5p0---------8p0-5h7-|-5p0---------5p0--8--8--8--8-7-7-7-7-|
|-----0-5h8-0-----0-5h8-0---------|-----0-5h8-0-------------------------|

Guitar 2 (Harmony)
|-------------------------------------|-------------------------------------|
|-------------------------------------|-------------------------------------|
|-------------------------------------|-------------------------------------|
|-------------------------------------|-------------------------------------|
|-8p0----------8p0----------12p0-8h10-|-8p0----------8p0----------12p0-8h10-|
|-----0-8h12-0-----0-8h12-0-----------|-----0-8h12-0-----0-8h12-0-----------|

|-------------------------------------|------------------------------------------|
|-------------------------------------|------------------------------------------|
|-------------------------------------|------------------14-14-14-14-12-12-12-12-|
|-------------------------------------|------------------------------------------|
|-8p0----------8p0----------12p0-8h10-|-8p0----------8p0-12-12-12-12-10-10-10-10-|
|-----0-8h12-0-----0-8h12-0-----------|-----0-8h12-0-----------------------------|

___________________________________________________________________________________


Solo
Guitar 1 (Rhythm)
|---------------------------------|---------------------------------|
|---------------------------------|---------------------------------|
|-3-3-3-3-3-3-3-3-3-3-3-3-3-3-3-3-|-7-7-7-7-7-7-7-7-7-7-7-7-7-7-7-7-|
|-3-3-3-3-3-3-3-3-3-3-3-3-3-3-3-3-|-7-7-7-7-7-7-7-7-7-7-7-7-7-7-7-7-|
|-1-1-1-1-1-1-1-1-1-1-1-1-1-1-1-1-|-5-5-5-5-5-5-5-5-5-5-5-5-5-5-5-5-|
|---------------------------------|---------------------------------|

|-------------------------------------------------|
|-------------------------------------------------|
|-10-10-10-10-10-10-10-10-10-10-10-10-10-10-10-10-|
|-10-10-10-10-10-10-10-10-10-10-10-10-10-10-10-10-|
|--8--8--8--8--8--8--8--8--8--8--8--8--8--8--8--8-|
|-------------------------------------------------|

|---------------------------------|
|---------------------------------|
|-5-5-5-5-5-5-5-5-5-5-5-5-5-5-5-5-|
|-5-5-5-5-5-5-5-5-5-5-5-5-5-5-5-5-|
|-3-3-3-3-3-3-3-3-3-3-3-3-3-3-3-3-|
|---------------------------------|

Guitar 2 (Lead)
|-18p17------------------------------------------|
|-------18----------------15-------13------------|
|----------17\15-17-15\14----14\12------12-10-12-|
|------------------------------------------------|
|------------------------------------------------|
|------------------------------------------------|

|-10-------------------------------------------------------|
|----13-11-10-10h11p10-------------------------------------|
|----------------------12-10-12BU(14)---10h12p10-----------|
|------------------------------------------------12--------|
|----------------------------------------------------------|
|----------------------------------------------------------|

|--------------------------------------------|
|--------------------------------------------|
|-----12---10---9h10p9----------9-10-12-10-9-|
|----------------------12-10-12--------------|
|-8-8----8----8------------------------------|
|--------------------------------------------|

Guitar 2
|--------------------------------------|
|--------------------------------------|
|-/17-----15-----14---12---------------|
|--------------------------------------|
|--------------------------------------|
|--------------------------------------|
|
|Guitar 3
|--------------------------------------|
|--------------------------------------|
|-/14-----12-----10---9----------------|
|--------------------------------------|
|--------------------------------------|
|--------------------------------------|

Guitar 2
|-----------------------------------------------|
|-----------------------------------------------|
|-9h10p9---------------9-9h10p9---------------9-|
|--------12-10-8-10-12----------12-10-8-10-12---|
|-----------------------------------------------|
|-----------------------------------------------|
|
|Guitar 3
|-------------------------------------------|
|-8h10p8-------------8-8h10p8-------------8-|
|--------10-9-7-9-10----------10-9-7-9-10---|
|-------------------------------------------|
|-------------------------------------------|
|-------------------------------------------|

Guitar 2
|---------------------------------------|
|-10\6-6\3-3/6-6/17-17\13-13/17-17/18---|
|---------------------------------------|
|---------------------------------------|
|---------------------------------------|
|---------------------------------------|
|
|Guitar 3
|-8\5-5\1-1/5-5/15-15\12-12/15-15/17---|
|--------------------------------------|
|--------------------------------------|
|--------------------------------------|
|--------------------------------------|
|--------------------------------------|

Guitar 2
|-20-------20-------20-------20-------20---------|
|----18-17----18-17----18-17----18-17----18-17---|
|------------------------------------------------|
|------------------------------------------------|
|------------------------------------------------|
|------------------------------------------------|

|-20-18-17---------------------------------------------------------------|------|
|----------20-18-17-18-17-15---------------------------------------------|------|
|----------------------------17-15-14-15-14-12---------------------------|------|
|----------------------------------------------15-14-12-14-12-10---------|------|
|----------------------------------------------------------------12-10-8-|-12\--|
|------------------------------------------------------------------------|------|

___________________________________________________________________________________


Breakdown 2
Guitar 1
|---------------------------------|---------------------------------|
|---------------------------------|---------------------------------|
|---------------------------------|---------------------------------|
|---------------------------------|---------------------------------|
|-5p0---------5p0---------8p0-5h7-|-5p0---------5p0---------8p0-5h7-|
|-----0-5h8-0-----0-5h8-0---------|-----0-5h8-0-----0-5h8-0---------|

Guitar 2
|---------------------------------|---------------------------------|
|---------------------------------|---------------------------------|
|---------------------------------|---------------------------------|
|---------------------------------|---------------------------------|
|-0---------------0---0---0---0---|-0---------------0---0---0---0---|
|-0-----------00000---0---0---0---|-0-----------00000---0---0---0---|

Guitar 1
|---------------------------------|-------------------------------------|
|---------------------------------|-------------------------------------|
|---------------------------------|-----------------10-10-10-10-9-9-9-9-|
|---------------------------------|-------------------------------------|
|-5p0---------5p0---------8p0-5h7-|-5p0---------5p0--8--8--8--8-7-7-7-7-|
|-----0-5h8-0-----0-5h8-0---------|-----0-5h8-0-------------------------|

Guitar 2
|---------------------------------|-----------------------------------------|
|---------------------------------|-----------------------------------------|
|---------------------------------|-----------------14-14-14-14-12-12-12-12-|
|---------------------------------|-----------------------------------------|
|-0---------------0---0---0---0---|-0---------------12-12-12-12-10-10-10-10-|
|-0-----------00000---0---0---0---|-0-----------0000------------------------|

___________________________________________________________________________________


Duel Solo
Guitar 1
|---------|---------|----------|---------|
|---------|---------|----------|---------|
|-3-------|-7-------|-10-------|-5-------|
|-3-------|-7-------|-10-------|-5-------|
|-1-------|-5-------|--8-------|-3-------|
|---------|---------|----------|---------|

Guitar 2
|---------------------------------------|
|---------------------------------------|
|-/10----------------10-----12-----14---| x3
|---------------10----------------------|
|---------------------------------------|
|---------------------------------------|
|
|Guitar 3
|---------------------------------------|
|-/10----------------10-----11-----13---|
|---------------10----------------------| x3
|---------------------------------------|
|---------------------------------------|
|---------------------------------------|

Guitar 2
|--------------------------------------|
|--------------------------------------|
|-/9-----------10----------------------|
|-------------------10-----------------|
|--------------------------------------|
|--------------------------------------|
|
|Guitar 3
|---------------------------------------|
|-/8-----------10-----------------------|
|--------------------9------------------|
|---------------------------------------|
|---------------------------------------|
|---------------------------------------|

Guitar 2
|---------------------------------------|
|---------------------------------------|
|-/10----------------10-----12-----14---|
|---------------10----------------------|
|---------------------------------------|
|---------------------------------------|
|
|Guitar 3
|---------------------------------------|
|-/10----------------10-----11-----13---|
|---------------10----------------------|
|---------------------------------------|
|---------------------------------------|
|---------------------------------------|

Guitar 2
|------------------------13p10----10-------------------------|
|-13BU(15)---------------------13----13p10-13p10----10-------|
|------------------------------------------------12----12p10-|
|------------------------------------------------------------|
|------------------------------------------------------------|
|------------------------------------------------------------|
|
|Guitar 3
|-12BU(13)---------------17p13----13-------------------------|
|------------------------------17----17p13-17p13\11-13p11\10-|
|------------------------------------------------------------|
|------------------------------------------------------------|
|------------------------------------------------------------|
|------------------------------------------------------------|

Guitar 2
|-------------------------------------------------------------------------|
|-------------------------------------------------------------------------|
|-12-10-------12-10-12-10-------12-10-12-10-------12-10-12-10-------12-10-|
|-------12-10-------------12-10-------------12-10-------------12-10-------|
|-------------------------------------------------------------------------|
|-------------------------------------------------------------------------|
|
|Guitar 3
|-------------------------------------------------------------------------|
|-11-10-------11-10-11-10-------11-10-11-10-------11-10-11-10-------11-10-|
|-------12-10-------------12-10-------------12-10-------------12-10-------|
|-------------------------------------------------------------------------|
|-------------------------------------------------------------------------|
|-------------------------------------------------------------------------|

Guitar 2
|---------------------------|------------------|
|-13BU(15)-----------(13)---|-13---------------|
|---------------------------|------------------|
|---------------------------|------------------|
|---------------------------|------------------|
|---------------------------|------------------|
|
|Guitar 3
|-12BU(13)-----------(12)---|-12---------------|
|---------------------------|------------------|
|---------------------------|------------------|
|---------------------------|------------------|
|---------------------------|------------------|
|---------------------------|------------------|

___________________________________________________________________________________


Repeat Breakdown 2


Repeat Chorus
(Different strumming pattern at the start but easy to figure out)


Repeat Verse 3 (Without the small solo at the end)

___________________________________________________________________________________


Verse 4
Both guitars
|---------------------------------|---------------------------------|
|---------------------------------|---------------------------------|
|-3-3-3-3-3-3-3-3-3-3-3-3-3-3-3-3-|-3-3-3-3-3-3-3-3-5-5-5-5-5-5-5-5-|
|-3-3-3-3-3-3-3-3-3-3-3-3-3-3-3-3-|-3-3-3-3-3-3-3-3-5-5-5-5-5-5-5-5-|
|-1-1-1-1-1-1-1-1-1-1-1-1-1-1-1-1-|-1-1-1-1-1-1-1-1-3-3-3-3-3-3-3-3-|
|---------------------------------|---------------------------------|

|---------------------------------|---------------------------------|
|---------------------------------|---------------------------------|
|-7-7-7-7-7-7-7-7-7-7-7-7-7-7-7-7-|---------------------------------|
|-7-7-7-7-7-7-7-7-7-7-7-7-7-7-7-7-|---------------------------------|
|-5-5-5-5-5-5-5-5-5-5-5-5-5-5-5-5-|-------------------------3-3-3-3-|
|---------------------------------|-0-0-0-0-2-2-2-2-3-3-3-3---------|

___________________________________________________________________________________


Final harmony verse
Guitar 1
||---------------------------------|---------------------------------|
|o-6-----6-----6---5-----5-----5---|-3-----3-----3-------------------|
||---3-3---3-3---3---3-3---3-3---3-|---3-3---3-3---3-5-3-----------3-|
||---------------------------------|---------------------7-5-3-5-7---|
|o---------------------------------|---------------------------------|
||---------------------------------|---------------------------------|
|
|Guitar 2
||-5-----5-----5---3-----3-----3---|---------------------------------|
|o---------------------------------|-6-----6-----6---5-3-----------3-|
||---3-3---3-3---3---3-3---3-3---3-|---3-3---3-3---3-----5-3-2-3-5---|
||---------------------------------|---------------------------------|
|o---------------------------------|---------------------------------|
||---------------------------------|---------------------------------|

Guitar 1
|---------------------------------|---------------------------------|
|-6-----6-----6---5-----5-----5---|-3-----3-----3-------------------|
|---------------------------------|-----------------5-3-----------3-|
|---0-0---0-0---0---0-0---0-0---0-|---0-0---0-0---0-----7-5-3-5-7---|
|---------------------------------|---------------------------------|
|---------------------------------|---------------------------------|
|
|Guitar 2
|-5-----5----5--------------------|---------------------------------|
|-----------------8-----8-----8---|-6-----6-----6---5-3-----------3-|
|---7-7---7-7---7---7-7---7-7---7-|---7-7---7-7---7-----5-3-2-3-5---|
|---------------------------------|---------------------------------|
|---------------------------------|---------------------------------|
|---------------------------------|---------------------------------|

Guitar 1
|---------------------------------|---------------------------------||
|-6-----6-----6---5-----5-----5---|-3-----3-----3-------------------o|
|---3-3---3-3---3---3-3---3-3---3-|---3-3---3-3---3-5-3-----------3-||
|---------------------------------|---------------------7-5-3-5-7---||
|---------------------------------|---------------------------------o|
|---------------------------------|---------------------------------||
|
|Guitar 2
|-5-----5-----5---3-----3-----3---|---------------------------------||
|---------------------------------|-6-----6-----6---5-3-----------3-o|
|---3-3---3-3---3---3-3---3-3---3-|---3-3---3-3---3-----5-3-2-3-5---||
|---------------------------------|---------------------------------||
|---------------------------------|---------------------------------o|
|---------------------------------|---------------------------------||

First ending
Guitar 1
|---------------------------------|---------------------------------|
|-6-----6-----6---5-----5-----5---|-3-----3-----3-----------6---5---|
|---------------------------------|-----------------5-3---3---------|
|---0-0---0-0---0---0-0---0-0---0-|---0-0---0-0---0-----7-----------|
|---------------------------------|---------------------------------|
|---------------------------------|---------------------------------|
|
|Guitar 2
|-5-----5----5--------------------|-------------------------5---3---|
|-----------------8-----8-----8---|-6-----6-----6---5-3---3---------|
|---7-7---7-7---7---7-7---7-7---7-|---7-7---7-7---7-----5-----------|
|---------------------------------|---------------------------------|
|---------------------------------|---------------------------------|
|---------------------------------|---------------------------------|

Second ending
Guitar 1
|---------------------------------|-5---6---5---3-------------------|
|-6-----6-----6---5-----5-----5---|---------------------------------|
|---------------------------------|---------------------------------|
|---0-0---0-0---0---0-0---0-0---0-|-----------------5---7-----------|
|---------------------------------|---------------------------------|
|---------------------------------|---------------------------------|
|
|Guitar 2
|-5-----5----5--------------------|-1---3---1---0-------------------|
|-----------------8-----8-----8---|---------------------------------|
|---7-7---7-7---7---7-7---7-7---7-|---------------------------------|
|---------------------------------|-----------------2---3-----------|
|---------------------------------|---------------------------------|
|---------------------------------|---------------------------------|

___________________________________________________________________________________


That's all guys, please rate :)
comments
print report bad tab
6 comments total. Showing first comments.
+1 reply
lespaulfreak123 wrote on June 21 2012, 12:27 pm

It looks good from what ive seen! keep the tabs comming!

+1 reply
samueltownson wrote on October 18 2012, 06:35 pm

The second solo is actually played by Guitar 1 (Matt). But, it's no big deal. Just thought I'd let ya know. :) Great tab! \m/

+1 reply
Ibanez706 wrote on December 29 2012, 02:05 pm

Excellent! Job well done.

I want to post or [tab]
guest
You may want to rate the tab now too:
select rating
Please do not post tabs as comments. Select "correction" instead!