Oops, an error
Loading. Please wait.

In Waves Tab

ver1
ver1

Album

Whole song

More versions @911Tabs.com
24,635 views 164 this week
5 commentsread comments
1 2 3 4 5
excellent!
x 16
Autoscroll
+/-
esc
set tempo
stop
Contributor
Difficulty
Tuning
advanced
C# G# C# F# A# D#
Hey! There's an official Ultimate Guitar app which is ideal
for learning songs when you're away from computer. Get the app
WARNING: You are trying to view
                                    content from Ultimate-Guitar.com
                                    in an unauthorized application,
                                    which is prohibited.

                                    Please use an official Ultimate
                                    Guitar Tabs application for iPhone,
                                    iPad or Android to access legitimate
                                    chords, guitar, bass, and drum tabs
                                    from Ultimate-Guitar.com database.

                                    Type "ultimate guitar tabs" in Apple
                                    App Store's or Android Market's
                                    search to find the application.
Band:      Trivium
Album:     In Waves (2011)
Song list: 1) Capsizing The Sea
           2) In Waves
           3) Inception Of The End
           4) Dusk Dismantled
           5) Watch The World Burn
           6) Black
           7) A Skyline's Severance
           8) Ensnare The Sun (Bonus Track)
           9) Built To Fall
          10) Caustic Are The Ties That Bind
          11) Forsake Not The Dream
          12) Drowning In Slow Motion (Bonus Track)
          13) A Grey So Dark (Bonus Track)
          14) Chaos Reigns
          15) All Of These Yesterdays
          16) Leaving This World Behind
          17) Shattering The Skies Above (Bonus Track)
          18) Slave New World (Bonus Track)

Tunings:  Tracks 1-16 
          (Drop C#)
          (C#, G#, C#, F#, A#, D#)
          (Tune all strings down half a step then drop tune)

          Tracks 17-18
          (Drop D)
          (D, A, D, G, B, E)
          (Tune the Low E String down one step)


THIS IS THE FULL SPECIAL EDITION IN WAVES!!!
It has taken me from June 16th 2011 till June 20th 2012 to complete every track on this album.
The majoraty of the songs this album are rated 5 stars and were all tabbed by me.

I DO NOT OWN THIS, ALL RIGHTS BELONG TO TRIVIUM ALONG WITH ROADRUNNER RECORDS

Anyways, this album in it's entirety took me a very long time so I urge, if you like this album or
even view this album please rate. This is at least 99% of the album and almost 100% correct so
Again, PLEASE RATE!!! :)



Hammer on:                h
Pull off:                 p
Slide up:                 /
Slide down:               \
Bend up:                  BU(?)
Palm Mute:                PM
Tapped note:              T
Tremelo Pick:             TR---
Trill:                    tr
Vibrato:                  ~~~
Pinch Harmonic:           PH
Natural Harmonic:         NH
Dive Bomb:                DB
whammy bar pitch lowered: WBL



CAPSIZING THE SEA


Palm Mute: PM
Pull Off:  p

This part is played on a Piano so I’ve broke it up into two sections

Part 1 (Piano)
Right Hand Notes/keys
|--------------------------------------|------------------------------------|
|--------------------------------------|------------------------------------|
|-12-------11----------------12---11---|-14-------12-------10-------9-------|
|--------------------------------------|------------------------------------|
|--------------------------------------|------------------------------------|
|--------------------------------------|------------------------------------|

Left Hand Notes/keys
|--------------------------------------|------------------------------------|
|--------------------------------------|------------------------------------|
|--------------------------------------|------------------------------------|
|--------------------------------------|------------------------------------|
|--------------------------------------|------------------------------------|
|-0------------------------------------|-8-----------------5----------------|

Right Hand Notes/keys
|--------------------------------------|-------------------13-------12------|
|--------------------------------------|------------------------------------|
|-12-------11----------------12---11---|-14-------12------------------------|
|--------------------------------------|------------------------------------|
|--------------------------------------|------------------------------------|
|--------------------------------------|------------------------------------|

Left Hand Notes/keys
|--------------------------------------|------------------------------------|
|--------------------------------------|------------------------------------|
|--------------------------------------|------------------------------------|
|--------------------------------------|------------------------------------|
|--------------------------------------|------------------------------------|
|-0------------------------------------|-8-----------------5----------------|

Part 2 (Guitar)
The Intro/Breakdown begins to be played
          PM-----------------------------------------|
|------------------------|-----------------------------|
|------------------------|-----------------------------|
|------------------------|-----------------------------|
|------------------------|-----------------------------|
|------------------------|-----------------------------|
|--15p0---0---0-0-0----0-|---0-0---0----0-0---0-0---0--|

          PM-----------------------|
|------------------------|-----------------------------|
|------------------------|-----------------------------|
|------------------------|-----------------------------|
|------------------------|-----------------------------|
|------------------------|-------------3-3-3-3-3-3-3-3-|
|--15p0---0---0-0-0----0-|---0-0---0-------------------|

          PM-----------------------------------------|
|------------------------|-----------------------------|
|------------------------|-----------------------------|
|------------------------|-----------------------------|
|------------------------|-----------------------------|
|------------------------|-----------------------------|
|--15p0---0---0-0-0----0-|---0-0---0----0-0---0-0---0--|

          PM-----------------------|
|------------------------|---------------------------|
|------------------------|---------------------------|
|------------------------|---------------------------|
|------------------------|---------------------------|
|------------------------|---------------3-3-3-3-3-3-|
|--15p0---0---0-0-0----0-|---0-0---0-----------------|

Part 3 (Guitar)
The Pre-solo Verse enters
|-------------------------------------------------|
|-------------------------------------------------|
|-12-12-12-12-11-11-11-11-11-11-11-11-12-12-11-11-|
|-------------------------------------------------|
|-10-10-10-10--9--9--9--9--9--9--9--9-10-10--9--9-|
|-------------------------------------------------|

|---------------------------------------------|
|---------------------------------------------|
|-14-14-14-14-12-12-12-12-10-10-10-10-9-9-9-9-|
|---------------------------------------------|
|-12-12-12-12-10-10-10-10--8--8--8--8-7-7-7-7-|
|---------------------------------------------|

Part 4 (Guitar)
This Part is played until the end after the Piano and other guitars stop
|-6-6p5-6-6p5-6-6p5-6-6p5-6-6p5-|
|-------------------------------|
|-------------------------------|
|-------------------------------|
|-------------------------------|
|-------------------------------|

That’s all guys, Enjoy and please rate :)


IN WAVES


Hammer on:  h
Pull off:   p
Slide up:   /
Slide down: \
Vibrato:    ~~~
Palm mute:  PM
Bend up:    BU(?)

Intro/Verse
 “In waves!”  PM-----------------------------------------------|
||--|------------------------|---------------------------------|
||--|------------------------|---------------------------------|
||--|------------------------|---------------------------------|
||--|------------------------|---------------------------------|
||--|------------------------|---------------------------------|
||--|--15p0---0---0-0-0----0-|---0-0---0----0-0---0-0---0------|

          PM----------------------------------------------------|
|------------------------|--------------------------------------|
|------------------------|--------------------------------------|
|------------------------|--------------------------------------|
|------------------------|--------------------------------------|
|------------------------|--------------------------------------|
|--15p0---0---0-0-0----0-|---0-0---0--10-10-10-10-10-10-10-10---|

          PM-----------------------------------------------|
|------------------------|---------------------------------|
|------------------------|---------------------------------|
|------------------------|---------------------------------|
|------------------------|---------------------------------|
|------------------------|---------------------------------|
|--15p0---0---0-0-0----0-|---0-0---0----0-0---0-0---0------|

          PM-------------------------------------------------|
|------------------------|-----------------------------------|
|------------------------|-----------------------------------|
|------------------------|-----------------------------------|
|------------------------|-----------------------------------|
|------------------------|-----------------------------------|
|--15p0---0---0-0-0----0-|---0-0---0-----10-10-10-10-10-10---|

          PM-----------------------------------------------|
|------------------------|---------------------------------|
|------------------------|---------------------------------|
|------------------------|---------------------------------|
|------------------------|---------------------------------|
|------------------------|---------------------------------|
|--15p0---0---0-0-0----0-|---0-0---0----0-0---0-0---0------|

          PM----------------------------------------------------|
|------------------------|--------------------------------------|
|------------------------|--------------------------------------|
|------------------------|--------------------------------------|
|------------------------|--------------------------------------|
|------------------------|--------------------------------------|
|--15p0---0---0-0-0----0-|---0-0---0--10-10-10-10-10-10-10-10---|

          PM-----------------------------------------------|
|------------------------|---------------------------------|
|------------------------|---------------------------------|
|------------------------|---------------------------------|
|------------------------|---------------------------------|
|------------------------|---------------------------------|
|--15p0---0---0-0-0----0-|---0-0---0----0-0---0-0---0------|

         PM-------|  |-Drum fill--------------------------------|
|------------------------|--------------------------------------|
|------------------------|--------------------------------------|
|------------------------|--------------------------------------|
|------------------------|--------------------------------------|
|------------------------|--------------------------------------|
|--15p0---0---0-0-0------|------------10-10-10-10-10-10-10-10---|


Chorus

Matt (Rhythm)
|---------------------------------|---------------------------------|
|---------------------------------|---------------------------------|
|---------------------------------|---------------------------------|
|---------------------------------|---------------------------------|
|-0-0-0-0-0-0-0-0-0-0-0-0-0-0-0-0-|-3-3-3-3-3-3-3-3-3-3-3-3-3-3-3-3-|
|-0-0-0-0-0-0-0-0-0-0-0-0-0-0-0-0-|-3-3-3-3-3-3-3-3-3-3-3-3-3-3-3-3-|

|---------------------------------|---------------------------------|
|---------------------------------|---------------------------------|
|---------------------------------|---------------------------------|
|---------------------------------|---------------------------------|
|-8-8-8-8-8-8-8-8-8-8-8-8-8-8-8-8-|-7-7-7-7-7-7-7-7-7-7-7-7-7-7-7-7-|
|-8-8-8-8-8-8-8-8-8-8-8-8-8-8-8-8-|-7-7-7-7-7-7-7-7-7-7-7-7-7-7-7-7-|

Corey (Lead)

|-5-----0-----8---|---0-----5-----0-|
|---6-----6-----6-|-----6-----6-----|
|-----7-----7-----|-7-----7-----7---|
|-----------------|-----------------|
|-----------------|-----------------|
|-----------------|-----------------|

|-5-----0-----8---|---0-----5-----0-|
|---6-----6-----6-|-----6-----6-----|
|-----5-----5-----|-5-----5-----5---|
|-----------------|-----------------|
|-----------------|-----------------|
|-----------------|-----------------|

|-6-----0-----8---|---0-----6-----0-|
|---6-----6-----6-|-----6-----6-----|
|-----7-----7-----|-7-----7-----7---|
|-----------------|-----------------|
|-----------------|-----------------|
|-----------------|-----------------|

|-5-----5-----5---|-5-----5-----5---|
|---6-----6-----6-|---6-----6-----6-|
|-----7-----7-----|-----7-----7-----|
|-----------------|-----------------|
|-----------------|-----------------|
|-----------------|-----------------|

Interlude
(Quite riff after first Chorus)
|-5-5-5-0-0-0-8-8-|-8-0-0-0-5-5-0-0-|
|-6-6-6-6-6-6-6-6-|-6-6-6-6-6-6-6-6-|
|-7-7-7-7-7-7-7-7-|-7-7-7-7-7-7-7-7-|
|-----------------|-----------------|
|-----------------|-----------------|
|-----------------|-----------------|

Repeat Intro/Verse

Repeat Chorus x2

Pre-solo Verse

Matt
   PM------------------------------------|
||---------------------------------------|
||---------------------------------------|
||---------------------------------------|
||---------------------------------------|
||-------------0-0-0-0-0-0-0-0-0-0-0-0---|
||-0-0-0---0-0-0-0-0-0-0-0-0-0-0-0-0-0---|

|---------------------------------|
|---------------------------------|
|---------------------------------|
|---------------------------------|
|-8-8-8-8-8-8-8-8-5-5-5-5-5-5-5-5-|
|-8-8-8-8-8-8-8-8-5-5-5-5-5-5-5-5-|

|---------------------------------|
|---------------------------------|
|---------------------------------|
|---------------------------------|
|-0-0-0-0-0-0-0-0-0-0-0-0-0-0-0-0-|
|-0-0-0-0-0-0-0-0-0-0-0-0-0-0-0-0-|

|----------------------------------||
|---------------------------------o||
|----------------------------------||
|----------------------------------||
|-8-8-8-8-8-8-8-8-5-5-5-5-5-5-5-5-o||
|-8-8-8-8-8-8-8-8-5-5-5-5-5-5-5-5--||

Corey
   PM-------------------------------------------------|
||----------------------------------------------------|
||----------------------------------------------------|
||--------------11-11-11-11-11-11-11-11-12-12-11-11---|
||----------------------------------------------------|
||---------------9--9--9--9--9--9--9--9-10-10--9--9---|
||-0-0-0---0-0----------------------------------------|

|---------------------------------------------|
|---------------------------------------------|
|-14-14-14-14-12-12-12-12-10-10-10-10-9-9-9-9-|
|---------------------------------------------|
|-12-12-12-12-10-10-10-10--8--8--8--8-7-7-7-7-|
|---------------------------------------------|

|-------------------------------------------------|
|-------------------------------------------------|
|-12-12-12-12-11-11-11-11-11-11-11-11-12-12-11-11-|
|-------------------------------------------------|
|-10-10-10-10--9--9--9--9--9--9--9--9-10-10--9--9-|
|-------------------------------------------------|

|----------------------------------------------||
|---------------------------------------------o||
|-14-14-14-14-12-12-12-12-10-10-10-10-9-9-9-9--||
|----------------------------------------------||
|-12-12-12-12-10-10-10-10--8--8--8--8-7-7-7-7-o||
|----------------------------------------------||

Solo 1

|---------------------------|------------------|
|---------------------------|------------------|
|---------------------------|-------8~~~~~~----|
|---5--4--5~~~---7--5--7~~~-|-8--7-------------|
|---------------------------|------------------|
|---------------------------|------------------|

|---------------------------|------------------|
|---------------------------|------------------|
|---------------------------|-------5~~~~~~----|
|---5--4--5~~~---7--5--7~~~-|-8--7-------------|
|---------------------------|------------------|
|---------------------------|------------------|

|---------------------------|------------------|
|---------------------------|------------------|
|---------------------------|--7-5h7p5-------5-|
|---5--4--5~~~---7--5--7~~~-|----------8-7-8---|
|---------------------------|------------------|
|---------------------------|------------------|

|------------------------|-------------|
|------------------------|-------------|
|-7/12~~~~~~~~~-10--8--7h|-8p7---------|
|------------------------|-----10-8-10-|
|------------------------|-------------|
|------------------------|-------------|

|-----------------------|------------------------|
|-----------------------|------------------------|
|-5h7h8-7~~--7h8h10-8~~-|---12-12-12-12-11-11~~~-|
|-----------------------|------------------------|
|-----------------------|------------------------|
|-----------------------|------------------------|

|-----------------------|------------------------|
|-----------------------|---11-11-11-11-10-10~~~-|
|-5h7h8-7~~--7h8h10-8~~-|------------------------|
|-----------------------|------------------------|
|-----------------------|------------------------|
|-----------------------|------------------------|

|-17h18p17h18p17----17h18p17h18p17----17h18p17h18p17--|
|-----------------------------------------------------|
|-----------------------------------------------------|
|-----------------------------------------------------|
|-----------------------------------------------------|
|-----------------------------------------------------|

|-17h18p17h18p17h18p17h18p17h18p17h18p17h18--|
|--------------------------------------------|
|--------------------------------------------|
|--------------------------------------------|
|--------------------------------------------|
|--------------------------------------------|

|-------------------17BU(18)(17)-|-15-------------------|
|-18BU(20)~~~~~~~----------------|----18-16-15----15~~~-|
|--------------------------------|-------------17-------|
|--------------------------------|----------------------|
|--------------------------------|----------------------|
|--------------------------------|----------------------|

Repeat Pre-solo Verse

Solo 2

                                  PM--|
|------------------|---------------------|
|------------------|---------------------|
|-7------8------11-|---11~~~--11---------|
|------0------0----|--------------0-0-0--|
|------------------|---------------------|
|------------------|---------------------|

|------------------|------------------------|
|------------------|------------------------|
|-11-----12-----14-|-14h15p14\12-11-12-11-8-|
|------------------|------------------------|
|------------------|------------------------|
|------------------|------------------------|

|------------------|---------------------|
|------------------|---------------------|
|--7------8------5-|----7------2---------|
|------------------|---------------------|
|------------------|---------------------|
|------------------|---------------------|

|------------------------------|---------------------------------|
|----------------------13------|--13---13---13---13---16~~~~~~~~-|
|----------------------15BU(17)|-(17)-(17)-(17)-(17)--18BU(20)~~-|
|--7--8-7h8p7p5\4-5------------|---------------------------------|
|------------------------------|---------------------------------|
|------------------------------|---------------------------------|

|-----------------------------------|-------------------------------|
|-15~~~~~~~~~-----15-19-19BU(20)~~~-|--19-15-19BU(20)(19)~~~--15-13-|
|-17BU(19)~~~-----------------------|-------------------------------|
|-----------------------------------|-------------------------------|
|-----------------------------------|-------------------------------|
|-----------------------------------|-------------------------------|

|----------------------------|-------------------------------------------|
|-13--BU--(15)--(13)---10~~~-|-11-10----10-------------------------------|
|----------------------------|-------12----12-11-12-11----11-------------|
|----------------------------|-------------------------13----13-12-13~~~-|
|----------------------------|-------------------------------------------|
|----------------------------|-------------------------------------------|

                                          Tr--------------------|
|---------------------------------------|-----------------------|
|---------------------------------------|-----------------------|
|---------------------------------------|-----------------------|
|-12-0-0-13-0-0-16-0-0-13-0-0-16-0-17-0-|-20---19---17---16-----|
|---------------------------------------|-----------------------|
|---------------------------------------|-----------------------|

  Tr------------------------------------------|
|---------------------|-----------------------|
|---------------------|-----------------------|
|---------------------|-----------------------|
|-20----------19------|-17----------13--------|
|---------------------|-----------------------|
|---------------------|-----------------------|

Solo Rhythm

  PM-----------------------------------|
|------------------|--------------------|
|------------------|--------------------|
|------------------|--------------------|
|------------------|-4--5---------------|
|-0-0-0-0---00-0-0-|-------6-----5~~~---|
|-0-0-0-0---00-0-0-|--------------------|

  PM-----------------------------------|
|------------------|--------------------|
|------------------|--------------------|
|------------------|--------------------|
|------------------|-4--5---------------|
|-0-0-0-0---00-0-0-|-------6--3BU(5)~~~-|
|-0-0-0-0---00-0-0-|--------------------|

  PM-----------------------------------|
|------------------|--------------------|
|------------------|--------------------|
|------------------|--------------------|
|------------------|-4--5---------------|
|-0-0-0-0---00-0-0-|-------6-----5~~~---|
|-0-0-0-0---00-0-0-|--------------------|

  PM--|      PM--|
|------------------|--------------|
|------------------|--------------|
|-------7----------|--------------|
|-------5----------|-8------------|
|-5-5-5-5----5-8-8-|-8------------|
|-5-5-5-5----5-8-8-|-8------------|


Repeat Intro/Verse

Repeat only Chorus Rhythm x2

Interlude

Repeat Chorus with Lead

Outro

Lead
||---------|---------|---------|----------||
||---------|---------|---------|---------o||
||----10-9-|----10-9-|----10-9-|----10-9--||
||-12------|-10------|-12------|-12-------||
||---------|---------|---------|---------o||
||---------|---------|---------|----------||

Rhythm (Top)
Bass (Bottom)
              PM-----------------------------------------|
||-----------------------|-------------------------------|
||-----------------------|-------------------------------|
||--2--2--2--------------|-------------------------------|
||--0--0--0--------------|-------------------------------|
||--0--0--0--------------|-------------------------------|
||--0--0--0---0-0-0----0-|---0-0---0----0-0---0-0---0----|

              PM-----------------------------------------|
||-----------------------|-------------------------------|
||-----------------------|-------------------------------|
||--5--5--5--------------|-------------------------------|
||--3--3--3--------------|-------------------------------|
||--3--3--3--------------|-------------------------------|
||--3--3--3---3-3-3----3-|---3-3---3----3-3---3-3---3----|

              PM-----------------------------------------|
||-----------------------|-------------------------------|
||-----------------------|-------------------------------|
||-10-10-10--------------|-------------------------------|
||--8--8--8--------------|-------------------------------|
||--8--8--8--------------|-------------------------------|
||--8--8--8---8-8-8----8-|---8-8---8----8-8---8-8---8----|

||------------------------|----------------------------||
||------------------------|----------------------------o|
||------------------------|----------------------------||
||-----------11-----------|-------------14-------------||
||------7-12----12-7------|-------12-16----16-12-------o|
||-7-11--------------11-7-|-11-14----------------14-11-||


Guitar 1
  PM--------|
|-------------------------|
|-------------------------|
|-------------------------|
|-------------0~~~~~~~~---|
|-------------0~~~~~~~~---|
|-0-0-0---0-0-0~~~~~~~~---|

Guitar 2
  PM--------|
|-------------------------|
|-------------------------|
|------------11~~~~~~~~---|
|-------------------------|
|-------------9~~~~~~~~---|
|-0-0-0---0-0-0~~~~~~~~---|

Song in Order:
Intro/Verse
Chorus
Interlude
Intro/Verse
Chorus x2
Pre-solo Verse
Solo 1
Pre-solo Verse
Solo 2
Chorus Build up (Rhythm guitar only) x2
Interlude
Chorus x2
Outro
Chorus x2
Outro


INCEPTION OF THE END


Hammer on:    h
Pull off:     p
Slide up:     /
Slide down:   \
Vibrato:      ~~~
Palm mute:    PM
String mute:  M
Bend up:      BU(?)
Tremolo pick: Tr---

Guitar 1: Matt Heafy
Guitar 2: Corey Beaulieu


Intro
Both guitars

|-------|
|-------|
|-------|
|-------|
|-12\---|
|-12\---|

Guitar 1
    PM-   PM-
|-------------------------|-------------------------|
|-------------------------|-------------------------|
|-------------------------|-------------------------|
|-------------------------|-------------------------|
|-5-----8-----------7-----|-------------4p0h4h7p4p0-|
|---0-0---0-0-0h5h8---8p5-|-3p0h3h7p3p0-------------|

Guitar 2
|-------------------------|-------------------------|
|-------------------------|-------------------------|
|-------------------------|-------------------------|
|-0-----------------------|-------------------------|
|-0-----------------------|-------------4p0h4h7p4p0-|
|-0-----------------------|-------------------------|

Guitar 1
    PM-   PM-
|-------------------------|-------------------------|
|-------------------------|-------------------------|
|-------------------------|-------------------------|
|-------------------------|-------------------------|
|-5-----8-----------------|-------------4p0h4h7~~~--|
|---0-0---0-0-0h5p8---8p5-|-3p0h3h7p3p0-------------|

Guitar 2
|-------------------------|-------------------------|
|-------------------------|-------------------------|
|-------------------------|-------------------------|
|-0-M---------------------|-------------------------|
|-0-M---------------------|-------------4p0h4h7~~~--|
|-0-M---------------------|-------------------------|

Guitar 1
    PM-   PM-
|-------------------------|-------------------------|
|-------------------------|-------------------------|
|-------------------------|-------------------------|
|-------------------------|-------------------------|
|-5-----8-----------7-----|-------------4p0h4h7p4p0-|
|---0-0---0-0-0h5h8---8p5-|-3p0h3h7p3p0-------------|

Guitar 2
  PM-----       PM---       PM-----------------
|-------------------------|-------------------------|
|-------------------------|-------------------------|
|-------------------------|-------------------------|
|-------------------------|-------------------------|
|-------------------------|-------------------------|
|-0-0-0-0-------0-0-0-----|-0-0-0-0-0-0-0-0-0-0-----|
|-0-0-0-0-------0-0-0-----|-0-0-0-0-0-0-0-0-0-0-----|

Both Guitars
  PM-----       PM---       PM---------------
|-------------------------|-------------------------|
|-------------------------|-------------------------|
|-------------------------|-------------------------|
|-------------------------|-------------------------|
|-------------------------|-------------------------|
|-0-0-0-0-------0-0-0-----|-0-0-0-0-0-0-0-0-0-12\---|
|-0-0-0-0-------0-0-0-----|-0-0-0-0-0-0-0-0-0-12\---|

Verse 1
Both Guitars
    PM-   PM-
|-------------------------|-------------------------|
|-------------------------|-------------------------|
|-------------------------|-------------------------|
|-------------------------|-------------------------|
|-5-----8-----------7-----|-------------4p0h4h7p4p0-|
|---0-0---0-0-0h5h8---8p5-|-3p0h3h7p3p0-------------|

    PM-   PM-
|-------------------------|-------------------------|
|-------------------------|-------------------------|
|-------------------------|-------------------------|
|-------------------------|-------------------------|
|-5-----8-----------------|-------------4p0h4h7~~~--|
|---0-0---0-0-0h5p8---8p5-|-3p0h3h7p3p0-------------|

Guitar 1 
    PM-   PM-
|-------------------------|-------------------------|
|-------------------------|-------------------------|
|-------------------------|-------------------------|
|-------------------------|-------------------------|
|-5-----8-----------7-----|-------------4p0h4h7p4p0-|
|---0-0---0-0-0h5h8---8p5-|-3p0h3h7p3p0-------------|

Guitar 2
    PM-    PM-
|-----------------------------|---------------------------|
|-----------------------------|---------------------------|
|-----------------------------|---------------------------|
|-----------------------------|---------------------------|
|-8-----12------------10------|--------------7p0h7h10p7p0-|
|---0-0----0-0-0h8h11----11p8-|-7p0h7h10p7p0--------------|

Guitar 1
    PM-   PM-
|-------------------------|-------------------------|
|-------------------------|-------------------------|
|-------------------------|-------------------------|
|-------------------------|-------------------------|
|-5-----8-----------------|-------------4p0h4h7~~~--|
|---0-0---0-0-0h5p8---8p5-|-3p0h3h7p3p0-------------|

Guitar 2
    PM-    PM-
|-----------------------------|---------------------------|
|-----------------------------|---------------------------|
|-----------------------------|---------------------------|
|-----------------------------|---------------------------|
|-8-----12------------10------|--------------7p0h7h10~~~--|
|---0-0----0-0-0h8h11----11p8-|-7p0h7h10p7p0--------------|

Verse 2
Guitar 1
  PM---       PM---         PM---       PM---
|-------------------------|--------------------------|
|-------------------------|--------------------------|
|-------------------------|--------------------------|
|-------0-----------0-----|-------7-----------7------|
|-------0-----------0-----|-------7-----------7------|
|-0-0-0-0-----0-0-0-0-----|-7-7-7-7-----7-7-7-7------|

Guitar 2
    PM-   PM-   PM  PM  PM    PM-   PM-   PM  PM   PM
|-------------------------|--------------------------|
|-------------------------|--------------------------|
|-------------------------|--------------------------|
|-------------------------|--------------------------|
|-5-----5-----5---7---8---|-7-----7-----7---8---10---|
|---0-0---0-0---0---0---0-|---7-7---7-7---7---7----7-|

Guitar 1
  PM---       PM---         PM---       PM------
|-------------------------|-----------------------------|
|-------------------------|-----------------------------|
|-------------------------|-----------------------------|
|-------8-----------8-----|-------3--------------10-----|
|-------8-----------8-----|-------3--------------10-----|
|-8-8-8-8-----8-8-8-8-----|-3-3-3-3-----10-10-10-10-----|

Guitar 2
    PM-   PM-   PM   PM   PM
|---------------------------|-------------------------------|
|---------------------------|-------------------------------|
|---------------------------|-------------------------------|
|---------------------------|-------------------------------|
|-8-----8-----8---10---12---|-12-10-8-10-8----8-------------|
|---8-8---8-8---8----8----8-|--------------10---10-8-10-8-7-|

Guitar 1
    PM-   PM-   PM  PM  PM    PM-   PM-   PM  PM  PM
|-------------------------|-------------------------|
|-------------------------|-------------------------|
|-------------------------|-------------------------|
|-3-----3-----3---5---7---|-5-----5-----5---7---8---|
|-------------------------|-------------------------|
|---0-0---0-0---0---0---0-|---7-7---7-7---7---7---7-|

Guitar 2
    PM-   PM-   PM  PM  PM    PM-   PM-   PM  PM   PM
|-------------------------|--------------------------|
|-------------------------|--------------------------|
|-------------------------|--------------------------|
|-------------------------|--------------------------|
|-5-----5-----5---7---8---|-7-----7-----7---8---10---|
|---0-0---0-0---0---0---0-|---7-7---7-7---7---7----7-|

Guitar 1
    PM-   PM-   PM  PM   PM
|--------------------------|---------------------------|
|--------------------------|---------------------------|
|--------------------------|---------------------------|
|-7-----7-----7---8---10---|-10-8-7-8-7---7------------|
|--------------------------|------------8---8-7-8-7----|
|---8-8---8-8---8---8----8-|------------------------10-|

Chorus
Guitar 1
      PM-----                   PM-----
|-------------------------|----------------------------|
|-------------------------|----------------------------|
|-------------------------|----------------------------|
|-8----------10--10--10---|-8-----------10---10---10---|
|-8-----------8---8---8---|-8-----------10---10---10---|
|-8---8-8-8-8-8---8---8---|-8---8-8-8-8-10---10---10---|

Guitar 2
|-------------------------|----------------------------|
|-------------------------|----------------------------|
|------------10~--9~------|-------------10~--12~-------|
|-8~~~~~~------------10~--|-8~~~~~~---------------10~--|
|-------------------------|----------------------------|
|-------------------------|----------------------------|

Both Guitars
|---------------------------|-------------------------------|
|---------------------------|-------------------------------|
|---------------------------|-------------------------------|
|---------------------------|-------------------------------|
|---------------------------|-------------------------------|
|-12p0-0-0-0-0-12p0-0-0-0-0-|-15p0-14p0-12p0-14p0-12p0-10p0-|

Guitar 1
      PM-----                   PM-----
|-------------------------|----------------------------|
|-------------------------|----------------------------|
|-------------------------|----------------------------|
|-8----------10--10--10---|-8-----------10---10---10---|
|-8-----------8---8---8---|-8-----------10---10---10---|
|-8---8-8-8-8-8---8---8---|-8---8-8-8-8-10---10---10---|

Guitar 2
|-------------------------|----------------------------|
|-------------------------|----------------------------|
|------------10~--9~------|-------------10~--12~-------|
|-8~~~~~~------------10~--|-8~~~~~~---------------10~--|
|-------------------------|----------------------------|
|-------------------------|----------------------------|

Both Guitars
|---------------------------|-------------------------------|
|---------------------------|-------------------------------|
|---------------------------|-------------------------------|
|---------------------------|-------------------------------|
|---------------------------|-------------------------------|
|-12p0-0-0-0-0-12p0-0-0-0-0-|-12p0-14p0-15p0-14p0-15p0-17p0-|

Verse 1

Both Guitars
    PM-   PM-
|-------------------------|-------------------------|
|-------------------------|-------------------------|
|-------------------------|-------------------------|
|-------------------------|-------------------------|
|-5-----8-----------7-----|-------------4p0h4h7p4p0-|
|---0-0---0-0-0h5h8---8p5-|-3p0h3h7p3p0-------------|

    PM-   PM-
|-------------------------|-------------------------|
|-------------------------|-------------------------|
|-------------------------|-------------------------|
|-------------------------|-------------------------|
|-5-----8-----------------|-------------4p0h4h7~~~--|
|---0-0---0-0-0h5p8---8p5-|-3p0h3h7p3p0-------------|

Guitar 1 
    PM-   PM-
|-------------------------|-------------------------|
|-------------------------|-------------------------|
|-------------------------|-------------------------|
|-------------------------|-------------------------|
|-5-----8-----------7-----|-------------4p0h4h7p4p0-|
|---0-0---0-0-0h5h8---8p5-|-3p0h3h7p3p0-------------|

Guitar 2
  PM-----       PM---       PM---------------
|-------------------------|-------------------------|
|-------------------------|-------------------------|
|-------------------------|-------------------------|
|-------------------------|-------------------------|
|-------------------------|-------------------------|
|-0-0-0-0-------0-0-0-----|-0-0-0-0-0-0-0-0-0-12\---|
|-0-0-0-0-------0-0-0-----|-0-0-0-0-0-0-0-0-0-12\---|

Guitar 1
    PM-   PM-
|-------------------------|-------------------------|
|-------------------------|-------------------------|
|-------------------------|-------------------------|
|-------------------------|-------------------------|
|-5-----8-----------------|-------------4p0h4h7~~~--|
|---0-0---0-0-0h5p8---8p5-|-3p0h3h7p3p0-------------|

Guitar 2
    PM-    PM-
|-----------------------------|---------------------------|
|-----------------------------|---------------------------|
|-----------------------------|---------------------------|
|-----------------------------|---------------------------|
|-8-----12------------10------|--------------7p0h7h10~~~--|
|---0-0----0-0-0h8h11----11p8-|-7p0h7h10p7p0--------------|

Verse 2
Guitar 1
  PM---       PM---         PM---       PM---
|-------------------------|--------------------------|
|-------------------------|--------------------------|
|-------------------------|--------------------------|
|-------0-----------0-----|-------7-----------7------|
|-------0-----------0-----|-------7-----------7------|
|-0-0-0-0-----0-0-0-0-----|-7-7-7-7-----7-7-7-7------|

Guitar 2
    PM-   PM-   PM  PM  PM    PM-   PM-   PM  PM   PM
|-------------------------|--------------------------|
|-------------------------|--------------------------|
|-------------------------|--------------------------|
|-------------------------|--------------------------|
|-5-----5-----5---7---8---|-7-----7-----7---8---10---|
|---0-0---0-0---0---0---0-|---7-7---7-7---7---7----7-|

Guitar 1
  PM---       PM---         PM---       PM------
|-------------------------|-----------------------------|
|-------------------------|-----------------------------|
|-------------------------|-----------------------------|
|-------8-----------8-----|-------3--------------10-----|
|-------8-----------8-----|-------3--------------10-----|
|-8-8-8-8-----8-8-8-8-----|-3-3-3-3-----10-10-10-10-----|

Guitar 2
    PM-   PM-   PM   PM   PM
|---------------------------|-------------------------------|
|---------------------------|-------------------------------|
|---------------------------|-------------------------------|
|---------------------------|-------------------------------|
|-8-----8-----8---10---12---|-12-10-8-10-8----8-------------|
|---8-8---8-8---8----8----8-|--------------10---10-8-10-8-7-|

Guitar 1
    PM-   PM-   PM  PM  PM    PM-   PM-   PM  PM  PM
|-------------------------|-------------------------|
|-------------------------|-------------------------|
|-------------------------|-------------------------|
|-3-----3-----3---5---7---|-5-----5-----5---7---8---|
|-------------------------|-------------------------|
|---0-0---0-0---0---0---0-|---7-7---7-7---7---7---7-|

Guitar 2
    PM-   PM-   PM  PM  PM    PM-   PM-   PM  PM   PM
|-------------------------|--------------------------|
|-------------------------|--------------------------|
|-------------------------|--------------------------|
|-------------------------|--------------------------|
|-5-----5-----5---7---8---|-7-----7-----7---8---10---|
|---0-0---0-0---0---0---0-|---7-7---7-7---7---7----7-|

Guitar 1
    PM-   PM-   PM  PM   PM
|--------------------------|-------------------------------|
|--------------------------|-------------------------------|
|--------------------------|-------------------------------|
|-7-----7-----7---8---10---|-------------------------------|
|--------------------------|-12-10-8-10-8----8-------------|
|---8-8---8-8---8---8----8-|--------------10---10-8-10-8-7-|

Guitar 2
    PM-   PM-   PM   PM   PM
|---------------------------|-------------------------------|
|---------------------------|-------------------------------|
|---------------------------|-------------------------------|
|---------------------------|-------------------------------|
|-8-----8-----8---10---12---|-12-10-8-10-8----8-------------|
|---8-8---8-8---8----8----8-|--------------10---10-8-10-8-7-|

Guitar 1
|---------------------------|
|---------------------------|
|---------------------------|
|-10-8-7-8-7---7------------|
|------------8---8-7-8-7----|
|------------------------10-|

Guitar 2
|-------------------------------|
|-------------------------------|
|-------------------------------|
|-------------------------------|
|-12-10-8-10-8----8-------------|
|--------------10---10-8-10-8-7-|

Chorus
Guitar 1
      PM-----                   PM-----
|-------------------------|----------------------------|
|-------------------------|----------------------------|
|-------------------------|----------------------------|
|-8----------10--10--10---|-8-----------10---10---10---|
|-8-----------8---8---8---|-8-----------10---10---10---|
|-8---8-8-8-8-8---8---8---|-8---8-8-8-8-10---10---10---|

Guitar 2
|-------------------------|----------------------------|
|-------------------------|----------------------------|
|------------10~--9~------|-------------10~--12~-------|
|-8~~~~~~------------10~--|-8~~~~~~---------------10~--|
|-------------------------|----------------------------|
|-------------------------|----------------------------|

Both Guitars
|---------------------------|-------------------------------|
|---------------------------|-------------------------------|
|---------------------------|-------------------------------|
|---------------------------|-------------------------------|
|---------------------------|-------------------------------|
|-12p0-0-0-0-0-12p0-0-0-0-0-|-15p0-14p0-12p0-14p0-12p0-10p0-|

Guitar 1
      PM-----                   PM-----
|-------------------------|----------------------------|
|-------------------------|----------------------------|
|-------------------------|----------------------------|
|-8----------10--10--10---|-8-----------10---10---10---|
|-8-----------8---8---8---|-8-----------10---10---10---|
|-8---8-8-8-8-8---8---8---|-8---8-8-8-8-10---10---10---|

Guitar 2
|-------------------------|----------------------------|
|-------------------------|----------------------------|
|------------10~--9~------|-------------10~--12~-------|
|-8~~~~~~------------10~--|-8~~~~~~---------------10~--|
|-------------------------|----------------------------|
|-------------------------|----------------------------|

Both Guitars
|---------------------------|-------------------------------|
|---------------------------|-------------------------------|
|---------------------------|-------------------------------|
|---------------------------|-------------------------------|
|---------------------------|-------------------------------|
|-12p0-0-0-0-0-12p0-0-0-0-0-|-12p0-14p0-15p0-14p0-15p0-17p0-|

Guitar 1
      PM-----                   PM-----
|-------------------------|----------------------------|
|-------------------------|----------------------------|
|-------------------------|----------------------------|
|-8----------10--10--10---|-8-----------10---10---10---|
|-8-----------8---8---8---|-8-----------10---10---10---|
|-8---8-8-8-8-8---8---8---|-8---8-8-8-8-10---10---10---|

Guitar 2
|-------------------------|----------------------------|
|-------------------------|----------------------------|
|------------10~--9~------|-------------10~--12~-------|
|-8~~~~~~------------10~--|-8~~~~~~---------------10~--|
|-------------------------|----------------------------|
|-------------------------|----------------------------|

Both Guitars
|---------------------------|-------------------------------|
|---------------------------|-------------------------------|
|---------------------------|-------------------------------|
|---------------------------|-------------------------------|
|---------------------------|-------------------------------|
|-12p0-0-0-0-0-12p0-0-0-0-0-|-15p0-14p0-12p0-14p0-12p0-10p0-|

Guitar 1
      PM-----                   PM-----
|-------------------------|----------------------------|
|-------------------------|----------------------------|
|-------------------------|----------------------------|
|-8----------10--10--10---|-8-----------10---10---10---|
|-8-----------8---8---8---|-8-----------10---10---10---|
|-8---8-8-8-8-8---8---8---|-8---8-8-8-8-10---10---10---|

Guitar 2
|-------------------------|----------------------------|
|-------------------------|----------------------------|
|------------10~--9~------|-------------10~--12~-------|
|-8~~~~~~------------10~--|-8~~~~~~---------------10~--|
|-------------------------|----------------------------|
|-------------------------|----------------------------|

Guitar 1
|---------------------------|-------------------------------|
|---------------------------|-------------------------------|
|---------------------------|-------------------------------|
|---------------------------|-------------------------------|
|---------------------------|-------------------------------|
|-12p0-0-0-0-0-12p0-0-0-0-0-|-12p0-14p0-15p0-14p0-15p0-17p0-|

Guitar 2
|---------------------------|-------------------------------|
|---------------------------|-------------------------------|
|---------------------------|-------------------------------|
|---------------------------|-------------------------------|
|---------------------------|-------------------------------|
|-15p0-0-0-0-0-15p0-0-0-0-0-|-15p0-17p0-19p0-17p0-19p0-20p0-|

Guitar 1
|---------------------------|-------------------------------|
|---------------------------|-------------------------------|
|---------------------------|-------------------------------|
|---------------------------|-------------------------------|
|---------------------------|-------------------------------|
|-12p0-0-0-0-0-12p0-0-0-0-0-|-12p0-14p0-15p0-14p0-12p0-10p0-|

Guitar 2
|---------------------------|-------------------------------|
|---------------------------|-------------------------------|
|---------------------------|-------------------------------|
|---------------------------|-------------------------------|
|---------------------------|-------------------------------|
|-15p0-0-0-0-0-15p0-0-0-0-0-|-15p0-17p0-19p0-17p0-15p0-14p0-|

Guitar 1
|---------------------------|-------------------------------|
|---------------------------|-------------------------------|
|---------------------------|-------------------------------|
|---------------------------|-------------------------------|
|---------------------------|-------------------------------|
|-12p0-0-0-0-0-12p0-0-0-0-0-|-12p0-14p0-15p0-14p0-15p0-17p0-|

Guitar 2
|---------------------------|-------------------------------|
|---------------------------|-------------------------------|
|---------------------------|-------------------------------|
|---------------------------|-------------------------------|
|---------------------------|-------------------------------|
|-15p0-0-0-0-0-15p0-0-0-0-0-|-15p0-17p0-19p0-17p0-19p0-20p0-|

Guitar 1
|---------------------------|-------------------------------|
|---------------------------|-------------------------------|
|---------------------------|-------------------------------|
|---------------------------|-------------------------------|
|---------------------------|-------------------------------|
|-12p0-0-0-0-0-12p0-0-0-0-0-|-12p0-14p0-15p0-14p0-15p0-17p0-|

Guitar 2
|---------------------------|-------------------------------|
|---------------------------|-------------------------------|
|---------------------------|-------------------------------|
|---------------------------|-------------------------------|
|---------------------------|-------------------------------|
|-15p0-0-0-0-0-15p0-0-0-0-0-|-15p0-17p0-19p0-17p0-19p0-20p0-|

Breakdown
Both Guitars         
          PM---------------          PM-----
||--------------------------|----------------------------|
||--------------------------|----------------------------|
||--------------------------|----------------------------|
||--------------------------|----------------------------|
||--------------------------|----------------------------|
||-12p0---0-----0-0---0---0-|-12p0---0-----0-0h5h8-0h3h7-|

         PM---------------          PM-----
|--------------------------|-----------------------------||
|--------------------------|-----------------------------o|
|--------------------------|-----------------------------||
|--------------------------|-----------------------------||
|--------------------------|----------------0h4h7-0h7h10-o|
|-12p0---0-----0-0---0---0-|-12p0---0-----0--------------||



Guitar 1
|-----------------|-----------------|
|-----------------|-----------------|
|---2-------2-----|---3-------3-----|
|-0-------0---0---|-2-------2---2---|
|-----------------|-----------------|
|-----------------|-----------------|

Guitar 2
|-----------------|-----------------|
|-----------------|-----------------|
|-----------------|-----------------|
|-0---------------|-2---------------|
|-0---------------|-1---------------|
|-0---------------|-2---------------|

Guitar 1
|-----------------|-----------------|
|-----------------|-----------------|
|---2-------3-----|---5-------7-----|
|-0-------2---2---|-3-------4---4---|
|-----------------|-----------------|
|-----------------|-----------------|

Guitar 2
|-----------------|-----------------|
|-----------------|-----------------|
|-----------------|-----------------|
|-0-------2-------|-3-------4-------|
|-0-------1-------|-3-------5-------|
|-0-------2-------|-3-------4-------|

Both Guitars         
         PM---------------          PM-----
|--------------------------|----------------------------|
|--------------------------|----------------------------|
|--------------------------|----------------------------|
|--------------------------|----------------------------|
|--------------------------|----------------------------|
|-12p0---0-----0-0---0---0-|-12p0---0-----0-0h5h8-0h3h7-|

         PM---------------          PM-----
|--------------------------|-----------------------------|
|--------------------------|-----------------------------|
|--------------------------|-----------------------------|
|--------------------------|-----------------------------|
|--------------------------|----------------0h4h7-0h7h10-|
|-12p0---0-----0-0---0---0-|-12p0---0-----0--------------|

Guitar 1
|-----------------|-----------------|
|-----------------|-----------------|
|---2-------2-----|---3-------3-----|
|-0-------0---0---|-2-------2---2---|
|-----------------|-----------------|
|-----------------|-----------------|

Guitar 2
|-----------------|-----------------|
|-----------------|-----------------|
|-----------------|-----------------|
|-0---------------|-2---------------|
|-0---------------|-1---------------|
|-0---------------|-2---------------|

Guitar 1
|-----------------|-----------------|
|-----------------|-----------------|
|---2-------3-----|---5-------7-----|
|-0-------2---2---|-3-------4---4---|
|-----------------|-----------------|
|-----------------|-----------------|

Guitar 2
|-----------------|-----------------|
|-----------------|-----------------|
|-----------------|-----------------|
|-0-------2-------|-3-------4-------|
|-0-------1-------|-3-------5-------|
|-0-------2-------|-3-------4-------|

Guitar 1
  Tr-----------------------------------------------------
|----------------------------|----------------------------|
|----------------------------|----------------------------|
|----------------------------|----------------------------|
|----------------------------|----------------------------|
|----------------------------|----------------------------|
|-5-----------7--------------|-8-------7------6-----2-----|

Guitar 1
  Tr------------------------
|----------------------------|
|----------------------------|
|----------------------------|
|----------------------------|
|----------------------------|
|-7--------------------------|

Guitar 2
  Tr--------------------------------------------------------
|-------------|----------------|-----------------------------|
|-------------|----------------|-----------------------------|
|-----7-8-----|------8-10------|------10------10-----9-----7-|
|-5-8-----8-5-|-7-10------10-7-|-8-12----7-12----6-9-----6---|
|-------------|----------------|-----------------------7-----|
|-------------|----------------|-----------------------------|

Guitar 2
  Tr----------------------------
|-------------|------------------|
|-------------|------------------|
|-6-----6-----|-9-------14-------|
|---7-----7---|---11-------14----|
|-----7-----7-|------12-------16-|
|-------------|------------------|

Solo

Guitar 1
  PM-----------------------------------
|-------------------------|-------------------------|
|-------------------------|-------------------------|
|-------------------------|-------------------------|
|-------------------------|-------------------------|
|-0-0---0---0-0---0---0---|-0-0---0---0-------------|
|-0-0---0---0-0---0---0---|-0-0---0---0-0-5-8-0-3-7-|

Guitar 2
|-------------------------|-------------------------|
|-------------------------|-17----------18----------|
|-------------17BU(19)----|-------------------------|
|-------------------------|-------------------------|
|-------------------------|-------------------------|
|-------------------------|-------------------------|

Guitar 1
  PM-----------------------------------------------
|-------------------------|-------------------------|
|-------------------------|-------------------------|
|-------------------------|-------------------------|
|-------------------------|-------------------------|
|-3p2---2---2-2---2---2---|-3p2---2---2-2---2---2---|
|-3p2---2---2-2---2---2---|-3p2---2---2-2---2---2---|

Guitar 2
|-------------------------|-------------------------|
|-------------------------|-------------------------|
|-13----------------------|-14----------16----------|
|-------------------------|-------------------------|
|-------------------------|-------------------------|
|-------------------------|-------------------------|

Guitar 1
  PM-----------------------------------
|-------------------------|-------------------------|
|-------------------------|-------------------------|
|-------------------------|-------------------------|
|-------------------------|-------------------------|
|-0-0---0---0-0---0---0---|-0-0---0---0-------------|
|-0-0---0---0-0---0---0---|-0-0---0---0-0-5-8-0-3-7-|

Guitar 2
|-------------------------|-------------------------|
|-------------------------|-17----------18----------|
|-------------17BU(19)----|-------------------------|
|-------------------------|-------------------------|
|-------------------------|-------------------------|
|-------------------------|-------------------------|

Guitar 1
  PM-----------------------------------------------
|-------------------------|-------------------------|
|-------------------------|-------------------------|
|-------------------------|-------------------------|
|-------------------------|-------------------------|
|-3p2---2---2-2---2---2---|-3p2---2---2-2---2---2---|
|-3p2---2---2-2---2---2---|-3p2---2---2-2---2---2---|

Guitar 2
|-16----------------------|-17----------17BU(19)----|
|-------------------------|-------------------------|
|-------------------------|-------------------------|
|-------------------------|-------------------------|
|-------------------------|-------------------------|
|-------------------------|-------------------------|

Breakdown
Guitar 1
|-----------------|-----------------|
|-----------------|-----------------|
|---2-------2-----|---3-------3-----|
|-0-------0---0---|-2-------2---2---|
|-----------------|-----------------|
|-----------------|-----------------|

Guitar 2
|-----------------|-----------------|
|-----------------|-----------------|
|-----------------|-----------------|
|-0---------------|-2---------------|
|-0---------------|-1---------------|
|-0---------------|-2---------------|

Guitar 1
|-----------------|-----------------|
|-----------------|-----------------|
|---2-------3-----|---5-------7-----|
|-0-------2---2---|-3-------4---4---|
|-----------------|-----------------|
|-----------------|-----------------|

Guitar 2
|-----------------|-----------------|
|-----------------|-----------------|
|-----------------|-----------------|
|-0-------2-------|-3-------4-------|
|-0-------1-------|-3-------5-------|
|-0-------2-------|-3-------4-------|

Guitar 1
  Tr-----------------------------------------------------
|----------------------------|----------------------------|
|----------------------------|----------------------------|
|----------------------------|----------------------------|
|----------------------------|----------------------------|
|----------------------------|----------------------------|
|-5-----------7--------------|-8-------7------6-----2-----|

Guitar 1
  Tr------------------------
|----------------------------|
|----------------------------|
|----------------------------|
|----------------------------|
|----------------------------|
|-7--------------------------|

Guitar 2
|-6-------------8------------|-10------8--------7--------4------|
|-9BU(11)-------11BU(13)-----|13BU(15)-11BU(13)-10BU(12)-7BU(9)-|
|----------------------------|----------------------------------|
|----------------------------|----------------------------------|
|----------------------------|----------------------------------|
|----------------------------|----------------------------------|

Guitar 2
|-5-----------19BU(21)-----|
|-8BU(10)------------------|
|--------------------------|
|--------------------------|
|--------------------------|
|--------------------------|

Verse 1
Both Guitars
    PM-   PM-
|-------------------------|-------------------------|
|-------------------------|-------------------------|
|-------------------------|-------------------------|
|-------------------------|-------------------------|
|-5-----8-----------7-----|-------------4p0h4h7p4p0-|
|---0-0---0-0-0h5h8---8p5-|-3p0h3h7p3p0-------------|

    PM-   PM-
|-------------------------|-------------------------|
|-------------------------|-------------------------|
|-------------------------|-------------------------|
|-------------------------|-------------------------|
|-5-----8-----------------|-------------4p0h4h7~~~--|
|---0-0---0-0-0h5p8---8p5-|-3p0h3h7p3p0-------------|

Chorus
Guitar 1
      PM-----                   PM-----
|-------------------------|----------------------------|
|-------------------------|----------------------------|
|-------------------------|----------------------------|
|-8----------10--10--10---|-8-----------10---10---10---|
|-8-----------8---8---8---|-8-----------10---10---10---|
|-8---8-8-8-8-8---8---8---|-8---8-8-8-8-10---10---10---|

Guitar 2
|-------------------------|----------------------------|
|-------------------------|----------------------------|
|------------10~--9~------|-------------10~---9~-------|
|-8~~~~~~------------10~--|-8~~~~~~---------------10~--|
|-------------------------|----------------------------|
|-------------------------|----------------------------|

Both Guitars
|---------------------------|-------------------------------|
|---------------------------|-------------------------------|
|---------------------------|-------------------------------|
|---------------------------|-------------------------------|
|---------------------------|-------------------------------|
|-12p0-0-0-0-0-12p0-0-0-0-0-|-15p0-14p0-12p0-14p0-12p0-10p0-|

Guitar 1
      PM-----                   PM-----
|-------------------------|----------------------------|
|-------------------------|----------------------------|
|-------------------------|----------------------------|
|-8----------10--10--10---|-8-----------10---10---10---|
|-8-----------8---8---8---|-8-----------10---10---10---|
|-8---8-8-8-8-8---8---8---|-8---8-8-8-8-10---10---10---|

Guitar 2
|-------------------------|----------------------------|
|-------------------------|----------------------------|
|------------10~--9~------|-------------10~---9~-------|
|-8~~~~~~------------10~--|-8~~~~~~---------------10~--|
|-------------------------|----------------------------|
|-------------------------|----------------------------|

Both Guitars
|---------------------------|-------------------------------|
|---------------------------|-------------------------------|
|---------------------------|-------------------------------|
|---------------------------|-------------------------------|
|---------------------------|-------------------------------|
|-12p0-0-0-0-0-12p0-0-0-0-0-|-12p0-14p0-15p0-14p0-15p0-17p0-|

Guitar 1
      PM-----                   PM-----
|-------------------------|----------------------------|
|-------------------------|----------------------------|
|-------------------------|----------------------------|
|-8----------10--10--10---|-8-----------10---10---10---|
|-8-----------8---8---8---|-8-----------10---10---10---|
|-8---8-8-8-8-8---8---8---|-8---8-8-8-8-10---10---10---|

Guitar 2
|-------------------------|----------------------------|
|-------------------------|----------------------------|
|------------10~--9~------|-------------10~---9~-------|
|-8~~~~~~------------10~--|-8~~~~~~---------------10~--|
|-------------------------|----------------------------|
|-------------------------|----------------------------|

Both Guitars
|---------------------------|-------------------------------|
|---------------------------|-------------------------------|
|---------------------------|-------------------------------|
|---------------------------|-------------------------------|
|---------------------------|-------------------------------|
|-12p0-0-0-0-0-12p0-0-0-0-0-|-15p0-14p0-12p0-14p0-12p0-10p0-|

Guitar 1
      PM-----                   PM-----
|-------------------------|----------------------------|
|-------------------------|----------------------------|
|-------------------------|----------------------------|
|-8----------10--10--10---|-8-----------10---10---10---|
|-8-----------8---8---8---|-8-----------10---10---10---|
|-8---8-8-8-8-8---8---8---|-8---8-8-8-8-10---10---10---|

Guitar 2
|-------------------------|----------------------------|
|-------------------------|----------------------------|
|------------10~--9~------|-------------10~---9~-------|
|-8~~~~~~------------10~--|-8~~~~~~---------------10~--|
|-------------------------|----------------------------|
|-------------------------|----------------------------|

Guitar 1
|---------------------------|-------------------------------|
|---------------------------|-------------------------------|
|---------------------------|-------------------------------|
|---------------------------|-------------------------------|
|---------------------------|-------------------------------|
|-12p0-0-0-0-0-12p0-0-0-0-0-|-12p0-14p0-15p0-14p0-15p0-17p0-|

Guitar 2
|---------------------------|-------------------------------|
|---------------------------|-------------------------------|
|---------------------------|-------------------------------|
|---------------------------|-------------------------------|
|---------------------------|-------------------------------|
|-15p0-0-0-0-0-15p0-0-0-0-0-|-15p0-17p0-19p0-17p0-19p0-20p0-|

Guitar 1
|---------------------------|-------------------------------|
|---------------------------|-------------------------------|
|---------------------------|-------------------------------|
|---------------------------|-------------------------------|
|---------------------------|-------------------------------|
|-12p0-0-0-0-0-12p0-0-0-0-0-|-12p0-14p0-15p0-14p0-12p0-10p0-|

Guitar 2
|---------------------------|-------------------------------|
|---------------------------|-------------------------------|
|---------------------------|-------------------------------|
|---------------------------|-------------------------------|
|---------------------------|-------------------------------|
|-15p0-0-0-0-0-15p0-0-0-0-0-|-15p0-17p0-19p0-17p0-15p0-14p0-|

Guitar 1
|---------------------------|-------------------------------|
|---------------------------|-------------------------------|
|---------------------------|-------------------------------|
|---------------------------|-------------------------------|
|---------------------------|-------------------------------|
|-12p0-0-0-0-0-12p0-0-0-0-0-|-12p0-14p0-15p0-14p0-15p0-17p0-|

Guitar 2
|---------------------------|-------------------------------|
|---------------------------|-------------------------------|
|---------------------------|-------------------------------|
|---------------------------|-------------------------------|
|---------------------------|-------------------------------|
|-15p0-0-0-0-0-15p0-0-0-0-0-|-15p0-17p0-19p0-17p0-19p0-20p0-|

Guitar 1
|---------------------------|-------------------------------|
|---------------------------|-------------------------------|
|---------------------------|-------------------------------|
|---------------------------|-------------------------------|
|---------------------------|-------------------------------|
|-12p0-0-0-0-0-12p0-0-0-0-0-|-12p0-14p0-15p0-14p0-15p0-17p0-|

Guitar 2
|---------------------------|-------------------------------|
|---------------------------|-------------------------------|
|---------------------------|-------------------------------|
|---------------------------|-------------------------------|
|---------------------------|-------------------------------|
|-15p0-0-0-0-0-15p0-0-0-0-0-|-15p0-17p0-19p0-17p0-19p0-20p0-|

That's all of it, please rate :)


DUSK DISMANTLED


Hammer on:      h
Pull off:       p
Slide up:       /
Slide down:     \
Bend up:        BU(?)
Tapped note:    T
Vibrato:        ~~~
Pinch Harmonic: PH
Dive Bomb:      DB

Guitar 1:        Matt Heafy
Guitar 2:        Corey Beaulieu
Guitar 3:        Corey Beaulieu


_________________________________________________________________________


Intro/Chorus
Guitar 1
|---------------------------------|---------------------------------|
|-----6-6-6-6-----8-8-8-8---5~----|-----6-6-6-6-----8-8-8-8-5-5-5-5-|
|-----7-7-7-7-----7-7-7-7---6~----|-----7-7-7-7-----9-9-9-9-6-6-6-6-|
|---------------------------------|---------------------------------|
|-----5-5-5-5-----5-5-5-5---4~----|-----5-5-5-5-----7-7-7-7-4-4-4-4-|
|-0-----------------------0-------|-0-------------------------------|
|
|Guitar 2
|---------------------------------|---------------------------------|
|---------------------------------|---------------------------------|
|---------------------------------|---------------------------------|
|---------------------------------|---------------------------------|
|-0-------0-------0---------4~----|-0-------0-------7-7-7-7-4-4-4-4-|
|-0-------0-------0-------0-2~----|-0-------0-------5-5-5-5-2-2-2-2-|

Guitar 1
|---------------------------------|---------------------------------|
|-----6-6-6-6-----8-8-8-8---5~----|-----6-6-6-6-----2-2-2-2-5-5-5-5-|
|-----7-7-7-7-----7-7-7-7---6~----|-----7-7-7-7-----3-3-3-3-6-6-6-6-|
|---------------------------------|---------------------------------|
|-----5-5-5-5-----5-5-5-5---4~----|-----5-5-5-5-----1-1-1-1-4-4-4-4-|
|-0-----------------------0-------|-0-------------------------------|
|
|Guitar 2
|---------------------------------|---------------------------------|
|---------------------------------|---------------------------------|
|---------------------------------|---------------------------------|
|---------------------------------|---------------------------------|
|-0-------0-------0---------4~----|-0-------0-------1-1-1-1-4-4-4-4-|
|-0-------0-------0-------0-2~----|-0-------0-------5-5-5-5-7-7-7-7-|

_________________________________________________________________________


Verse 1
Guitar 1
|---------------------------------|---------------------------------|
|---------------------------------|---------------------------------|
|---------------------------------|---------------------------------|
|---------------------------------|---------------------------------|
|-5\------------------------------|-5\--------------7-7-7-7-4-4-4-4-|
|-3\------0-0-0-0-0-0-0-0-0-0-0-0-|-3\------0-0-0-0-5-5-5-5-2-2-2-2-|
|
|Guitar 2
|---------------------------------|---------------------------------|
|---------------------------------|---------------------------------|
|-9-9-9-9-9-9-9-9-9-9-9-9-9-9-9-9-|-9-9-9-9-9-9-9-9-9-9-9-9-6-6-6-6-|
|---------------------------------|---------------------------------|
|-7-7-7-7-7-7-7-7-7-7-7-7-7-7-7-7-|-7-7-7-7-7-7-7-7-7-7-7-7-4-4-4-4-|
|---------------------------------|---------------------------------|

Guitar
|---------------------------------|---------------------------------|
|---------------------------------|---------------------------------|
|---------------------------------|---------------------------------|
|---------------------------------|---------------------------------|
|-5\------------------------------|-5\--------------7-7-7-7-4-4-4-4-|
|-3\------0-0-0-0-0-0-0-0-0-0-0-0-|-3\------0-0-0-0-5-5-5-5-2-2-2-2-|
|
|Guitar 2
|---------------------------------|-------------------------------------|
|---------------------------------|-------------------------------------|
|-9-9-9-9-9-9-9-9-9-9-9-9-9-9-9-9-|-9-9-9-9-9-9-9-9-9-9-9-9-12-12-12-12-|
|---------------------------------|-------------------------------------|
|-7-7-7-7-7-7-7-7-7-7-7-7-7-7-7-7-|-7-7-7-7-7-7-7-7-7-7-7-7-10-10-10-10-|
|---------------------------------|-------------------------------------|

Guitar 1
|---------------------------------|---------------------------------|
|---------------------------------|---------------------------------|
|---------------------------------|---------------------------------|
|---------------------------------|---------------------------------|
|-5\------------------------------|-5\--------------7-7-7-7-4-4-4-4-|
|-3\------0-0-0-0-0-0-0-0-0-0-0-0-|-3\------0-0-0-0-5-5-5-5-2-2-2-2-|
|
|Guitar 2
|---------------------------------|---------------------------------|
|---------------------------------|---------------------------------|
|-9-9-9-9-9-9-9-9-9-9-9-9-9-9-9-9-|-9-9-9-9-9-9-9-9-9-9-9-9-6-6-6-6-|
|---------------------------------|---------------------------------|
|-7-7-7-7-7-7-7-7-7-7-7-7-7-7-7-7-|-7-7-7-7-7-7-7-7-7-7-7-7-4-4-4-4-|
|---------------------------------|---------------------------------|

Guitar 1
|---------------------------------|---------------------------------|
|---------------------------------|---------------------------------|
|---------------------------------|---------------------------------|
|---------------------------------|---------------------------------|
|-5\------------------------------|-5\--------------4-4-4-4-7-7-7-7-|
|-3\------0-0-0-0-0-0-0-0-0-0-0-0-|-3\------0-0-0-0-2-2-2-2-5-5-5-5-|
|
|Guitar 2
|---------------------------------|-------------------------------------|
|---------------------------------|-------------------------------------|
|-9-9-9-9-9-9-9-9-9-9-9-9-9-9-9-9-|-9-9-9-9-9-9-9-9-9-9-9-9-12-12-12-12-|
|---------------------------------|-------------------------------------|
|-7-7-7-7-7-7-7-7-7-7-7-7-7-7-7-7-|-7-7-7-7-7-7-7-7-7-7-7-7-10-10-10-10-|
|---------------------------------|-------------------------------------|

_________________________________________________________________________


Verse 2
Both guitars
|---------------------------------|---------------------------------|
|---------------------------------|---------------------------------|
|---------------------------------|---------------------------------|
|---------------------------------|---------------------------------|
|-8\------------------------------|-8\--------------8-8-8-8-7-7-7-7-|
|-6\------3-3-3-3-3-3-3-3-3-3-3-3-|-6\------3-3-3-3-6-6-6-6-5-5-5-5-|

|---------------------------------|-------------------------------------|
|---------------------------------|-------------------------------------|
|---------------------------------|-------------------------------------|
|---------------------------------|-------------------------------------|
|-8\------------------------------|-8\--------------7-7-7-7-10-10-10-10-|
|-6\------3-3-3-3-3-3-3-3-3-3-3-3-|-6\------3-3-3-3-5-5-5-5--8--8--8--8-|

|----------------------------------|------------------------------------------|
|----------------------------------|------------------------------------------|
|----------------------------------|------------------------------------------|
|----------------------------------|------------------------------------------|
|-11\------------------------------|-11\--------------11-11-11-11-10-10-10-10-|
|--9\------9-9-9-9-9-9-9-9-9-9-9-9-|--9\------9-9-9-9--9--9--9--9--8--8--8--8-|

|----------------------------------|------------------------------------------|
|----------------------------------|------------------------------------------|
|----------------------------------|------------------------------------------|
|----------------------------------|------------------------------------------|
|-11\------------------------------|-11\--------------10-10-10-10-13-13-13-13-|
|--9\------9-9-9-9-9-9-9-9-9-9-9-9-|--9\------9-9-9-9--8--8--8--8-11-11-11-11-|

_________________________________________________________________________


Repeat Intro/Chorus

Repeat Verse 1

Repeat Verse 2

_________________________________________________________________________


Breakdown
Guitar 1
|---------------------------------|
|---------------------------------|
|---------------------------------|
|---------------------------------|
|-8-----7---5-----------------0h4-|
|---0-0---0---8p5-0-0-0-0-0h3-----|
|
|Guitar 2
|---------------------------------|
|---------------------------------|
|---------------------------------|
|---------------------------------|
|-----------------------------0h4-|
|-------------------------0h3-----|

Both guitars
|----------------------------------|
|----------------------------------|
|----------------------------------|
|----------------------------------|
|-8-----7---5---------7h8-----8h10-|
|---0-0---0---8p5-5-5-----5-5------|

|---------------------------------|
|---------------------------------|
|---------------------------------|
|---------------------------------|
|-8-----7---5-----------------0h4-|
|---0-0---0---8p5-0-0-0-0-0h3-----|

|---------------------------------|
|---------------------------------|
|---------------------------------|
|---------------------------------|
|-----------------4p0h4h7/8\7p4p0-|
|-8-8-8-8-8-8-8-8-----------------|

_________________________________________________________________________


Solo
Guitar 1 (Rhythm)
|---------------------------------|----------------------------------|
|---------------------------------|----------------------------------|
|---------------------------------|----------------------------------|
|---------------------------------|----------------------------------|
|-8-----7---5-----------------0h4-|-8-----7---5---------7h8-----8h10-|
|---0-0---0---8p5-0-0-0-0-0h3-----|---0-0---0---8p5-5-5-----5-5------|

|---------------------------------|---------------------------------|
|---------------------------------|---------------------------------|
|---------------------------------|---------------------------------|
|---------------------------------|---------------------------------|
|-8-----7---5-----------------0h4-|-----------------4p0h4h7/8\7p4p0-|
|---0-0---0---8p5-0-0-0-0-0h3-----|-8-8-8-8-8-8-8-8-----------------|

Guitar 2 (Lead)
|-17p13------13-17p12------12-17p13------13-18p13------13-|
|------15--15--------15--15--------15--15--------15--15---|
|--------14------------14------------14------------14-----|
|---------------------------------------------------------|
|---------------------------------------------------------|
|---------------------------------------------------------|

|-17p13------13-17p12------12-15p12------12-12p9-----12-|
|------15--15--------15--15--------14--14-------11-11---|
|--------14------------14------------12-----------9-----|
|-------------------------------------------------------|
|-------------------------------------------------------|
|-------------------------------------------------------|

|-/12~~~~~-15~~~~~-18~~~~~-21~~~~~-22~~~~~~-|
|-----11~~----14~~----17~~----20~~----------|
|-------------------------------------------|
|-------------------------------------------|
|-------------------------------------------|
|-------------------------------------------|

|-22-20-18-22-20-18-17-20-18-17---------------------------------|
|-------------------------------20-18-17-18-17-15---------------|
|-------------------------------------------------17-15-14PH~~~-|
|---------------------------------------------------------------|
|---------------------------------------------------------------|
|---------------------------------------------------------------|

   T       T       T               T       T       T
|-------------------------------|-------------------------------|
|-------------------------------|-------------------------------|
|-14p7h10-14p7h10-14/15\14p10p7-|-14p7h10-14p7h10-14/15\14p10p7-|
|-------------------------------|-------------------------------|
|-------------------------------|-------------------------------|
|-------------------------------|-------------------------------|

   T      T      T              T      T      T
|----------------------------|----------------------------|
|----------------------------|----------------------------|
|-12p6h9-12p6h9-12/14\12p6h9-|-12p6h9-12p6h9-12/14\12p6h9-|
|----------------------------|----------------------------|
|----------------------------|----------------------------|
|----------------------------|----------------------------|

|---------------------------|-----------------------------------|
|---------------------------|-----------------------------------|
|--------------------7-9-10-|--------------------------10-12-14-|
|-------5-7-8-7-8-10--------|---------8-10-12-10-12-14----------|
|-5-7-8---------------------|-8-10-12---------------------------|
|---------------------------|-----------------------------------|

|-------------------------------------|----------17-18-20----------18-20-22-|
|----------------------------15-17-18-|-17-18-20----------18-20-22----------|
|----------12-14-15-14-15-17----------|-------------------------------------|
|-12-14-15----------------------------|-------------------------------------|
|-------------------------------------|-------------------------------------|
|-------------------------------------|-------------------------------------|

|-24DB~~~~~~~~~(22)~~~~-|
|-----------------------|
|-----------------------|
|-----------------------|
|-----------------------|
|-----------------------|

_________________________________________________________________________


After Solo Breakdown
Guitar 1
|-------------------------------------------------|
|-------------------------------------------------|
|-------------------------------------------------|
|-------------------------------------------------|
|-5-5-5-5-5-5-5-5-5-5-5-5-5-5-5-5-5-5-5-5-5-5-5-5-|
|-3-3-3-3-3-3-3-3-3-3-3-3-3-3-3-3-3-3-3-3-3-3-3-3-|
|
|Guitar 2
|-------------------------------------------------|
|-------------------------------------------------|
|-------------------------------------------------|
|-7-7-7-7-7-7-7-7-7-7-7-7-7-7-7-7-7-7-7-7-7-7-7-7-|
|-------------------------------------------------|
|-------------------------------------------------|

Guitar 1
|-------------------------------------------------|
|-------------------------------------------------|
|-------------------------------------------------|
|-------------------------------------------------|
|-5-5-5-5-5-5-5-5-5-5-5-5-5-5-5-5-5-5-5-5-5-5-5-5-|
|-3-3-3-3-3-3-3-3-3-3-3-3-3-3-3-3-3-3-3-3-3-3-3-3-|
|
|Guitar 2
|-------------------------------------------------|
|-------------------------------------------------|
|-------------------------------------------------|
|-5-5-5-5-5-5-5-5-5-5-5-5-3-3-3-3-3-3-3-3-3-3-3-3-|
|-------------------------------------------------|
|-------------------------------------------------|

Guitar 1
|-------------------------------------------------|
|-------------------------------------------------|
|-------------------------------------------------|
|-------------------------------------------------|
|-4-4-4-4-4-4-4-4-4-4-4-4-4-4-4-4-4-4-4-4-4-4-4-4-|
|-2-2-2-2-2-2-2-2-2-2-2-2-2-2-2-2-2-2-2-2-2-2-2-2-|
|
|Guitar 2
|-------------------------------------------------|
|-------------------------------------------------|
|-------------------------------------------------|
|-5-5-5-5-5-5-5-5-5-5-5-5-5-5-5-5-5-5-5-5-5-5-5-5-|
|-------------------------------------------------|
|-------------------------------------------------|

Guitar 1
|-------------------------------------------------|
|-------------------------------------------------|
|-------------------------------------------------|
|-------------------------------------------------|
|-4-4-4-4-4-4-4-4-4-4-4-4-4-4-4-4-4-4-4-4-4-4-4-4-|
|-2-2-2-2-2-2-2-2-2-2-2-2-2-2-2-2-2-2-2-2-2-2-2-2-|
|
|Guitar 2
|-------------------------------------------------|
|-------------------------------------------------|
|-------------------------------------------------|
|-3-3-3-3-3-3-3-3-3-3-3-3-2-2-2-2-2-2-2-2-2-2-2-2-|
|-------------------------------------------------|
|-------------------------------------------------|

Guitar 1
|-------------------------------------------------|
|-------------------------------------------------|
|-------------------------------------------------|
|-------------------------------------------------|
|-7-7-7-7-7-7-7-7-7-7-7-7-7-7-7-7-7-7-7-7-7-7-7-7-|
|-5-5-5-5-5-5-5-5-5-5-5-5-5-5-5-5-5-5-5-5-5-5-5-5-|
|
|Guitar 2
|-------------------------------------------------|
|-------------------------------------------------|
|-------------------------------------------------|
|-8-8-8-8-8-8-8-8-8-8-8-8-8-8-8-8-8-8-8-8-8-8-8-8-|
|-------------------------------------------------|
|-------------------------------------------------|

Guitar 1
|-------------------------------------------------|
|-------------------------------------------------|
|-------------------------------------------------|
|-------------------------------------------------|
|-7-7-7-7-7-7-7-7-7-7-7-7-7-7-7-7-7-7-7-7-7-7-7-7-|
|-5-5-5-5-5-5-5-5-5-5-5-5-5-5-5-5-5-5-5-5-5-5-5-5-|
|
|Guitar 2
|-------------------------------------------------|
|-------------------------------------------------|
|-------------------------------------------------|
|-7-7-7-7-7-7-7-7-7-7-7-7-5-5-5-5-5-5-5-5-5-5-5-5-|
|-------------------------------------------------|
|-------------------------------------------------|

Guitar 1
|-------------------------------------------------------------|
|-------------------------------------------------------------|
|-------------------------------------------------------------|
|-------------------------------------------------------------|
|-5-5-5-5-5-5-5-5-5-5-5-5-10-10-10-10-10-10-10-10-10-10-10-10-|
|-3-3-3-3-3-3-3-3-3-3-3-3--7--7--7--7--7--7--7--7--7--7--7--7-|
|
|Guitar 2
|-------------------------------------------------------------|
|-------------------------------------------------------------|
|-------------------------------------------------------------|
|-7-7-7-7-7-7-7-7-7-7-7-7-11-11-11-11-11-11-11-11-11-11-11-11-|
|-------------------------------------------------------------|
|-------------------------------------------------------------|

Guitar 1
|-------------------------------------------------------------------------|
|-------------------------------------------------------------------------|
|-------------------------------------------------------------------------|
|-------------------------------------------------------------------------|
|-10-10-10-10-10-10-10-10-10-10-10-10-12-12-12-12-12-12-12-12-12-12-12-12-|
|--8--8--8--8--8--8--8--8--8--8--8--8-11-11-11-11-11-11-11-11-11-11-11-11-|
|
|Guitar 2
|-------------------------------------------------------------------------|
|-------------------------------------------------------------------------|
|-------------------------------------------------------------------------|
|-11-11-11-11-11-11-11-11-11-11-11-11-14-14-14-14-14-14-14-14-14-14-14-14-|
|-------------------------------------------------------------------------|
|-------------------------------------------------------------------------|


The second time this is played
An additional 3rd guitar recorded
By Corey play an arpeggio over the chords

Guitar 3
|---------------------------------|---------------------------------|
|---------------------------------|---------------------------------|
|---------3---------------3-------|---------3---------------2-------|
|-----7-------7-------7-------7---|-----5-------5-------3-------3---|
|-5---------------5---------------|-5---------------5---------------|
|---------------------------------|---------------------------------|

|---------------------------------|---------------------------------|
|---------------------------------|---------------------------------|
|---------3---------------3-------|---------2---------------0-------|
|-----5-------5-------5-------5---|-----3-------3-------2-------2---|
|-4---------------4---------------|-4---------------4---------------|
|---------------------------------|---------------------------------|

|---------------------------------|---------------------------------|
|---------------------------------|-------------------------5-------|
|---------0---------------0-------|---------6-----------------------|
|-----8-------8-------8-------8---|-----7-------7-------5-------5---|
|-7---------------7---------------|-7---------------7---------------|
|---------------------------------|---------------------------------|

|-----------------------------------|---------------------------------|
|-----------------------------------|---------------------------------|
|---------7----------------12-------|-----7-------7---6---------------|
|-----3-------3--------8--------8---|-7-------7-----------7-------7---|
|-5---------------10----------------|-------------------------7-------|
|-----------------------------------|---------------------------------|

_________________________________________________________________________


Repeat Chorus


_________________________________________________________________________


Final chorus
Guitar 1
|---------------------------------|---------------------------------|
|-----6-6-6-6-----8-8-8-8---5~----|-----6-6-6-6-----8-8-8-8-5-5-5-5-|
|-----7-7-7-7-----7-7-7-7---6~----|-----7-7-7-7-----9-9-9-9-6-6-6-6-|
|---------------------------------|---------------------------------|
|-----5-5-5-5-----5-5-5-5---4~----|-----5-5-5-5-----7-7-7-7-4-4-4-4-|
|-0-----------------------0-------|-0-------------------------------|
|
|Guitar 2
|---------------------------------|---------------------------------|
|---------------------------------|---------------------------------|
|---------------------------------|---------------------------------|
|---------------------------------|---------------------------------|
|-----5-5-5-5-----7-7-7-7-7\4~----|-----5-5-5-5-----7-7-7-7-4-4-4-4-|
|-0---3-3-3-3-----5-5-5-5-5\2~----|-0---3-3-3-3-----5-5-5-5-2-2-2-2-|

Guitar 1
|---------------------------------|---------------------------------|
|-----6-6-6-6-----8-8-8-8---5~----|-----6-6-6-6-----2-2-2-2-5-5-5-5-|
|-----7-7-7-7-----7-7-7-7---6~----|-----7-7-7-7-----3-3-3-3-6-6-6-6-|
|---------------------------------|---------------------------------|
|-----5-5-5-5-----5-5-5-5---4~----|-----5-5-5-5-----1-1-1-1-4-4-4-4-|
|-0-----------------------0-------|-0-------------------------------|
|
|Guitar 2
|---------------------------------|---------------------------------|
|---------------------------------|---------------------------------|
|---------------------------------|---------------------------------|
|---------------------------------|---------------------------------|
|-----5-5-5-5-----7-7-7-7-7\4~----|-----5-5-5-5-----1-1-1-1-4-4-4-4-|
|-0---3-3-3-3-----5-5-5-5-5\2~----|-0---3-3-3-3-----5-5-5-5-7-7-7-7-|

Both guitars
|---------------------------------|
|---------------------------------|
|-our-----ex------i-------stance--|
|---------------------------------|
|-0-------0-------0---------------|
|-0-------0-------0---------------|


WATCH THE WORLD BURN


Hammer on:        h
Pull off:         p
Slide up:         /
Slide down:       \
Vibrato:          ~~~
Bend up:          BU(?)
Muted Note:       x 
Tapped Note:      T
Palm mute:        PM
Natural Harmonic: NH

Guitar 1: Matt Heafy
Guitar 2: Corey Beaulieu

Intro/Chorus
Both guitars
|-----------------------------------------------|
|-----------------------------------------------|
|-----------------------------------------------|
|-----------------------------------------------|
|----------------------------------10-----------|
|--15-12-0-15-12-0-15-12-0-15-12-0----12-10-12\-|

guitar 1
|---------------------------------|
|---------------------------------|
|---------------------------------|
|---------------------------------|
|-----8-8-8-8---8-5-5-5-5-5-5-5-5-|
|-----8-8-8-8---8-5-5-5-5-5-5-5-5-|

Both guitars
|-----------------------------------------------|
|-----------------------------------------------|
|-----------------------------------------------|
|-----------------------------------------------|
|----------------------------------10-----------|
|--15-12-0-15-12-0-15-12-0-15-12-0----12-10-12\-|

Guitar 1
|-----------------------------------------|
|-----------------------------------------|
|-----------------------------------------|
|-----------------------------------------|
|-----8-8-8-8---8-10-10-10-10-------------|
|-----8-8-8-8---8-10-10-10-10-14-14-14-14-|


Verse
Both guitars
||---------------------------------|
|o-3-------------------------------|
||-2-------------------------------|
||-0-------------------------------|
|o-0-------------------------------|
||-0-------------------------------|

|---------------------------------||
|---------------------------------o|
|---------------------------------||
|-3-------------------------------||
|-3-------------------------------o|
|-3-------------------------------||

Both guitars
|---------------------------------------------------------------------|
|---------------------------------------------------------------------|
|---------------------------------------------------------------------|
|-0----------------0----------------3----------------3----------------|
|-0----------------0----------------3----------------3----------------|
|-0-0-0-0-0-0-0000-0-0-0-0-00000000-3-3-3-3-3-3-3333-3-3-3-3-33333333-|
    PM------------   PM------------   PM------------   PM------------

|---------------------------------------------------------------------|
|---------------------------------------------------------------------|
|---------------------------------------------------------------------|
|-0----------------0----------------3----------------3--------------8-|
|-0----------------0----------------3----------------3-------7-7-7-78-|
|-0-0-0-0-0-0-0000-0-0-0-0-00000000-3-3-3-3-3-3-3333-3-3-3-3-7-7-7-78-|
    PM------------   PM------------   PM------------   PM------------

Pre-chorus
Both guitars
|--------------------|-----------------|-----------------|-----------------|
|--------------------|-----------------|-----------------|-----------------|
|--------------------|-----------------|-----------------|-----------------|
|-----12---10------5-|-----8---7-----0-|---------------0-|---------------8-|
|---------------12-5-|-------------8-0-|---7h8---3h7---0-|---7h8---3h7---8-|
|---8----8----8----5-|---5---5---5---0-|-------0-----0-0-|-------0-----0-8-|

|--------------------|-----------------|-----------------|-----------------|
|--------------------|-----------------|-----------------|-----------------|
|--------------------|-----------------|-----------------|-----------------|
|-----12---10------5-|-----8---7-----0-|---------------0-|---------------8-|
|---------------12-5-|-------------8-0-|---7h8---3h7---0-|---7h8---3h7---8-|
|---8----8----8----5-|---5---5---5---0-|-------0-----0-0-|-------0-----0-8-|

Guitar 1
|--------------------|-----------------|-----------------|-----------------|
|--------------------|-----------------|-----------------|-----------------|
|--------------------|-----------------|-----------------|-----------------|
|-----12---10------5-|-----8---7-----0-|---------------0-|---------------8-|
|---------------12-5-|-------------8-0-|---7h8---3h7---0-|---7h8---3h7---8-|
|---8----8----8----5-|---5---5---5---0-|-------0-----0-0-|-------0-----0-8-|

Guitar 2
|-------------------|-----------------|-----------------|-----------------|
|-------------------|-----------------|-----------------|-----------------|
|-----10---9--------|-----7---5-------|-----------------|-----------------|
|--------------10-5-|-------------7-0-|---------------0-|---------------8-|
|-----------------5-|---------------0-|---7h8---3h7---0-|---7h8---3h7---8-|
|---8----8---8----5-|---5---5---5---0-|-------0-----0-0-|-------0-----0-8-|

Guitar 1
|--------------------|-----------------|-----------------|-----------------|
|--------------------|-----------------|-----------------|-----------------|
|--------------------|-----------------|-----------------|-----------------|
|-----12---10------5-|-----8---7-----3-|-----7---5-------|-----------------|
|---------------12-5-|-------------8-3-|-------------7---|-7-7-7-7-7\------|
|---8----8----8----5-|---5---5---5---3-|---3---3---3---3-|-7-7-7-7-7\------|

Guitar 2
|-------------------|-----------------|-----------------|-----------------|
|-------------------|-----------------|-----------------|-----------------|
|-----10---9--------|-----7---5-------|-----5---3-------|-----------------|
|-----------------5-|-------------7-3-|-------------5---|-----------------|
|--------------10-5-|---------------3-|-----------------|-7-7-7-7-7\------|
|---8----8---8----5-|---5---5---5---3-|---3---3---3---3-|-7-7-7-7-7\------|


Repeat Intro/Chorus


Repeat Verse


Repeat Pre-chorus


Repeat Chorus


Breakdown
Both guitars
|-----------------------------------------------------------------|
|-----------------------------------------------------------------|
|-----------------------------------------------------------------|
|-----------------------------------------------------------------|
|-5-----5-----5-----5-----5-----5-----5-----5---------------------|
|---7p0---8p0---7p0---8p0---7p0---8p0---7p0---8p0-8p5-0-7p3-0-5h7-|

|-----------------------------------------------------------------|
|-----------------------------------------------------------------|
|-----------------------------------------------------------------|
|-----------------------------------------------------------------|
|-5-----5-----5-----5-----5-----5-----5-----5---------------------|
|---7p0---8p0---7p0---8p0---7p0---8p0---7p0---8p0-8p5-0-7p3-0-5h7-|

  NH
|-----------------------------------------------------------------|
|-----------------------------------------------------------------|
|-----------------------------------------------------------------|
|-----------------------------------------------------------------|
|-5-----5-----5-----5-----5-----5-----5-----5---------------------|
|---------8p0---7p0---8p0---7p0---8p0---7p0---8p0-8p5-0-7p3-0-5h7-|

|-----------------------------------------------------------------|
|-----------------------------------------------------------------|
|-----------------------------------------------------------------|
|-----------------------------------------------------------------|
|-5-----5-----5-----5-----5-----5-----5-----5---------------------|
|---7p0---8p0---7p0---8p0---7p0---8p0---7p0---8p0-8p5-0-7p3-0-5h7-|


Pre-solo
Guitar 1
|---------------------------------|
|---------------------------------|
|---------------------------------|
|-0-0-0-0-0-0-0-0-0-0-0-0-0-0-0-0-|
|-0-0-0-0-0-0-0-0-0-0-0-0-0-0-0-0-|
|-0-0-0-0-0-0-0-0-0-0-0-0-0-0-0-0-|

Guitar 2
|-------------------------------------------------|
|-------------------------------------------------|
|-10-10-10-10-10-10-10-10-12-12-12-12-14-14-14-14-|
|-------------------------------------------------|
|--8--8--8--8--8--8--8--8-10-10-10-10-12-12-12-12-|
|-------------------------------------------------|

Guitar 1
|---------------------------------|
|---------------------------------|
|---------------------------------|
|-3-3-3-3-3-3-3-3-3-3-3-3-3-3-3-3-|
|-3-3-3-3-3-3-3-3-3-3-3-3-3-3-3-3-|
|-3-3-3-3-3-3-3-3-3-3-3-3-3-3-3-3-|

Guitar 2
|-------------------------17-13-------------------|
|-------------------18-17-------17----------------|
|-17-14----14-17-14----------------14-17-14----14-|
|-------15----------------------------------15----|
|-------------------------------------------------|
|-------------------------------------------------|

Guitar 1
|---------------------------------|
|---------------------------------|
|---------------------------------|
|-3-3-3-3-3-3-3-3-3-3-3-3-3-3-3-3-|
|-3-3-3-3-3-3-3-3-3-3-3-3-3-3-3-3-|
|-3-3-3-3-3-3-3-3-3-3-3-3-3-3-3-3-|

Guitar 2
|-------------------17/20\17-13-------------------|
|-------------------------------17----------------|
|-17-14----14-17-14----------------14-17-14----14-|
|-------15----------------------------------15----|
|-------------------------------------------------|
|-------------------------------------------------|

Guitar 1
|---------------------------------|
|---------------------------------|
|---------------------------------|
|-5-5-5-5-5-5-5-5-5-5-5-5-5-5-5-5-|
|-3-3-3-3-3-3-3-3-3-3-3-3-3-3-3-3-|
|---------------------------------|

Guitar 2
|----------------20---15---17---|
|------17---18------------------|
|-17----------------------------|
|-------------------------------|
|-------------------------------|
|-------------------------------|

Solo (MKH)
Guitar 1
|-----------------------------------------------------------------|
|-----------------------------------------------------------------|
|-----------------------------------------------------------------|
|-----------------------------------------------------------------|
|-/8~~~~~~-----8~~~--8~~~--8~~~------/8---7---8--10---8---7---8---|
|-----------------------------------------------------------------|
|
|Harmony
|-----------------------------------------------------------------|
|-----------------------------------------------------------------|
|-----------------------------------------------------------------|
|-/7~~~~~~-----7~~~--7~~~--7~~~------/7---5---7---8---7---5---7---|
|-----------------------------------------------------------------|
|-----------------------------------------------------------------|

Guitar 1
|-----------------------------------------------------------------|
|-----------------------------------------------------------------|
|-/10~~~~~----10~~~-10~~~-10~~~-----/10---9--10---9tr10-----------|
|-------------------------------------------------------10~~~~----|
|-----------------------------------------------------------------|
|-----------------------------------------------------------------|
|
|Harmony
|-----------------------------------------------------------------|
|-/10~~~~~----10~~~-10~~~-10~~~-----/10---8--10---8tr10-----------|
|-------------------------------------------------------9~~~~~----|
|-----------------------------------------------------------------|
|-----------------------------------------------------------------|
|-----------------------------------------------------------------|

|-13p10--10-------------------------------------------|
|------13--13p10-13p10--10----------------------------|
|---------------------12--12p10-12p10--10-------------|
|------------------------------------12--12p10-12~~---|
|-----------------------------------------------------|
|-----------------------------------------------------|

|-10~~~~~~~----10-12-12BU(13)~~-10h12p10--------------|
|-13BU(15)~------------------------------13BU(15)~~~--|
|-----------------------------------------------------|
|-----------------------------------------------------|
|-----------------------------------------------------|
|-----------------------------------------------------|

|-17p13--13-------------------------------------------|
|------17--17p13-17p13--13----------------------------|
|---------------------15--15p14-15p14--14-------------|
|------------------------------------15--15p14-15~~~--|
|-----------------------------------------------------|
|-----------------------------------------------------|

|-/13---12---13---12BU(13)(12)-----|----------------|
|-------------------------------13-|-BU(15)~~~~~~---|
|----------------------------------|----------------|
|----------------------------------|----------------|
|----------------------------------|----------------|
|----------------------------------|----------------|
|
|Harmony
|-/12---10---12---10BU(12)(10)-----|----------------|
|-------------------------------10-|-BU(12)~~~~~~---|
|----------------------------------|----------------|
|----------------------------------|----------------|
|----------------------------------|----------------|
|----------------------------------|----------------|

Solo rhythm
Guitar 2
|-----------------------------------------------------------------|
|-----------------------------------------------------------------|
|-----------------------------------------------------------------|
|-----------------------------------------------------------------|
|-5-----5-----5-----5-----5-----5-----5-----5---------------------|
|---7p0---8p0---7p0---8p0---7p0---8p0---7p0---8p0-8p5-0-7p3-0-5h7-|

|-----------------------------------------------------------------|
|-----------------------------------------------------------------|
|-----------------------------------------------------------------|
|-----------------------------------------------------------------|
|-5-----5-----5-----5-----5-----5-----5-----5---------------------|
|---7p0---8p0---7p0---8p0---7p0---8p0---7p0---8p0-8p5-0-7p3-0-5h7-|

  NH
|-----------------------------------------------------------------|
|-----------------------------------------------------------------|
|-----------------------------------------------------------------|
|-----------------------------------------------------------------|
|-5-----5-----5-----5-----5-----5-----5-----5---------------------|
|---------8p0---7p0---8p0---7p0---8p0---7p0---8p0-8p5-0-7p3-0-5h7-|

|-----------------------------------------------------------------|
|-----------------------------------------------------------------|
|-----------------------------------------------------------------|
|---------------------------------------------------------------8-|
|-5-----5-----5-----5-----5-----5-----5-----5-------------------8-|
|---7p0---8p0---7p0---8p0---7p0---8p0---7p0---8p0---------------8-|


Repeat Pre-chorus


Repeat Chorus


Outro
Both guitars
|-------------------------------|
|-------------------------------|
|-------------------------------|
|-------------------------------|
|-------0--------0--10----------|
|-0-0-0-0--0-0-0-0-----12-10-12-|

|-------------------------------|
|-------------------------------|
|-------------------------------|
|-------------------------------|
|-------0--------0--10----------|
|-0-0-0-0--0-0-0-0-----12-10-12-|

|-------------------------------|
|-------------------------------|
|-------------------------------|
|-------------------------------|
|-------0--------0--10----------|
|-0-0-0-0--0-0-0-0-----12-10-12-|

|-----------------------------------------|
|-----------------------------------------|
|-----------------------------------------|
|-----------------------------------------|
|-----------------------------------------|
|-8-8-8-8-8-8-8-8-10-10-10-10-14-14-14-14-|

Guitar 1
||-------------------------------|
|o-------------------------------|
||-------------------------------|
||-------------------------------|
|o-------0--------0--10----------|
||-0-0-0-0--0-0-0-0-----12-10-12-|

|-------------------------------|
|-------------------------------|
|-------------------------------|
|-------------------------------|
|-------0--------0--10----------|
|-0-0-0-0--0-0-0-0-----12-10-12-|

|-------------------------------|
|-------------------------------|
|-------------------------------|
|-------------------------------|
|-------0--------0--10----------|
|-0-0-0-0--0-0-0-0-----12-10-12-|

|-----------------------------------------||
|-----------------------------------------o|
|-----------------------------------------||
|-----------------------------------------||
|-----------------------------------------o|
|-8-8-8-8-8-8-8-8-10-10-10-10-14-14-14-14-||

Guitar 2
||---------------------------------------|
||---------------------------------------|
|o-11-11-11-11--11-11-11-11--14-14-14-14-|
||---------------------------------------|
|o--9--9--9--9---9--9--9--9--11-11-11-11-|
||---------------------------------------|

|-----------------------------------|
|-----------------------------------|
|-11-11-11-11--11-11-11-11--5-5-5-5-|
|-----------------------------------|
|--9--9--9--9---9--9--9--9--3-3-3-3-|
|-----------------------------------|

|---------------------------------------|
|---------------------------------------|
|-11-11-11-11--11-11-11-11--14-14-14-14-|
|---------------------------------------|
|--9--9--9--9---9--9--9--9--11-11-11-11-|
|---------------------------------------|

|-----------------------------------------||
|-----------------------------------------o|
|-----------------------------------------||
|-----------------------------------------||
|-----------------------------------------o|
|-8-8-8-8-8-8-8-8-10-10-10-10-14-14-14-14-||


Both guitars
|----------------|
|--------3-------|
|--------2-------|
|--------0-------|
|-0-0-0--0-------|
|-0-0-0--0-------|

Please Rate :)


BLACK


Hammer on:    h
Pull off:     p
Slide up:     /
Slide down:   \
Vibrato:      ~~~
Bend up:      BU(?)
Muted note:   x

Guitar 1: Matt Heafy
Guitar 2: Corey Beaulieu


Intro Verse
Guitar 1
|---------------------------------|-----------------------------|
|---------------------------------|-----------------------------|
|---------------------------------|-----------------------------|
|---------------------------------|-----------------------------|
|-4-4-4-4-----5-5-5-5-----3BU(4)--|-4-4-4-4-----5-5-----7-7-----|
|-0-0-0-0-----0-0-0-0-----3BU(4)--|-0-0-0-0-----0-0-----0-0-----|

Guitar 2
|---------------------------------|-----------------------------|
|---------------------------------|-----------------------------|
|---------------------------------|-----------------------------|
|---------------------------------|-----------------------------|
|-------------------------3BU(4)--|-4-4-4-4-----5-5-----7-7-----|
|-------------------------3BU(4)--|-0-0-0-0-----0-0-----0-0-----|

Both Guitars
||---------------------------------|-----------------------------||
|o---------------------------------|-----------------------------o| x3
||---------------------------------|-----------------------------||
||---------------------------------|-----------------------------||
|o-4-4-4-4-----5-5-5-5-----3BU(4)--|-4-4-4-4-----5-5-----7-7-----o|
||-0-0-0-0-----0-0-0-0-----3BU(4)--|-0-0-0-0-----0-0-----0-0-----||

Guitar 1
|----------------------------------|-----------------------------|
|----------------------------------|-----------------------------|
|----------------------------------|-----------------------------|
|----------------------------------|-----------------------------|
|-----5p0---------5p0---------5p0--|-0-----0-----0---------12\---|
|-0h3---------0h3---------0h3------|-0-----0-----0-0-0-0-0-12\---|

Guitar 2
|----------------------------------|-----------------------------|
|----------------------------------|-----------------------------|
|----------------------------------|-----------------------------|
|----------------------------------|-0-----0-----0---------12\---|
|----------------------------------|-0-----0-----0---------12\---|

Verse 1
Both Guitars
||----------------------------------|-----------------------------|
|o----------------------------------|-----------------------------|
||----------------------------------|-----------------------------|
||----------------------------------|-----------------------------|
|o-----5p0---------5p0---------5p0--|-----5p0---------------------|
||-0h3---------0h3---------0h3------|-0h3---------8-8-8-8-5-5-5-5-|

|------------------------------------|---------------------------------||
|------------------------------------|---------------------------------o| x2
|------------------------------------|---------------------------------||
|------------------------------------|---------------------------------||
|-----10p0---------10p0---------8p0--|-----8p0-------------------------o|
|-0h8----------0h8----------0h7------|-0h7---------7-7-7-7-11-11-11-11-||

Chorus
Guitar 1
|---------------------------------|------------------------------------|
|---------------------------------|------------------------------------|
|---------------------7-6-----x-3-|---3-3-3-3-3-3-3--------------------|
|-0-----------2-3-------------x-3-|---3-3-3-3-3-3-3-5BU(7)(5)-3-2~~~---|
|-0-----------2-3-----5-4-----x-1-|---1-1-1-1-1-1-1--------------------|
|-0-------0-0-2-3-----------------|------------------------------------|

Guitar 2
|---------------------------------|------------------------------------|
|---------------------------------|------------------------------------|
|---------------------7-6-----x-3-|---3-3-3-3-3-3-3--------------------|
|-0-----------2-3-------------x-3-|---3-3-3-3-3-3-3--------------------|
|-0-----------2-3-----5-4-----x-1-|---1-1-1-1-1-1-1-7BU(8)(7)-5-4~~~---|
|-0-------0-0-2-3-----------------|------------------------------------|

Both Guitars
|---------------------------------|---------------------------------|
|---------------------------------|---------------------------------|
|---------------------7-6-----6-3-|---3-3-3-3-3-3-3-6-6-6-6-9-9-9-9-|
|-0-----------2-3---------------3-|---3-3-3-3-3-3-3-----------------|
|-0-----------2-3-----5-4-----4-1-|---1-1-1-1-1-1-1-4-4-4-4-7-7-7-7-|
|-0-------0-0-2-3-----------------|---------------------------------|

Repeat Intro Verse

Repeat Verse 1

Repeat Chorus

Repeat Intro Verse

Pre-Breakdown
Guitar 1
||------------------------------------------||
|o------------------------------------------o| x3
||------------------------------------------||
||------------------------------------------||
|o------------------------------------------o|
||-0-0-0-3BU(5)-0-----0-0-0-3BU(5)-0-3BU(5)-||

|------------------------------------------|
|------------------------------------------|
|------------------------------------------|
|------------------------------------------|
|---------------------------------12\------|
|-0-0-0-3BU(5)-0------------------12\------|

Breakdown Part 1
Both Guitars
||------------------------------------------||
|o------------------------------------------o| x4
||------------------------------------------||
||------------------------------------------||
|o------------------------------------------o|
||-0-0-0-3BU(5)-0-----0-0-0-3BU(5)-0-3BU(5)-||

||-------------------------------------------||
|o-------------------------------------------o| x2
||-------------------------------------------||
||-------------------------------------------||
|o-------------------------------------------o|
||-0-0-0-8BU(10)-0-----0-0-0-7BU(8)-0-7BU(8)-||

||------------------------------------------||
|o------------------------------------------o| x2
||------------------------------------------||
||------------------------------------------||
|o------------------------------------------o|
||-0-0-0-3BU(5)-0-----0-0-0-3BU(5)-0-3BU(5)-||

Breakdown Part 2
Guitar 2 (Guitar 1 plays Breakdown Pt 1)
|-----------------------------------------------------------------|
|-----------------------------------------------------------------|
|-7-7-7-7-7-7-7-7-7-7-7-7-7-7-7-7-6-6-6-6-6-6-6-6-6-6-6-6-6-6-6-6-|
|-----------------------------------------------------------------|
|-5-5-5-5-5-5-5-5-5-5-5-5-5-5-5-5-4-4-4-4-4-4-4-4-4-4-4-4-4-4-4-4-|
|-----------------------------------------------------------------|

|-----------------------------------------------------------------|
|-----------------------------------------------------------------|
|-5-5-5-5-5-5-5-5-5-5-5-5-5-5-5-5-4-4-4-4-4-4-4-4-4-4-4-4-4-4-4-4-|
|-----------------------------------------------------------------|
|-3-3-3-3-3-3-3-3-3-3-3-3-3-3-3-3-2-2-2-2-2-2-2-2-2-2-2-2-2-2-2-2-|
|-----------------------------------------------------------------|

Breakdown Part 3
Guitar 2
|-------------------------|-------------------------|
|-------------------------|-------------------------|
|-14-14-14-14-14-14-14-14-|-13-13-13-13-13-13-13-13-|
|-------------------------|-------------------------|
|-12-12-12-12-12-12-12-12-|-11-11-11-11-11-11-11-11-|
|-------------------------|-------------------------|

|-------------------------|-----------------|
|-------------------------|-----------------|
|-10-10-10-10-10-10-10-10-|-9-9-9-9-9-9-9-9-|
|-------------------------|-----------------|
|--8--8--8--8--8--8--8--8-|-7-7-7-7-7-7-7-7-|
|-------------------------|-----------------|

|-----------------|-----------------|
|-----------------|-----------------|
|-7-7-7-7-7-7-7-7-|-6-6-6-6-6-6-6-6-|
|-----------------|-----------------|
|-5-5-5-5-5-5-5-5-|-4-4-4-4-4-4-4-4-|
|-----------------|-----------------|

|-----------------|-----------------|
|-----------------|-----------------|
|-5-5-5-5-5-5-5-5-|-4-4-4-4-4-4-4-4-|
|-----------------|-----------------|
|-3-3-3-3-3-3-3-3-|-2-2-2-2-2-2-2-2-|
|-----------------|-----------------|

Solo
Guitar 2 (Rhythm Guitar plays Breakdown Pt 1)
||-------------------------||
||-------------------------|| x7
||-19-19-19-19-19-19-19-19-||
||-------------------------||
||-17-17-17-17-17-17-17-17-||
||-------------------------||

|-------------------------|
|-------------------------|
|-22-22-22-22-22-22-22-22-|
|-------------------------|
|-20-20-20-20-20-20-20-20-|
|-------------------------|

|-------------------------------------------------|
|-------------------------------------------------|
|-19-19-19-19-19-19-19-19-18-18-18-18-18-18-18-18-|
|-------------------------------------------------|
|-17-17-17-17-17-17-17-17-16-16-16-16-16-16-16-16-|
|-------------------------------------------------|

|-------------------------------------------------|
|-------------------------------------------------|
|-19-19-19-19-19-19-19-19-14-14-14-14-14-14-14-14-|
|-------------------------------------------------|
|-17-17-17-17-17-17-17-17-12-12-12-12-12-12-12-12-|
|-------------------------------------------------|

|-------------------------------------------------|
|-17-18-17-15-17-15----15-17-18-17-15-17-15----15-|
|-------------------15----------------------15----|
|-------------------------------------------------|
|-------------------------------------------------|
|-------------------------------------------------|
|
| Harmony ^^^
|-15-17-15-13-15-13----13-15-17-15-13-15-13----13-|
|-------------------15----------------------15----|
|-------------------------------------------------|
|-------------------------------------------------|
|-------------------------------------------------|
|-------------------------------------------------|

|-------------------------------------------------------------------------|
|-------------------------------------------------------10-12-13-10-12-13-|
|-------------------------------------10-11-12-10-11-12-------------------|
|-------------------10-11-12-10-11-12-------------------------------------|
|-10-11-12-10-11-12-------------------------------------------------------|
|-------------------------------------------------------------------------|

|-------------|
|-15~~~~~\----|
|-------------|
|-------------|
|-------------|
|-------------|
|
| Harmony ^^^
|-13~~~~~\----|
|-------------|
|-------------|
|-------------|
|-------------|
|-------------|

Repeat Chorus x2

Repeat Intro Verse

Repeat Breakdown Part 2 over Intro Verse


That’s all,
Please Rate and Enjoy :)



A SKYLINE's SEVERANCE


Hammer on:      h
Pull off:       p
Slide up:       /
Slide down:     \
Bend up:        BU(?)
Tapped note:    T
Vibrato:        ~~~
Pinch Harmonic: PH
Dive Bomb:      DB

Guitar 1:        Matt Heafy
Guitar 2:        Corey Beaulieu
Guitar 3:        Corey Beaulieu


_________________________________________________________________________


Intro
Both guitars
|--------|
|--------|
|--------|
|--------|
|--------|
|-12\----|

Guitar 1
|---------------------------------|---------------------------------|
|---------------------------------|---------------------------------|
|---------------------------------|---------------------------------|
|-0-------------------------------|-8-------------------------------|
|-0-------------------------------|-8-------------------------------|
|-0-------------------------------|-8-------------------------------|
|
|Guitar 2
|---------------------------------|---------------------------------|
|---------------------------------|---------------------------------|
|-------------9---9/10------------|-------7-----9---9/10----9-------|
|-------7-------------------------|-8-------------------------------|
|-5-------------------------------|---------------------------------|
|---------------------------------|---------------------------------|

Guitar 1
|---------------------------------|---------------------------------|
|---------------------------------|---------------------------------|
|---------------------------------|---------------------------------|
|-8-------------------------------|-7-----------------------5-------|
|-8-------------------------------|-7---------------4p0h4h7---7p4p0-|
|-8-------------------------------|-7-------------------------------|
|
|Guitar 2
|---------------------------------|---------------------------------|
|---------------------------------|---------------------------------|
|-------7-----9---9/15------------|--------10-------9-------6-------|
|-8-------------------------------|-7-------------------------------|
|---------------------------------|---------------------------------|
|---------------------------------|---------------------------------|

The rhythm then changes to the below
Whilst guitar 2 continues to play the lead
|---------------------------------|---------------------------------|
|---------------------------------|---------------------------------|
|---------------------------------|---------------------------------|
|-0-----0-------------0---0---0---|-8-----8-------------8---8---8---|
|-0-----0-------------0---0---0---|-8-----8-------------8---8---8---|
|-0---0-0---0-0-0-0-0-0---0---0---|-8---8-8---8-8-8-8-8-8---8---8---|

|---------------------------------|---------------------------------|
|---------------------------------|---------------------------------|
|---------------------------------|---------------------------------|
|-8-----8-------------8---8---8---|-7-----7-----------------5-------|
|-8-----8-------------8---8---8---|-7-----7---------4p0h4h7---7p4p0-|
|-8---8-8---8-8-8-8-8-8---8---8---|-7---7-7---7-7-7-----------------|

Lead harmony
Guitar 3
|---------------------------------|---------------------------------|
|---------------------------------|---------------------------------|
|------------12--12/14------------|-------10----12--12/14----12-----|
|------10-------------------------|-12------------------------------|
|-8-------------------------------|---------------------------------|
|---------------------------------|---------------------------------|

|---------------------------------|---------------------------------|
|---------------------------------|---------------------------------|
|-------10----12--12/19-----------|--------14-------12-------9------|
|-12------------------------------|-10------------------------------|
|---------------------------------|---------------------------------|
|---------------------------------|---------------------------------|

_________________________________________________________________________


Verse 1
Both guitars
|---------------------------------|---------------------------------|
|---------------------------------|---------------------------------|
|---------------------------------|---------------------------------|
|---------------------------------|---------------------------------|
|-5-------\-------0---------------|---------------------------------|
|-3-------\-------0---------------|---------------------------------|

|---------------------------------|---------------------------------|
|---------------------------------|---------------------------------|
|---------------------------------|---------------------------------|
|---------------------------------|---------------------------------|
|---------------------------------|-0---5-\-4-------0---0-0---0-0-0-|
|---------------------------------|-0---3-\-2-------0---0-0---0-0-0-|

Both guitars
|---------------------------------|---------------------------------|
|---------------------------------|---------------------------------|
|---------------------------------|---------------------------------|
|---------------------------------|---------------------------------|
|/5-------4-------0-0---0---0-0-0-|-0-0/5---4-------0-0---0---0-0-0-|
|/3-------2-------0-0---0---0-0-0-|-0-0/3---2-------0-0---0---0-0-0-|

|---------------------------------|---------------------------------|
|---------------------------------|---------------------------------|
|---------------------------------|---------------------------------|
|---------------------------------|---------------------------------|
|/5-------4-------0-0---0---0-0-0-|-0-0/5---4-------0---0-0---0-0-0-|
|/3-------2-------0-0---0---0-0-0-|-0-0/3---2-------0---0-0---0-0-0-|

Both guitars
|----------------------------------|----------------------------------|
|----------------------------------|----------------------------------|
|----------------------------------|----------------------------------|
|----------------------------------|----------------------------------|
|/10-------8-------0-0---0---0-0-0-|-0-0/10---8-------0-0---0---0-0-0-|
|-/8-------7-------0-0---0---0-0-0-|-0-0-/8---7-------0-0---0---0-0-0-|

Guitar 1
|----------------------------------|----------------------------------|
|----------------------------------|----------------------------------|
|----------------------------------|----------------------------------|
|----------------------------------|----------------------------------|
|/10-------8-------0-0---0---0-0-0-|-0-0/10---8-------5---4---7PH-----|
|/-8-------7-------0-0---0---0-0-0-|-0-0-/8---7-----------------------|

Guitar 2
|----------------------------------|----------------------------------|
|----------------------------------|----------------------------------|
|----------------------------------|----------------------------------|
|----------------------------------|----------------------------------|
|/10-------8-------0-0---0---0-0-0-|-0-0/10---8-----------------------|
|/-8-------7-------0-0---0---0-0-0-|-0-0-/8---7-------8---7---5PH-----|

_________________________________________________________________________


Chorus 1
Guitar 1
||---------------------------------|---------------------------------||
|o---------------------------------|---------------------------------o|
||---------------------------------|---------------------------------||
||---------------------------------|---------------------------------||
|o-8-------------------------------|-7-------------------------------o|
||-8-------------------------------|-7-------------------------------||
|
|Guitar 2
||---------------------------------|---------------------------------||
|o---------------------------------|---------------------------------o|
||---------------------------------|-----------------------6---------||
||-7-----8-----7---5-----7-----5---|-3-----5-----3---2-----------2---||
|o---------------------------------|---------------------------------o|
||---------------------------------|---------------------------------||

Both guitars
1st and 3rd ending
|---------------------------------|---------------------------------|
|---------------------------------|---------------------------------|
|---------------------------------|---------------------------------|
|-3---------------5---------------|-7---------------7---------------|
|-5---0-0---0---0-7---0-0---0-0-0-|-8---0-0---0---0-9---0-0---0-0-0-|
|-----0-0---0---0-----0-0---0-0-0-|-----0-0---0---0-----0-0---0-0-0-|

2nd ending
|---------------------------------|---------------------------------|
|---------------------------------|---------------------------------|
|---------------------------------|---------------------------------|
|-3---------------2---------------|-5---------------3---------------|
|-5---0-0---0---0-4---0-0---0-0-0-|-7---0-0---0---0-5---0-0---0-0-0-|
|-----0-0---0---0-----0-0---0-0-0-|-----0-0---0---0-----0-0---0-0-0-|

_________________________________________________________________________


Repeat Verse 1

Repeat Chorus 1

_________________________________________________________________________


Verse 2
Guitar 1
|---------------------------------|---------------------------------|
|---------------------------------|---------------------------------|
|---------------------------------|---------------------------------|
|-3-------------------------------|-3-------------------------------|
|-------5-------5-------5---7-7-7-|-------5-------5---7-7-7-4-4-4-4-|
|---0-0---0-2h3---0-2h3---0-5-5-5-|---0-0---0-2h3---0-5-5-5-2-2-2-2-|
|
|Guitar 2
|---------------------------------|---------------------------------|
|---------------------------------|---------------------------------|
|---------------------------------|---------------------------------|
|---------------------------------|---------------------------------|
|---------------------------7-7-7-|-------------------7-7-7-4-4-4-4-|
|---------------------------5-5-5-|-------------------5-5-5-2-2-2-2-|

Guitar 1
|---------------------------------|---------------------------------|
|---------------------------------|---------------------------------|
|---------------------------------|---------------------------------|
|-3-------------------------------|---------------------------------|
|-------5-------5-------5---7-7-7-|-5-5-5-5-5-5-5-5-7-7-7-7-4-4-4-4-|
|---0-0---0-2h3---0-2h3---0-5-5-5-|-3-3-3-3-3-3-3-3-5-5-5-5-2-2-2-2-|
|
|Guitar 2
|---------------------------------|---------------------------------|
|---------------------------------|---------------------------------|
|---------------------------------|---------------------------------|
|---------------------------------|---------------------------------|
|---------------------------7-7-7-|-5-5-5-5-5-5-5-5-7-7-7-7-4-4-4-4-|
|---------------------------5-5-5-|-3-3-3-3-3-3-3-3-5-5-5-5-2-2-2-2-|

_________________________________________________________________________


Verse 3
Both guitars
|---------------------------------|---------------------------------|
|---------------------------------|---------------------------------|
|---------------------------------|---------------------------------|
|-3-------------------------------|-3-------------------------------|
|-------5-------5-------5---7-7-7-|-------5-------5---7-7-7-4-4-4-4-|
|---0-0---0-2h3---0-2h3---0-5-5-5-|---0-0---0-2h3---0-5-5-5-2-2-2-2-|

|---------------------------------|---------------------------------|
|---------------------------------|---------------------------------|
|---------------------------------|---------------------------------|
|-3-------------------------------|---------------------------------|
|-------5-------5-------5---7-7-7-|-5-5-5-5-5-5-5-5-7-7-7-7-4-4-4-4-|
|---0-0---0-2h3---0-2h3---0-5-5-5-|-3-3-3-3-3-3-3-3-5-5-5-5-2-2-2-2-|

_________________________________________________________________________


Solo 1
Guitar 1 (Rhythm)
|-------------------------|---------------------|
|-------------------------|---------------------|
|-------------------------|---------------------|
|-------------------------|---------------------|
|-------5-----------4-----|-------5-------------|
|-0-0-0---0-0-2-2-2---2-2-|-3-3-3---3-3-555-555-|

Guitar 2 (Lead)
|----------------------------|---------------------------|
|-------------10-----------8-|-------------10-11109------|
|-10-7---7-10----9-6---6-9---|-10-7---7-10----------1097-|
|------7-------------7-------|------8--------------------|
|----------------------------|---------------------------|
|----------------------------|---------------------------|

|----------------------------|---------------------------------|
|-------------10-----------8-|-------------10------10----10-13-|
|-10-7---7-10----9-6---6-9---|-10-7---7-10----9-12----12-------|
|------7-------------7-------|------8--------------------------|
|----------------------------|---------------------------------|
|----------------------------|---------------------------------|

|-10-------------9-----------|-10-------12-------9-------------|
|-13BU(15)-------12BU(14)----|-13BU(15)-15BU(17)-12BU(14)------|
|----------------------------|---------------------------------|
|----------------------------|---------------------------------|
|----------------------------|---------------------------------|
|----------------------------|---------------------------------|

|-13-------------12----------|-13-------15-------12------------|
|-16BU(18)-------15BU(17)----|-16BU(18)-18BU(20)-15BU(17)------|
|----------------------------|---------------------------------|
|----------------------------|---------------------------------|
|----------------------------|---------------------------------|
|----------------------------|---------------------------------|

|---------------------------------------------------|
|---------------------------------------------------|
|---------------------------------------------------|
|-------------7-8-10-7-8-10-------------5-7-8-5-7-8-|
|-5-7-8-5-7-8---------------4-5-7-4-5-7-------------|
|---------------------------------------------------|

|---------------------------------------------|
|----------------------------11---8-----------|
|-------------------------------------9---6---|
|-------------7-8-10--7-8-10------------------|
|-5-7-8-5-7-8---------------------------------|
|---------------------------------------------|

|---------------------------------------------------------|
|---------------8-10-11-8-10-11-------------6-8-10-6-8-10-|
|-7-9-10-7-9-10-----------------6-7-9-6-7-9---------------|
|---------------------------------------------------------|
|---------------------------------------------------------|
|---------------------------------------------------------|

Guitar 2
|----------------------|
|-11-10-8--------------|
|---------10-9-7-6-----|
|----------------------|
|----------------------|
|----------------------|
|
|Guitar 3
|-10-9------------------|
|------11-10-8----------|
|--------------10-9-----|
|-----------------------|
|-----------------------|
|-----------------------|

_________________________________________________________________________

Repeat Verse 3

_________________________________________________________________________

Solo 2
Guitar 1 (Rhythm)
|-------------------------|---------------------|
|-------------------------|---------------------|
|-------------------------|---------------------|
|-------------------------|---------------------|
|-------5-----------4-----|-------5-------------|
|-0-0-0---0-0-2-2-2---2-2-|-3-3-3---3-3-555-555-|

Guitar 2 (Lead)
|--------------------------|-------------------------|
|--------------------------|-------------------------|
|-------6-7----------7-9---|---------9-10---1097-----|
|-----7------------8-------|------11-------------753-|
|-5-8---------7-10---------|-8-12--------------------|
|--------------------------|-------------------------|

|--------------------------|-------------------------------|
|--------------------------|-------------------------------|
|-------6-7----------7-9---|---------9-10---7-9-10-9-10-12-|
|-----7------------8-------|------11-----------------------|
|-5-8---------7-10---------|-8-12--------------------------|
|--------------------------|-------------------------------|

|-------------------------------------|    |-17p13\10-13p10----|
|-10h11p10----------10h13p10----------|    |----------------10-|
|----------12p10h12----------12p10h12-| x3 |-------------------|
|-------------------------------------|    |-------------------|
|-------------------------------------|    |-------------------|
|-------------------------------------|    |-------------------|

|-------------------------------------|    |-17p13----13-------|
|-10h11p10----------10h13p10----------|    |-------15----15----|
|----------12p10h12----------12p10h12-| x3 |----------------14-|
|-------------------------------------|    |-------------------|
|-------------------------------------|    |-------------------|
|-------------------------------------|    |-------------------|

|-------------------------------------|    |-22-17----17-------|
|-17h18p17----------17h20p17----------|    |-------18----18----|
|----------19p17h19----------19p17h19-| x3 |----------------19-|
|-------------------------------------|    |-------------------|
|-------------------------------------|    |-------------------|
|-------------------------------------|    |-------------------|

|-------------------------------------|    |-20BU(22)-20BU(22)-|
|-17h18p17----------17h20p17----------|    |-------------------|
|----------19p17h19----------19p17h19-| x3 |-------------------|
|-------------------------------------|    |-------------------|
|-------------------------------------|    |-------------------|
|-------------------------------------|    |-------------------|

_________________________________________________________________________


Chorus 2
Both guitars
|-------------------------------------|---------------------------------|
|-------------------------------------|---------------------------------|
|-------------------------------------|---------------------------------|
|-8-8-8-8-8-8-8-8-7-7-7-7-11-11-11-11-|-3-------5-------7-------7-------|
|-8-8-8-8-8-8-8-8-7-7-7-7-12-12-12-12-|-5-0-0-0-7-0-0-0-8-0-0-0-9-0-0-0-|
|-8-8-8-8-8-8-8-8-7-7-7-7-11-11-11-11-|---0-0-0---0-0-0---0-0-0---0-0-0-|

|-------------------------------------|---------------------------------|
|-------------------------------------|---------------------------------|
|-------------------------------------|---------------------------------|
|-8-8-8-8-8-8-8-8-7-7-7-7-11-11-11-11-|-3-------2-------5-------3-------|
|-8-8-8-8-8-8-8-8-7-7-7-7-12-12-12-12-|-5-0-0-0-4-0-0-0-7-0-0-0-5-0-0-0-|
|-8-8-8-8-8-8-8-8-7-7-7-7-11-11-11-11-|---0-0-0---0-0-0---0-0-0---0-0-0-|

|-------------------------------------|---------------------------------|
|-------------------------------------|---------------------------------|
|-------------------------------------|---------------------------------|
|-8-8-8-8-8-8-8-8-7-7-7-7-11-11-11-11-|-3-------5-------7-------7-------|
|-8-8-8-8-8-8-8-8-7-7-7-7-12-12-12-12-|-5-0-0-0-7-0-0-0-8-0-0-0-9-0-0-0-|
|-8-8-8-8-8-8-8-8-7-7-7-7-11-11-11-11-|---0-0-0---0-0-0---0-0-0---0-0-0-|

|-------------------------------------|
|-------------------------------------|
|-------------------------------------|
|-8-8-8-8-8-8-8-8-7-7-7-7-11-11-11-11-|
|-8-8-8-8-8-8-8-8-7-7-7-7-12-12-12-12-|
|-8-8-8-8-8-8-8-8-7-7-7-7-11-11-11-11-|

_________________________________________________________________________


Breakdown
(I honestly have no clue what effects)
(Are being used to make that noise in)
(The background)
Both guitars
|---------------------------------|---------------------------------|
|---------------------------------|---------------------------------|
|---------------------------------|---------------------------------|
|-3-------2-------5-------3-------|-3-------2-----------------------|
|-5-0-0-0-4-0-0-0-7-0-0-0-5-0-0-0-|-5-0-0-0-4-0-0-0-4-4-4-4-7-7-7-7-|
|---0-0-0---0-0-0---0-0-0---0-0-0-|---0-0-0---0-0-0-2-2-2-2-5-5-5-5-|

|---------------------------------|---------------------------------|
|---------------------------------|---------------------------------|
|---------------------------------|---------------------------------|
|-3-------2-------5-------3-------|-3-------2-----------------------|
|-5-0-0-0-4-0-0-0-7-0-0-0-5-0-0-0-|-5-0-0-0-4-0-0-0-7-7-7-7-4-4-4-4-|
|---0-0-0---0-0-0---0-0-0---0-0-0-|---0-0-0---0-0-0-5-5-5-5-2-2-2-2-|

|---------------------------------|---------------------------------|
|---------------------------------|---------------------------------|
|---------------------------------|------------------effects--------|
|-3-------2-------5-------3-------|-3-------2-----------------------|
|-5-0-0-0-4-0-0-0-7-0-0-0-5-0-0-0-|-5-0-0-0-4-0-0-0-----------------|
|---0-0-0---0-0-0---0-0-0---0-0-0-|---0-0-0---0-0-0-----------------|

|---------------------------------|---------------------------------|
|---------------------------------|---------------------------------|
|---------------------------------|---------------------------------|
|-3-------2-------5-------3-------|-3-------2-----------------------|
|-5-0-0-0-4-0-0-0-7-0-0-0-5-0-0-0-|-5-0-0-0-4-0-0-0-7-7-7-7-4-4-4-4-|
|---0-0-0---0-0-0---0-0-0---0-0-0-|---0-0-0---0-0-0-5-5-5-5-2-2-2-2-|

|---------------------------------|---------------------------------|
|---------------------------------|---------------------------------|
|---------------------------------|---------------------------------|
|-3-------2-------5-------3-------|-3-------2-----------------------|
|-5-0-0-0-4-0-0-0-7-0-0-0-5-0-0-0-|-5-0-0-0-4-0-0-0-4-4-4-4-7-7-7-7-|
|---0-0-0---0-0-0---0-0-0---0-0-0-|---0-0-0---0-0-0-2-2-2-2-5-5-5-5-|

|---------------------------------|---------------------------------|
|---------------------------------|---------------------------------|
|---------------------------------|-------------------drum----------|
|-3-------2-------5-------3-------|-3-------2---------fill----------|
|-5-0-0-0-4-0-0-0-7-0-0-0-5-0-0-0-|-5-0-0-0-4-0-0-0-----------------|
|---0-0-0---0-0-0---0-0-0---0-0-0-|---0-0-0---0-0-0-----------------|

|---------------------------------|---------------------------------|
|---------------------------------|---------------------------------|
|---------------------------------|---------------------------------|
|-3-------2-------5-------3-------|-3-------2-----------------------|
|-5-0-0-0-4-0-0-0-7-0-0-0-5-0-0-0-|-5-0-0-0-4-0-0-0-4-4-4-4-7-7-7-7-|
|---0-0-0---0-0-0---0-0-0---0-0-0-|---0-0-0---0-0-0-2-2-2-2-5-5-5-5-|

|---------------------------------|---------------------------------|
|---------------------------------|---------------------------------|
|---------------------------------|---------------------------------|
|-3-------2-------5-------3-------|-3-------2-----------------------|
|-5-0-0-0-4-0-0-0-7-0-0-0-5-0-0-0-|-5-0-0-0-4-0-0-0-7-7-7-7-4-4-4-4-|
|---0-0-0---0-0-0---0-0-0---0-0-0-|---0-0-0---0-0-0-5-5-5-5-2-2-2-2-|

|---------------------------------|---------------------------------|
|---------------------------------|---------------------------------|
|---------------------------------|---------------------------------|
|-3-------2-------5-------3-------|-3-------2-----0effects----------|
|-5-0-0-0-4-0-0-0-7-0-0-0-5-0-0-0-|-5-0-0-0-4-0-0-0effects----------|
|---0-0-0---0-0-0---0-0-0---0-0-0-|---0-0-0---0-0-0effects----------|

That's all, please rate :)


ENSNARE THE SUN


Slide up:     /

Acoustic guitar 1: Matt Heafy
Acoustic guitar 2: Corey Beaulieu
Acoustic guitar 3: Matt Heafy (extra)

Matt's singing Intro
(No guitar, these are just the notations of what he sings)
|-14-----------15---|-17---18-17-15---17-15-|-14-------11---10-|
|-------------------|-----------------------|------------------|
|-11-----------12---|-14---15-14-12---14-12-|-11--------8----7-|
|-------------------|-----------------------|------------------|
|-------------------|-----------------------|------------------|
|-------------------|-----------------------|------------------|

-Break-

Verse
Acoustic guitar 1
(Plays through out verse)
|-10--------|
|-10--------|
|--7--------|
|--0--------|
|--0--------|
|--0--------|

Acoustic guitar 2

|-14----14--14-14----14--14-15--15-15-|-17----17--17-17--15----15--15-15---|
|-------------------------------------|------------------------------------|
|-11----11--11-11----11--11-12--12-12-|-14----14--14-14--12----12--12-12---|
|--0-----0---0--0-----0---0--0---0--0-|--0-----0---0--0---0-----0---0--0---|
|-------------------------------------|------------------------------------|
|-------------------------------------|------------------------------------|

|-14----14--14-14----14--14-11--11-11-|-10--10-8---8-10--10-11--11-10---8--|
|-------------------------------------|------------------------------------|
|-11----11--11-11----11--11--8---8--8-|--7---7-7---7--7---7--7---7--7---7--|
|--0-----0---0--0-----0---0--0---0--0-|--0---0-0---0--0---0--0---0--0---0--|
|-------------------------------------|------------------------------------|
|-------------------------------------|------------------------------------|

Acoustic guitar 3
(Plays through out verse)
|-----------|
|-----------|
|-/11-------|
|-----------|
|-/-9-------|
|---0-------|

Outro
Acoustic guitar 1
||-10--10-8---8-10--10-11--11-10---8--|| x3 |-10-|
|o------------------------------------o|    |----|
||--7---7-7---7--7---7--7---7--7---7--||    |--7-|
||--0---0-0---0--0---0--0---0--0---0--||    |--0-|
|o------------------------------------o|    |----|
||------------------------------------||    |----|

That's all, please rate :)


BUILT TO FALL


Hammer on:    h
Pull off:     p
Slide up:     /
Slide down:   \
Vibrato:      ~~~
Bend up:      BU(?)
Muted Note:   x 
Tapped Note:  T
Tremolo Dip:  TD
Hold Note:    ===

Guitar 1: Matt Heafy
Guitar 2: Corey Beaulieu


Intro
Guitar 1
|----------------|------------------|
|----------------|------------------|
|----------------|------------------|
|----------------|------------------|
|---8--------4-5-|---10-------7-----|
|-0---0----0-----|-8----8~--5---5~--|

Guitar 2
|----------------|------------------|
|----------------|------------------|
|----------------|------------------|
|----------------|------------------|
|---8------------|------------------|
|-0---0----------|------------------|

Guitar 1
|----------------|------------------|
|----------------|------------------|
|----------------|------------------|
|----------------|------------------|
|---8--------4-5-|---10-------7-----|
|-0---0----0-----|-8----8~--5---5~--|

Guitar 2
|----------------|------------------|
|----------------|------------------|
|----------------|------------------|
|----------------|------------------|
|---8------------|------------7-----|
|-0---0----------|----------5---5~--|


Verse 1
Both Guitars
||----------------|------------------||
|o----------------|------------------o| x6
||----------------|------------------||
||----------------|------------------||
|o---8--------4-5-|---10-------7-----o|
||-0---0----0-----|-8----8~--5---5~--||



Verse 2
Both Guitars
||-----------------|-----------------||
|o-----------------|-----------------o| x4
||-----------------|-----------------||
||-----------------|-----------------||
|o-0-3-0-0-0-0-3-5-|-8-8-8-8-5-5-5-5-o|
||-0-3-0-0-0-0-3-5-|-8-8-8-8-5-5-5-5-||


Pre Chorus
Guitar 1
|---------|---------|---------|-----------------|
|---------|---------|---------|-----------------|
|---------|---------|---------|---------6---7-9-|
|-3-------|---------|-5-------|-7-7-7-7---------|
|-1-------|---------|-3-------|-4-4-4-4-4-x-5-7-|
|---------|---------|---------|-----------x-----|

Guitar 2
|-----------------|-----------------|-----------------|-5-3-------------|
|-6-5-3---6-5-3---|-6-5-3---6-5-3---|-8-6-5---8-6-5---|-----6-5-----3-5-|
|-------3-------3-|-------3-------3-|-------5-------5-|---------6-2-----|
|-----------------|-----------------|-----------------|-----------------|
|-----------------|-----------------|-----------------|-----------------|
|-----------------|-----------------|-----------------|-----------------|


Chorus
Guitar 1
|-----------------|-----------------|-----------------|-----------------|
|-----------------|-----------------|-----------------|-----------------|
|-----------------|-----------------|-----------------|---------6---7-9-|
|-----------------|-3-3-3-3-3-3-3-3-|-----------------|-----------------|
|-0-0-0-0-0-0-0-0-|-1-1-1-1-1-1-1-1-|-5-5-5-5-5-5-5-5-|-7-7-7-7-4-x-5-7-|
|-0-0-0-0-0-0-0-0-|-----------------|-5-5-5-5-5-5-5-5-|-7-7-7-7---x-----|

Guitar 2
|----------------------|----------------------|
|----------------------|----------------------|
|-7-7-7-10-10-10-12-12-|-7-7-7-10-10-10-12-12-|
|----------------------|----------------------|
|-5-5-5--8--8--8-10-10-|-5-5-5--8--8--8-10-10-|
|----------------------|----------------------|

|----------------------|-----------------|
|----------------------|-----------------|
|-7-7-7-10-10-10-12-12-|-9-9-9-9-6---7-9-|
|----------------------|-----------------|
|-5-5-5--8--8--8-10-10-|-7-7-7-7-4-x-5-7-|
|----------------------|-----------x-----|

Guitar 1
|-----------------|-----------------|-----------------|-----------------|
|-----------------|-----------------|-----------------|-----------------|
|-----------------|-----------------|-----------------|---------6---7-9-|
|-----------------|-3-3-3-3-3-3-3-3-|-----------------|-----------------|
|-0-0-0-0-0-0-0-0-|-1-1-1-1-1-1-1-1-|-5-5-5-5-5-5-5-5-|-7-7-7-7-4-x-5-7-|
|-0-0-0-0-0-0-0-0-|-----------------|-5-5-5-5-5-5-5-5-|-7-7-7-7---x-----|

Guitar 2
|----------------------|----------------------|
|----------------------|----------------------|
|-7-7-7-10-10-10-12-12-|-7-7-7-10-10-10-12-12-|
|----------------------|----------------------|
|-5-5-5--8--8--8-10-10-|-5-5-5--8--8--8-10-10-|
|----------------------|----------------------|

|--------------------|-----------------|
|-10-----10-----10---|-----------------|
|----7------7------7-|-9-6---9-6---7-9-|
|------7------7------|-----7-----7-----|
|--------------------|-----------------|
|--------------------|-----------------|


Repeat Verse 1 x2


Repeat Verse 2 x 4

(Guitar 1 repeats verse 2 whilst guitar 2 plays this below)
Guitar 2
||-5---5---5---5---6---6---3---3---||
|o---3---3---3---3---3---3---3---3-o|
||---------------------------------||
||---------------------------------||
|o---------------------------------||
||---------------------------------||


Repeat Pre Chorus


Repeat Chorus


Bridge
Guitar 1
||-----------------|-----------------|-----------------|-----------------||
|o-----------------|-----------------|-----------------|-----------------o| x4
||-----------------|-----------------|-----------------|-----------------||
||-3-3-3-3-3-3-3-3-|-3-3-3-3-5-5-5-5-|-7-7-7-7-7-7-7-7-|-7-7-7-7-5-5-5-5-||
|o-1-1-1-1-1-1-1-1-|-1-1-1-1-3-3-3-3-|-5-5-5-5-5-5-5-5-|-5-5-5-5-3-3-3-3-o|
||-----------------|-----------------|-----------------|-----------------||

Guitar 2
||-10-------13----12----10-|-x-10-------13-12----10-||
|o----10-------------13----|------10----------13----o| x3
||-------10----10----------|---------10-------------||
||-------------------------|------------------------||
|o-------------------------|------------------------o|
||-------------------------|------------------------||

|-10-------13----12----10-|-x-10-------17-15h17p15-------|
|----10-------------13----|------10----------------18-17-|
|-------10----10----------|---------10-------------------|
|-------------------------|------------------------------|
|-------------------------|------------------------------|
|-------------------------|------------------------------|

Guitar 1
||-----------------|-----------------|-----------------|-----------------||
|o-----------------|-----------------|-----------------|-----------------o| x3
||-----------------|-----------------|-----------------|-----------------||
||-3-3-3-3-3-3-3-3-|-3-3-3-3-5-5-5-5-|-7-7-7-7-7-7-7-7-|-7-7-7-7-5-5-5-5-||
|o-1-1-1-1-1-1-1-1-|-1-1-1-1-3-3-3-3-|-5-5-5-5-5-5-5-5-|-5-5-5-5-3-3-3-3-o|
||-----------------|-----------------|-----------------|-----------------||

Guitar 1
|-----------------|-----------------|-----------------|-----------------|
|-----------------|-----------------|-----------------|-----------------|
|-----------------|-----------------|-----------------|-----------------|
|-3-3-3-3-3-3-3-3-|-3-3-3-3-5-5-5-5-|-7-7-7-7-7-7-7-7-|-----------------|
|-1-1-1-1-1-1-1-1-|-1-1-1-1-3-3-3-3-|-5-5-5-5-5-5-5-5-|-------------3-3-|
|-----------------|-----------------|-----------------|-0-0-2-2-3-3-----|

Guitar 2
||-10-------13----12----10-|-x-10-------13-12----10-||
|o----10-------------13----|------10----------13----o| x3
||-------10----10----------|---------10-------------||
||-------------------------|------------------------||
|o-------------------------|------------------------o|
||-------------------------|------------------------||

|-10-------13----12----10-|-x-10-------17-15h17p15-------|
|----10-------------13----|------10----------------18-17-|
|-------10----10----------|---------10-------------------|
|-------------------------|------------------------------|
|-------------------------|------------------------------|
|-------------------------|------------------------------|

Harmony (played second time around)
||-13-------17----15----13-|-x-13-------17-15----13-||
|o----13-------------17----|------13----------17----o| x3
||-------14----14----------|---------14-------------||
||-------------------------|------------------------||
|o-------------------------|------------------------o|
||-------------------------|------------------------||

|-13-------17----15----13-|-x-13-------20-18h20p18-------|
|----13-------------17----|------13----------------22-20-|
|-------14----14----------|---------14-------------------|
|-------------------------|------------------------------|
|-------------------------|------------------------------|
|-------------------------|------------------------------|


Solo 1
Guitar 2 (Guitar 1 plays Bridge Rhythm)
                                       TD                        T
|-------------------|-------------------|---------------10h12h13-17=|
|-------------10/13-|-11~~-10-----------|---------------------------|
|-/7~~~~----7-------|---------12-10~-12=|=/14~-12-12~~~-------------|
|-------------------|-------------------|---------------------------|
|-------------------|-------------------|---------------------------|
|-------------------|-------------------|---------------------------|
                          T                         T                        T                T
|p13p12p10---------------------------------------------------------------------------------------|
|---------h13p11p10h11h13-17p13p11p10------------------------------------------------------------|
|------------------------------------h12p10p9h10h12-15p12p10p9-----------------------------------|
|-------------------------------------------------------------h12p10p8h10h12-15p12p10p8h10h12-15=|
|------------------------------------------------------------------------------------------------|
|------------------------------------------------------------------------------------------------|

Last note continues into solo 2
|-----------|
|-----------|
|-----------|
|p12~~~~~~~-|
|-----------|
|-----------|


Solo 2
Guitar 1 (Guitar 2 plays Bridge Rhythm)
|---------------|-----------------|-------------------|------/10~-13-10h13p10----|
|---------------|-----------6-----|-----------10------|-----------------------13-|
|---------------|-------5-7---7-5-|-7~~--/10~----10-7-|-10~~---------------------|
|-----------3---|-3-5/7-----------|-------------------|--------------------------|
|-/5~~~-3-5---5-|-----------------|-------------------|--------------------------|
|---------------|-----------------|-------------------|--------------------------|

Last note continues into Solo 3
|-10~~~~~~~~~~----|
|-13BU(15)~~~~----|
|-----------------|
|-----------------|
|-----------------|
|-----------------|

Solo 3
Guitar 2 (Guitar 1 plays Bridge Rhythm)
|----------------------------------|--------------------------|
|-------------------------6h10p6~~-|-/13-11-10----------------|
|---------7h9p7-------7h9----------|-----------12-12-10-12-10-|
|-----7h8-------8p7h8--------------|--------------------------|
|-7h8------------------------------|--------------------------|
|----------------------------------|--------------------------|

                                 T
|------------------------13h17-|-22/24\22p17p13-------------------------|
|----------------------15------|---------------15-----------------------|
|-/14---12-12~~------14--------|-----------------14------12-14-15-14-12-|
|------------------15----------|-------------------15-------------------|
|----------------17------------|---------------------17-----------------|
|------------------------------|----------------------------------------|

Last note continues into Solo 4
|-----------|
|-----------|
|-10~~~~~---|
|-----------|
|-----------|
|-----------|


Solo 4
Guitar 1 (Guitar 2 plays Bridge Rhythm)
|---------10-------------10-------------10------------10------|
|-----------13p10----------13p10----------13p10---------13p10-|
|-12BU(14)-------12BU(14)-------12BU(14)-------12BU(14)-------|
|-------------------------------------------------------------|
|-------------------------------------------------------------|
|-------------------------------------------------------------|

|---------10-------------10----------------|
|-----------13p10----------13p10-13BU(15)--|
|-12BU(14)-------12BU(14)------------------|
|------------------------------------------|
|------------------------------------------|
|------------------------------------------|

|-10---------12---------13---------|-15---------20BU(22)~~~-----|
|-13BU(15)---15BU(17)---16BU(18)---|-18BU(20)-------------------|
|----------------------------------|----------------------------|
|----------------------------------|----------------------------|
|----------------------------------|----------------------------|
|----------------------------------|----------------------------|

Interlude
Guitar 1
|-----------------|
|-----------------|
|---------6---7-9-|
|-----------------|
|---8-----4-x-5-7-|
|-0---0-----x-----|

Guitar 2
|-------------------|
|-------------------|
|---------9---10-12-|
|-------------------|
|---8-----7-x--8-10-|
|-0---0-----x-------|

Repeat Chorus x2

Outro
|--------|
|--------|
|--------|
|--------|
|---8----|
|-0---0--|

That’s all, Enjoy and please rate :)


CAUSTIC ARE THE TIES THAT BIND


Hammer on:    h
Pull off:     p
Slide up:     /
Slide down:   \
Bend up:      BU(?)
Mutted note:  x
Vibrato:      ~~~
Trill:        tr

Guitar 1:        Matt Heafy
Guitar 2:        Corey Beaulieu
Guitar 3:        Corey Beaulieu
Guitar 4:        Matt Heafy

_________________________________________________________________________

Verse 1
Guitar 1
||---------------------------------||
|o---------------------------------o|
||-------------6---6-------4-------||
||-----------4---4---4\2h4---2~~~~-||
|o-4-4-4-4-------------------------o|
||-4-4-4-4-------------------------||
|
|Guitar 2
||---------------------------------||
|o---------------------------------o|
||---------------------------------||
||---------------------------------||
|o-4-4-4-4-------------------------o|
||-4-4-4-4-------------------------||

Guitar 1
|---------------------------------|
|---------------------------------|
|-------------2---2-------1-------|
|-----------0---0---0---0---------|
|-0-0-0-0-------------2-----2~~~~-|
|-0-0-0-0-------------------------|
|
|Guitar 2
|---------------------------------|
|---------------------------------|
|---------------------------------|
|---------------------------------|
|-0-0-0-0-------------------------|
|-0-0-0-0-------------------------|

Guitar 1
|---------------------------------|
|---------------------------------|
|-------------4---4-------9-----9-|
|-----------2---2---2/6h7---6h7---|
|-2-2-2-2-------------------------|
|-2-2-2-2-------------------------|
|
|Guitar 2
|---------------------------------|
|---------------------------------|
|---------------------------------|
|---------------------------------|
|-2-2-2-2-------------------------|
|-2-2-2-2-------------------------|

_________________________________________________________________________


Verse 2
Guitar 1
|-----------------------------------------------------------------|
|-----------------------------------------------------------------|
|-----------------------------------------------------------------|
|-------7-----6~~-------7-----6~~-------7-----6~~-------7-----6~~-|
|-----------------------------------------------------------------|
|-0-0-0---0-0-----0-0-0---0-0-----2-2-2---2-2-----3-3-3---3-3-----|
|
|Guitar 2
|-----------------------------------------------------------------|
|-----------------------------------------------------------------|
|-------6-----4~~-------6-----4~~-------6-----4~~-------6-----4~~-|
|-----------------------------------------------------------------|
|-----------------------------------------------------------------|
|-0-0-0---0-0-----0-0-0---0-0-----2-2-2---2-2-----3-3-3---3-3-----|

_________________________________________________________________________


Verse 3
Guitar 1
|-----------------------------------------------------------------|
|-----------------------------------------------------------------|
|-------------------------------------------------------4-----6---|
|-7-----6-----7---7-----6-----7---6-----4-----6---6---------------|
|-----------------------------------------------------------------|
|---4-4---4-4---4---0-0---0-0---0---2-2---2-2---2---3-3---3-3---3-|
|
|Guitar 2
|-----------------------------------------------------------------|
|-------------------------------------------------------3-----5---|
|-6-----4-----6---6-----4-----6---4-----2-----4---4---------------|
|-----------------------------------------------------------------|
|-----------------------------------------------------------------|
|---4-4---4-4---4---0-0---0-0---0---2-2---2-2---2---3-3---3-3---3-|

_________________________________________________________________________


Chorus
Guitar 1
|-----------------0-------------------------------2---------------|
|---------------------3---------------------------------5---------|
|-------------------------------------------------------------2---|
|-0-------------------------------2-------------------------------|
|-0-------------------------------2-------------------------------|
|-0-------------------------------2-------------------------------|
|
|Guitar 2
|-----------------------------------------------------------------|
|-----------------------------------------------------------------|
|-----------------------------------------------------------------|
|-0-------------------------------2-------------------------------|
|-0-------------------------------2-------------------------------|
|-0-------------------------------2-------------------------------|

Both guitars
|-----------------------------------------------------------------|
|-----------------------------------------------------------------|
|-----------------------------------------------------------------|
|-----------------------------------------------------------------|
|-----------------------------------------------------------------|
|-4-4-4-2~~~~-4-4-4-2~~~~-7-7-7-2-4-4-4-2~~~~-4-2-7-7-7-7-2-2-2-2-|

_________________________________________________________________________


Verse 4
Both guitars
||---------------------------------||
|o---------------------------------o|
||---------------------------------||
||---------------------------------||
|o-4-4-4-4-------------------------o|
||-4-4-4-4-------------------------||

|---------------------------------|
|---------------------------------|
|---------------------------------|
|---------------------------------|
|-0-0-0-0-------------------------|
|-0-0-0-0-------------------------|

|---------------------------------|
|---------------------------------|
|-------------4---4-------9-----9-|
|-----------2---2---2/6h7---6h7---|
|-2-2-2-2-------------------------|
|-2-2-2-2-------------------------|

_________________________________________________________________________


Repeat Verse 1

Repeat Verse 2

Repeat Verse 3

Repeat Chorus

_________________________________________________________________________


Verse 5
Both guitars
|-----------------------------------------------------------------|
|-----------------------------------------------------------------|
|-----------------------------------------------------------------|
|-0-------------------------------2---------------3---------------|
|-0-------------------------------2---------------3---------------|
|-0-------------------------------2---------------3---------------|

|-----------------------------------------------------------------|
|-----------------------------------------------------------------|
|-----------------------------------------------------------------|
|-4---------------------------------------------------------------|
|-4---------------------------------------------------------------|
|-4---------------------------------------------------------------|


_________________________________________________________________________


Verse 6
Guitar 1 (Clean)
||---0-----0-----0-----0------0-------0-----0-----0-----0-----0-----||
|o-----7-----7-----7-----7------5-------3-----3-----3-----3-----5---o|
||------------------------------------------------------------------||
||-4-----4-----4-----4-----2------2-0-----0-----0-----0-----2-----2-||
|o------------------------------------------------------------------o|
||------------------------------------------------------------------||

Guitar 2
|------------------------------------------------------------------|
|------------------------------------------------------------------|
|--------------7h9-----7-6-7---6h7p6-------------------------------|
|-\6-----7---------------------------9-6-----7---------------------|
|--------------------------------------------------9-----7---------|
|------------------------------------------------------------------|

|------------------------------------------------------------------|
|------------------------------------------------------------------|
|-------------/9-------7-6-7---6h7p6-------------------------------|
|-\6-----7---------------------------9-7-------7/11-11-11-11p9-9---|
|------------------------------------------------------------------|
|------------------------------------------------------------------|

Both guitars
||---0-----0-----0-----0------0-------0-----0-----0-----0-----0-----||
|o-----7-----7-----7-----7------5-------3-----3-----3-----3-----5---o|
||------------------------------------------------------------------||
||-4-----4-----4-----4-----2------2-0-----0-----0-----0-----2-----2-||
|o------------------------------------------------------------------o|
||------------------------------------------------------------------||

_________________________________________________________________________


Bridge
Guitar 1 (Clean)
||-----------------------------------------------------------------||
|o-3-3-3-3-3-3-3-3-3-3-3-3-5-5-5-5-7-7-7-7-7-7-7-7-7-7-7-7-5-5-5-5-o|
||-2-2-2-2-2-2-2-2-2-2-2-2-4-4-4-4-5-5-5-5-5-5-5-5-5-5-5-5-4-4-4-4-||
||-0-0-0-0-0-0-0-0-0-0-0-0-2-2-2-2-4-4-4-4-4-4-4-4-4-4-4-4-2-2-2-2-||
|o-----------------------------------------------------------------o|
||-----------------------------------------------------------------||
|
|Guitar 2
|----------------------------------------------------------------------|
|-------------------------------------------------------10-10-10-9-9-9-|
|-9-9-9-11-11-11-------------------------9-9-9-11-11-11----------------|
|----------------11-11-11-9-9-9----------------------------------------|
|-------------------------------9-12-9-9-------------------------------|
|----------------------------------------------------------------------|

Guitar 2
1st ending      2nd ending
|-------------| |------12\---|
|-10-10-------| |-9h10-------|
|-------11-11-| |------------|
|-------------| |------------|
|-------------| |------------|
|-------------| |------------|

_________________________________________________________________________


Repeat Verse 6
But guitar 2 does this rhythm below
Guitar 2
|-----------------------------------------------------------------|
|-----------------------------------------------------------------|
|-----------------------------------------------------------------|
|-4-4-4-4-4-4-4-4-4-4-4-4-2-2-2-2-0-0-0-0-0-0-0-0-0-0-0-0-2-2-2-2-|
|-4-4-4-4-4-4-4-4-4-4-4-4-2-2-2-2-0-0-0-0-0-0-0-0-0-0-0-0-2-2-2-2-|
|-4-4-4-4-4-4-4-4-4-4-4-4-2-2-2-2-0-0-0-0-0-0-0-0-0-0-0-0-2-2-2-2-|

|-----------------------------------------------------------------|
|-------------------------------------------------3-3-3-3-5-5-5-5-|
|---------------6---------------------------------2-2-2-2-4-4-4-4-|
|-4-4-4-4-4-4-4-4-4-4-4-4-2-2-2-2-0-0-0-0-0-0-0-0-0-0-0-0-2-2-2-2-|
|-4-4-4-4-4-4-4---4-4-4-4-2-2-2-2-0-0-0-0-0-0-0-0-0-0-0-0-2-2-2-2-|
|-4-4-4-4-4-4-4---4-4-4-4-2-2-2-2-0-0-0-0-0-0-0-0-0-0-0-0-2-2-2-2-|

_________________________________________________________________________


Repeat the Bridge
But instead guitar 1 is playing the below
Guitar 1
|-----------------------------------------------------------------|
|-----------------------------------------------------------------|
|-----------------------------------------------------------------|
|-0-0-0-0-0-0-0-0-2-2-2-2-2-2-2-2-4-4-4-4-4-4-4-4-4-4-4-4-2-2-2-2-|
|-0-0-0-0-0-0-0-0-2-2-2-2-2-2-2-2-4-4-4-4-4-4-4-4-4-4-4-4-2-2-2-2-|
|-0-0-0-0-0-0-0-0-2-2-2-2-2-2-2-2-4-4-4-4-4-4-4-4-4-4-4-4-2-2-2-2-|

_________________________________________________________________________


Solo 1
Guitar 1
|-----------------------------------------------------------------|
|-----------------------------------------------------------------|
|-----------------------------------------------------------------|
|-4-4-4-4-4-4-4-4-4-4-4-4-2-2-2-2-0-0-0-0-0-0-0-0-0-0-0-0-2-2-2-2-|
|-4-4-4-4-4-4-4-4-4-4-4-4-2-2-2-2-0-0-0-0-0-0-0-0-0-0-0-0-2-2-2-2-|
|-4-4-4-4-4-4-4-4-4-4-4-4-2-2-2-2-0-0-0-0-0-0-0-0-0-0-0-0-2-2-2-2-|

Guitar 2
|----14-|-17-----------16-14-16-17----------|
|-14----|--------------------------14-------|
|-------|-----------------------------------|
|-------|-----------------------------------|
|-------|-----------------------------------|
|-------|-----------------------------------|
|
|Guitar 3
|----17-|-21-----------19-17-19-21----------|
|-19----|--------------------------19-------|
|-------|-----------------------------------|
|-------|-----------------------------------|
|-------|-----------------------------------|
|-------|-----------------------------------|

Guitar 2
|-17-16-14----------------------------------------------------------------|
|----------17-15-14-17-15-14----------------------------------------------|
|----------------------------16-14-13-16-14-13----------------------------|
|----------------------------------------------16-14-12-16-14-12----------|
|----------------------------------------------------------------16-14-12-|
|-------------------------------------------------------------------------|

Guitar 2
|--------------------------------------------------------------------------|
|--------------------------------------------------------------------------|
|--------------------------------------------------------------------------|
|-/12-----------12---11-----12-----14/16---14-----12-----11h12p11----------|
|-----------------------------------------------------------------12-------|
|--------------------------------------------------------------------------|
|
|Guitar 3
|--------------------------------------------------------------------------|
|-----------------------------------9/10----9------------------------------|
|-/11-----------11----9-----11--------------------11------9h11p9-----------|
|-----------------------------------------------------------------11-------|
|--------------------------------------------------------------------------|
|--------------------------------------------------------------------------|

Guitar 2
|---------------------------------|
|-------------------------7---7-9-|
|-------------------6---6---6-----|
|-------6-7-6---6-7---7-----------|
|-9-8-9-------9-------------------|
|---------------------------------|

|-------------------------------------------|
|-10-9-7-6-10-9-7-12-10-9-14-12-10-15-14-12-|
|-------------------------------------------|
|-------------------------------------------|
|-------------------------------------------|
|-------------------------------------------|

Guitar 2
|-------------------------------------------|
|-/15-----------17BU(19)---(17)---15---14---|
|-------------------------------------------|
|-------------------------------------------|
|-------------------------------------------|
|-------------------------------------------|
|
|Guitar 3
|-/14-----------16BU(17)---(16)---14---12---|
|-------------------------------------------|
|-------------------------------------------|
|-------------------------------------------|
|-------------------------------------------|
|-------------------------------------------|

Guitar 2
|----------------------------------------|
|-14tr15-----------------------14--------|
|----------16---14---13---14--------14---|
|----------------------------------------|
|----------------------------------------|
|----------------------------------------|
|
|Guitar 3
|-12tr14-----------------------12--------|
|----------15---14---12---14--------14---|
|----------------------------------------|
|----------------------------------------|
|----------------------------------------|
|----------------------------------------|

_________________________________________________________________________


Guitar Duel
Guitar 1
|---------------------------------|
|---------------------------------|
|---------------------------------|
|-4-----------2---0-----------2---|
|-4-----------2---0-----------2---|
|-4-----------2---0-----------2---|

Guitar 2
|----------------------------------------------------------|
|----------------------------------------------------------|
|-14---13-11-13---14-11-----------14-13-11-13BU(14)(13)----|
|-------------------------------------------------------14-|
|----------------------------------------------------------|
|----------------------------------------------------------|
|
|Guitar 3
|----------------------------------------------------------|
|-14---12----12---14--------------14-12----12BU(13)(12)----|
|---------14-----------14---------------14--------------13-|
|----------------------------------------------------------|
|----------------------------------------------------------|
|----------------------------------------------------------|
|
|Guitar 4
|----------------------------------------------------|
|----------------------------------------------------|
|-6---4---4---6--------------------6-4---------------|
|-------7---------4--------------------7-6BU(7)(6)---|
|--------------------------------------------------7-|
|----------------------------------------------------|

Guitar 2
|---------------------------------------------------------|
|---------------------------------------------------------|
|-11------------11-------------------11----11-13-11-13-14-|
|------14-12-14----12-------------------14----------------|
|---------------------------------------------------------|
|---------------------------------------------------------|
|
|Guitar 3
|---------------------------------------------------------|
|---------------------------------------------12----12-14-|
|-14---13-11-13-14-11----------------14-13-14----14-------|
|---------------------------------------------------------|
|---------------------------------------------------------|
|---------------------------------------------------------|
|
|Guitar 4
|----------------------------------------------------|
|----------------------------------------------------|
|-------------------------------------------4---4-6--|
|-7---6-4-6---7-----------------------7-6-7---7------|
|-----------------5----------------------------------|
|----------------------------------------------------|

_________________________________________________________________________


Solo 2
Guitar 1
|---------------------------------|
|---------------------------------|
|---------------------------------|
|-4-----------2---0-----------2---|
|-4-----------2---0-----------2---|
|-4-----------2---0-----------2---|

Guitar 2
|------------------------------------------------------------------|
|------------15BU(17)--15-14-15--14h15p14--------------------------|
|-/13---14--------------------------------16---14------------------|
|------------------------------------------------------------------|
|------------------------------------------------------------------|
|------------------------------------------------------------------|

|------------------------|
|------------------------|
|---------9h11------9h11-|
|-----7h9------9h11------|
|-7h9--------------------|
|------------------------|

|------------------------------------------------------------------|
|------------15BU(17)--15-14-15--14h15p14--------------------------|
|-/13---14--------------------------------16---13BU(14)---11-9-----|
|------------------------------------------------------------------|
|------------------------------------------------------------------|
|------------------------------------------------------------------|

|-----------------------------|
|-14--------------------------|
|-16BU(18)-(18)-(18)-(18)(16)-|
|-----------------------------|
|-----------------------------|
|-----------------------------|
|-----------------------------|

_________________________________________________________________________


Repeat Guitar duel


Repeat Chorus


Repeat Verse 1

_________________________________________________________________________


Outro
Both guitars
|---------|
|---------|
|---------|
|-4-4-4-4-|
|-4-4-4-4-|
|-4-4-4-4-|

That's all guys, please rate :)


FORSAKE NOT THE DREAM


Hammer on:    h
Pull off:     p
Slide up:     /
Slide down:   \
Bend up:      BU(?)
Mutted note:  x

Guitar 1:        Matt Heafy
Guitar 2:        Corey Beaulieu
Guitar 3:        Corey Beaulieu


Intro/Chorus
Guitar 1 (Clean-Recorded on a telecaster)
|---------------------------------------------------------------------|
|---------------------------------------------------------------------|
|-7-7-7-7-x-x-x-x-x-x-x-x-x-x-x-x-7-7-7-7-x-x-x-x-10-10-10-10-9-9-9-9-|
|---------x-x-x-x-x-x-x-x-x-x-x-x---------x-x-x-x---------------------|
|-5-5-5-5-x-x-x-x-x-x-x-x-x-x-x-x-5-5-5-5-x-x-x-x--8--8--8--8-7-7-7-7-|
|---------------------------------------------------------------------|

|-----------------------------------------------------------------|
|-----------------------------------------------------------------|
|-3-3-3-3-3-3-3-3-3-3-3-3-3-3-3-3-5-5-5-5-5-5-5-5-5-5-5-5-5-5-5-5-|
|-3-3-3-3-3-3-3-3-3-3-3-3-3-3-3-3-5-5-5-5-5-5-5-5-5-5-5-5-5-5-5-5-|
|-1-1-1-1-1-1-1-1-1-1-1-1-1-1-1-1-3-3-3-3-3-3-3-3-3-3-3-3-3-3-3-3-|
|-----------------------------------------------------------------|

Guitar 2 (Harmony)
|---------------------------------------------------------------------------------|
|---------------------------------------------------------------------------------|
|-10-10-10-10-x-x-x-x-x-x-x-x-x-x-x-x-10-10-10-10-x-x-x-x-14-14-14-14-12-12-12-12-|
|-------------x-x-x-x-x-x-x-x-x-x-x-x-------------x-x-x-x-------------------------|
|--8--8--8--8-x-x-x-x-x-x-x-x-x-x-x-x--8--8--8--8-x-x-x-x-12-12-12-12-10-10-10-10-|
|---------------------------------------------------------------------------------|

|-----------------------------------------------------------------|
|-----------------------------------------------------------------|
|-7-7-7-7-7-7-7-7-7-7-7-7-7-7-7-7-9-9-9-9-9-9-9-9-9-9-9-9-9-9-9-9-|
|-----------------------------------------------------------------|
|-5-5-5-5-5-5-5-5-5-5-5-5-5-5-5-5-7-7-7-7-7-7-7-7-7-7-7-7-7-7-7-7-|
|-----------------------------------------------------------------|

Guitar 2 (Lead Distorted)
|------------------------------------|-------------------------------------|
|------------------------------------|-------------------------------------|
|-/10-----9--------------------------|-/10-----9-----12-------10p9\7-------|
|---------------10-------------------|-------------------------------------|
|------------------------------------|-------------------------------------|
|------------------------------------|-------------------------------------|

___________________________________________________________________________________

Verse 1
Guitar 1
|---------------------------------|---------------------------------|
|-------3-------------------------|-------3-------------------------|
|-------2-------------------------|-------2-------------------------|
|-------0-------------------------|-------0-------------------------|
|-0-0-0-0-------------------------|-0-0-0-0-------------------------|
|-0-0-0-0-------------------------|-0-0-0-0-------------------------|

Guitar 2
|-------0-------------------------|-------5-------------------------|
|-----------6---------------------|-----------6---------------------|
|---------------7-----------------|---------------7-----------------|
|---------------------------------|---------------------------------|
|-0-0-0---------------------------|-0-0-0---------------------------|
|-0-0-0---------------------------|-0-0-0---------------------------|

Guitar 1
|---------------------------------|---------------------------------|
|---------------------------------|---------------------------------|
|-3-3-3-3-3-3-3-3-3-3-3-3-3-3-3-3-|-5-5-5-5-5-5-5-5-5-5-5-5-5-5-5-5-|
|-3-3-3-3-3-3-3-3-3-3-3-3-3-3-3-3-|-5-5-5-5-5-5-5-5-5-5-5-5-5-5-5-5-|
|-1-1-1-1-1-1-1-1-1-1-1-1-1-1-1-1-|-3-3-3-3-3-3-3-3-3-3-3-3-3-3-3-3-|
|---------------------------------|---------------------------------|

Guitar 2
|-------------------------------------------------|
|-------------------------------------------------|
|-17-17-17-17-17-17-15-15-15-15-15-15-14-14-14-14-|
|-------------------------------------------------|
|-15-15-15-15-15-15-13-13-13-13-13-13-12-12-12-12-|
|-------------------------------------------------|

|------------------------------------------|
|------------------------------------------|
|-12-12-12-12-12-12-12-12-10---9---7---5---|
|------------------------------------------|
|-10-10-10-10-10-10-10-10--8---7---5---3---|
|------------------------------------------|

Guitar 1
|---------------------------------|---------------------------------|
|-------3-------------------------|-------3-------------------------|
|-------2-------------------------|-------2-------------------------|
|-------0-------------------------|-------0-------------------------|
|-0-0-0-0-------------------------|-0-0-0-0-------------------------|
|-0-0-0-0-------------------------|-0-0-0-0-------------------------|

Guitar 2
|-------0-------------------------|-------5-------------------------|
|-----------6---------------------|-----------6---------------------|
|---------------7-----------------|---------------7-----------------|
|---------------------------------|---------------------------------|
|-0-0-0---------------------------|-0-0-0---------------------------|
|-0-0-0---------------------------|-0-0-0---------------------------|

Guitar 1
|---------------------------------|---------------------------------|
|---------------------------------|---------------------------------|
|-3-3-3-3-3-3-3-3-3-3-3-3-3-3-3-3-|-5-5-5-5-5-5-5-5-5-5-5-5-5-5-5-5-|
|-3-3-3-3-3-3-3-3-3-3-3-3-3-3-3-3-|-5-5-5-5-5-5-5-5-5-5-5-5-5-5-5-5-|
|-1-1-1-1-1-1-1-1-1-1-1-1-1-1-1-1-|-3-3-3-3-3-3-3-3-3-3-3-3-3-3-3-3-|
|---------------------------------|---------------------------------|

Guitar 2
|-------------------------------------------------|
|-------------------------------------------------|
|-17-17-17-17-17-17-15-15-15-15-15-15-14-14-14-14-|
|-------------------------------------------------|
|-15-15-15-15-15-15-13-13-13-13-13-13-12-12-12-12-|
|-------------------------------------------------|

|--------------------------------------------|
|--------------------------------------------|
|-12-12-12-12-12-12-12-12-10---9---10---12---|
|--------------------------------------------|
|-10-10-10-10-10-10-10-10--8---7----8---10---|
|--------------------------------------------|

___________________________________________________________________________________


Verse 2
Both guitars
|-------------------------------------|
|-------------------------------------|
|-------------------------------------|
|-12-----8-----10-----8-----10---12---|
|-------------------------------------|
|----8-8---8-8----8-8---8-8----8----8-|

|-------------------------------------------------|
|-------------------------------------------------|
|-------------------------------------------------|
|-15-------12-------14-------12-------14----15----|
|-------------------------------------------------|
|----12-12----12-12----12-12----12-12----12----12-|

|-------------------------------------------------|
|-------------------------------------------------|
|-------------------------------------------------|
|-19-------15-------17-------15-------17----19----|
|-------------------------------------------------|
|----15-15----15-15----15-15----15-15----15----15-|

Guitar 1
|-------------------------------------------------|
|-------------------------------------------------|
|-------------------------------------------------|
|-15-------14-------12----14-------12-------10----|
|-------------------------------------------------|
|----12-12----12-12----12----10-10----10-10----10-|
|
|Guitar 2
|-------------------------------------------------|
|-------------------------------------------------|
|-14-------12-------------12-------10-------------|
|-------------------15----------------------14----|
|-------------------------------------------------|
|----12-12----12-12----12----10-10----10-10----10-|

___________________________________________________________________________________


Repeat Intro/Chorus


Repeat Verse 1


Repeat Verse 2


Repeat Intro/Chorus

___________________________________________________________________________________


Verse 3
Guitar 1
|---------------------------------|---------------------------------|
|---------------------------------|---------------------------------|
|---------------------------------|---------------------------------|
|---------------------------------|---------------------------------|
|-1-1-1-1-1-1-1-1-1-1-1-1-1-1-1-1-|-1-1-1-1-1-1-1-1-3-3-3-3-3-3-3-3-|
|---------------------------------|---------------------------------|

Guitar 2
|-----5-----3---------------------|-----5-----3---------------------|
|-----------------6-----5-----6---|-----------------6-------5---5-6-|
|-3-3---3-3---3-3---3-3---3-3---3-|-3-3---3-3---3-3---3-3-3---5-----|
|---------------------------------|---------------------------------|
|---------------------------------|---------------------------------|
|---------------------------------|---------------------------------|

Guitar 1
|---------------------------------|---------------------------------|
|---------------------------------|---------------------------------|
|---------------------------------|---------------------------------|
|---------------------------------|---------------------------------|
|---------------------------------|-------------------------3-3-3-3-|
|-0-0-0-0-0-0-0-0-0-0-0-0-0-0-0-0-|-0-0-0-0-2-2-2-2-3-3-3-3---------|

Guitar 2
|-----5---------------------------|---------------------------8---8---|
|-----------8-----6-----5-----6---|-10---10---8---8---6---6-----5---5-|
|-7-7---7-7---7-7---7-7---7-7---7-|----7----7---9---9---5---5---------|
|---------------------------------|-----------------------------------|
|---------------------------------|-----------------------------------|
|---------------------------------|-----------------------------------|


(Second time this is played Corey plays the below instead of the final
Box above)
Guitar 2
|-----------------------------------------------------12-13-15-|-17\---|
|-----------------------------------10-11-13-11-13-15----------|-------|
|--------------------7-9-10-9-10-12----------------------------|-------|
|-------5-7-8-7-8-10-------------------------------------------|-------|
|-5-7-8--------------------------------------------------------|-------|
|--------------------------------------------------------------|-------|

___________________________________________________________________________________


Breakdown 1
Guitar 1
|---------------------------------|---------------------------------|
|---------------------------------|---------------------------------|
|---------------------------------|---------------------------------|
|---------------------------------|---------------------------------|
|-5p0---------5p0---------8p0-5h7-|-5p0---------5p0---------8p0-5h7-|
|-----0-5h8-0-----0-5h8-0---------|-----0-5h8-0-----0-5h8-0---------|

Guitar 2
|---------------------------------|---------------------------------|
|---------------------------------|---------------------------------|
|---------------------------------|---------------------------------|
|---------------------------------|---------------------------------|
|---------------------------------|---------------------------------|
|---------------------------------|---------------------------------|

Guitar 1
|---------------------------------|---------------------------------|
|---------------------------------|---------------------------------|
|---------------------------------|---------------------------------|
|---------------------------------|---------------------------------|
|-5p0---------5p0---------8p0-5h7-|-5p0---------5p0-----------------|
|-----0-5h8-0-----0-5h8-0---------|-----0-5h8-0-----00000---00000---|

Guitar 2
|---------------------------------|---------------------------------|
|---------------------------------|---------------------------------|
|---------------------------------|---------------------------------|
|-0-------------------------------|---------------------------------|
|-0-------------------------------|---------------------------------|
|-0-------------------------------|-----------------00000---00000---|

Guitar 1
|---------------------------------|---------------------------------|
|---------------------------------|---------------------------------|
|---------------------------------|---------------------------------|
|---------------------------------|---------------------------------|
|-5p0---------5p0---------8p0-5h7-|-5p0---------5p0---------8p0-5h7-|
|-----0-5h8-0-----0-5h8-0---------|-----0-5h8-0-----0-5h8-0---------|

|---------------------------------|-------------------------------------|
|---------------------------------|-------------------------------------|
|---------------------------------|-----------------10-10-10-10-9-9-9-9-|
|---------------------------------|-------------------------------------|
|-5p0---------5p0---------8p0-5h7-|-5p0---------5p0--8--8--8--8-7-7-7-7-|
|-----0-5h8-0-----0-5h8-0---------|-----0-5h8-0-------------------------|

Guitar 2 (Harmony)
|-------------------------------------|-------------------------------------|
|-------------------------------------|-------------------------------------|
|-------------------------------------|-------------------------------------|
|-------------------------------------|-------------------------------------|
|-8p0----------8p0----------12p0-8h10-|-8p0----------8p0----------12p0-8h10-|
|-----0-8h12-0-----0-8h12-0-----------|-----0-8h12-0-----0-8h12-0-----------|

|-------------------------------------|------------------------------------------|
|-------------------------------------|------------------------------------------|
|-------------------------------------|------------------14-14-14-14-12-12-12-12-|
|-------------------------------------|------------------------------------------|
|-8p0----------8p0----------12p0-8h10-|-8p0----------8p0-12-12-12-12-10-10-10-10-|
|-----0-8h12-0-----0-8h12-0-----------|-----0-8h12-0-----------------------------|

___________________________________________________________________________________


Solo
Guitar 1 (Rhythm)
|---------------------------------|---------------------------------|
|---------------------------------|---------------------------------|
|-3-3-3-3-3-3-3-3-3-3-3-3-3-3-3-3-|-7-7-7-7-7-7-7-7-7-7-7-7-7-7-7-7-|
|-3-3-3-3-3-3-3-3-3-3-3-3-3-3-3-3-|-7-7-7-7-7-7-7-7-7-7-7-7-7-7-7-7-|
|-1-1-1-1-1-1-1-1-1-1-1-1-1-1-1-1-|-5-5-5-5-5-5-5-5-5-5-5-5-5-5-5-5-|
|---------------------------------|---------------------------------|

|-------------------------------------------------|
|-------------------------------------------------|
|-10-10-10-10-10-10-10-10-10-10-10-10-10-10-10-10-|
|-10-10-10-10-10-10-10-10-10-10-10-10-10-10-10-10-|
|--8--8--8--8--8--8--8--8--8--8--8--8--8--8--8--8-|
|-------------------------------------------------|

|---------------------------------|
|---------------------------------|
|-5-5-5-5-5-5-5-5-5-5-5-5-5-5-5-5-|
|-5-5-5-5-5-5-5-5-5-5-5-5-5-5-5-5-|
|-3-3-3-3-3-3-3-3-3-3-3-3-3-3-3-3-|
|---------------------------------|

Guitar 2 (Lead)
|-18p17------------------------------------------|
|-------18----------------15-------13------------|
|----------17\15-17-15\14----14\12------12-10-12-|
|------------------------------------------------|
|------------------------------------------------|
|------------------------------------------------|

|-10-------------------------------------------------------|
|----13-11-10-10h11p10-------------------------------------|
|----------------------12-10-12BU(14)---10h12p10-----------|
|------------------------------------------------12--------|
|----------------------------------------------------------|
|----------------------------------------------------------|

|--------------------------------------------|
|--------------------------------------------|
|-----12---10---9h10p9----------9-10-12-10-9-|
|----------------------12-10-12--------------|
|-8-8----8----8------------------------------|
|--------------------------------------------|

Guitar 2
|--------------------------------------|
|--------------------------------------|
|-/17-----15-----14---12---------------|
|--------------------------------------|
|--------------------------------------|
|--------------------------------------|
|
|Guitar 3
|--------------------------------------|
|--------------------------------------|
|-/14-----12-----10---9----------------|
|--------------------------------------|
|--------------------------------------|
|--------------------------------------|

Guitar 2
|-----------------------------------------------|
|-----------------------------------------------|
|-9h10p9---------------9-9h10p9---------------9-|
|--------12-10-8-10-12----------12-10-8-10-12---|
|-----------------------------------------------|
|-----------------------------------------------|
|
|Guitar 3
|-------------------------------------------|
|-8h10p8-------------8-8h10p8-------------8-|
|--------10-9-7-9-10----------10-9-7-9-10---|
|-------------------------------------------|
|-------------------------------------------|
|-------------------------------------------|

Guitar 2
|---------------------------------------|
|-10\6-6\3-3/6-6/17-17\13-13/17-17/18---|
|---------------------------------------|
|---------------------------------------|
|---------------------------------------|
|---------------------------------------|
|
|Guitar 3
|-8\5-5\1-1/5-5/15-15\12-12/15-15/17---|
|--------------------------------------|
|--------------------------------------|
|--------------------------------------|
|--------------------------------------|
|--------------------------------------|

Guitar 2
|-20-------20-------20-------20-------20---------|
|----18-17----18-17----18-17----18-17----18-17---|
|------------------------------------------------|
|------------------------------------------------|
|------------------------------------------------|
|------------------------------------------------|

|-20-18-17---------------------------------------------------------------|------|
|----------20-18-17-18-17-15---------------------------------------------|------|
|----------------------------17-15-14-15-14-12---------------------------|------|
|----------------------------------------------15-14-12-14-12-10---------|------|
|----------------------------------------------------------------12-10-8-|-12\--|
|------------------------------------------------------------------------|------|

___________________________________________________________________________________


Breakdown 2
Guitar 1
|---------------------------------|---------------------------------|
|---------------------------------|---------------------------------|
|---------------------------------|---------------------------------|
|---------------------------------|---------------------------------|
|-5p0---------5p0---------8p0-5h7-|-5p0---------5p0---------8p0-5h7-|
|-----0-5h8-0-----0-5h8-0---------|-----0-5h8-0-----0-5h8-0---------|

Guitar 2
|---------------------------------|---------------------------------|
|---------------------------------|---------------------------------|
|---------------------------------|---------------------------------|
|---------------------------------|---------------------------------|
|-0---------------0---0---0---0---|-0---------------0---0---0---0---|
|-0-----------00000---0---0---0---|-0-----------00000---0---0---0---|

Guitar 1
|---------------------------------|-------------------------------------|
|---------------------------------|-------------------------------------|
|---------------------------------|-----------------10-10-10-10-9-9-9-9-|
|---------------------------------|-------------------------------------|
|-5p0---------5p0---------8p0-5h7-|-5p0---------5p0--8--8--8--8-7-7-7-7-|
|-----0-5h8-0-----0-5h8-0---------|-----0-5h8-0-------------------------|

Guitar 2
|---------------------------------|-----------------------------------------|
|---------------------------------|-----------------------------------------|
|---------------------------------|-----------------14-14-14-14-12-12-12-12-|
|---------------------------------|-----------------------------------------|
|-0---------------0---0---0---0---|-0---------------12-12-12-12-10-10-10-10-|
|-0-----------00000---0---0---0---|-0-----------0000------------------------|

___________________________________________________________________________________


Duel Solo
Guitar 1
|---------|---------|----------|---------|
|---------|---------|----------|---------|
|-3-------|-7-------|-10-------|-5-------|
|-3-------|-7-------|-10-------|-5-------|
|-1-------|-5-------|--8-------|-3-------|
|---------|---------|----------|---------|

Guitar 2
|---------------------------------------|
|---------------------------------------|
|-/10----------------10-----12-----14---| x3
|---------------10----------------------|
|---------------------------------------|
|---------------------------------------|
|
|Guitar 3
|---------------------------------------|
|-/10----------------10-----11-----13---|
|---------------10----------------------| x3
|---------------------------------------|
|---------------------------------------|
|---------------------------------------|

Guitar 2
|--------------------------------------|
|--------------------------------------|
|-/9-----------10----------------------|
|-------------------10-----------------|
|--------------------------------------|
|--------------------------------------|
|
|Guitar 3
|---------------------------------------|
|-/8-----------10-----------------------|
|--------------------9------------------|
|---------------------------------------|
|---------------------------------------|
|---------------------------------------|

Guitar 2
|---------------------------------------|
|---------------------------------------|
|-/10----------------10-----12-----14---|
|---------------10----------------------|
|---------------------------------------|
|---------------------------------------|
|
|Guitar 3
|---------------------------------------|
|-/10----------------10-----11-----13---|
|---------------10----------------------|
|---------------------------------------|
|---------------------------------------|
|---------------------------------------|

Guitar 2
|------------------------13p10----10-------------------------|
|-13BU(15)---------------------13----13p10-13p10----10-------|
|------------------------------------------------12----12p10-|
|------------------------------------------------------------|
|------------------------------------------------------------|
|------------------------------------------------------------|
|
|Guitar 3
|-12BU(13)---------------17p13----13-------------------------|
|------------------------------17----17p13-17p13\11-13p11\10-|
|------------------------------------------------------------|
|------------------------------------------------------------|
|------------------------------------------------------------|
|------------------------------------------------------------|

Guitar 2
|-------------------------------------------------------------------------|
|-------------------------------------------------------------------------|
|-12-10-------12-10-12-10-------12-10-12-10-------12-10-12-10-------12-10-|
|-------12-10-------------12-10-------------12-10-------------12-10-------|
|-------------------------------------------------------------------------|
|-------------------------------------------------------------------------|
|
|Guitar 3
|-------------------------------------------------------------------------|
|-11-10-------11-10-11-10-------11-10-11-10-------11-10-11-10-------11-10-|
|-------12-10-------------12-10-------------12-10-------------12-10-------|
|-------------------------------------------------------------------------|
|-------------------------------------------------------------------------|
|-------------------------------------------------------------------------|

Guitar 2
|---------------------------|------------------|
|-13BU(15)-----------(13)---|-13---------------|
|---------------------------|------------------|
|---------------------------|------------------|
|---------------------------|------------------|
|---------------------------|------------------|
|
|Guitar 3
|-12BU(13)-----------(12)---|-12---------------|
|---------------------------|------------------|
|---------------------------|------------------|
|---------------------------|------------------|
|---------------------------|------------------|
|---------------------------|------------------|

___________________________________________________________________________________


Repeat Breakdown 2


Repeat Chorus
(Different strumming pattern at the start but easy to figure out)


Repeat Verse 3 (Without the small solo at the end)

___________________________________________________________________________________


Verse 4
Both guitars
|---------------------------------|---------------------------------|
|---------------------------------|---------------------------------|
|-3-3-3-3-3-3-3-3-3-3-3-3-3-3-3-3-|-3-3-3-3-3-3-3-3-5-5-5-5-5-5-5-5-|
|-3-3-3-3-3-3-3-3-3-3-3-3-3-3-3-3-|-3-3-3-3-3-3-3-3-5-5-5-5-5-5-5-5-|
|-1-1-1-1-1-1-1-1-1-1-1-1-1-1-1-1-|-1-1-1-1-1-1-1-1-3-3-3-3-3-3-3-3-|
|---------------------------------|---------------------------------|

|---------------------------------|---------------------------------|
|---------------------------------|---------------------------------|
|-7-7-7-7-7-7-7-7-7-7-7-7-7-7-7-7-|---------------------------------|
|-7-7-7-7-7-7-7-7-7-7-7-7-7-7-7-7-|---------------------------------|
|-5-5-5-5-5-5-5-5-5-5-5-5-5-5-5-5-|-------------------------3-3-3-3-|
|---------------------------------|-0-0-0-0-2-2-2-2-3-3-3-3---------|

___________________________________________________________________________________


Final harmony verse
Guitar 1
||---------------------------------|---------------------------------|
|o-6-----6-----6---5-----5-----5---|-3-----3-----3-------------------|
||---3-3---3-3---3---3-3---3-3---3-|---3-3---3-3---3-5-3-----------3-|
||---------------------------------|---------------------7-5-3-5-7---|
|o---------------------------------|---------------------------------|
||---------------------------------|---------------------------------|
|
|Guitar 2
||-5-----5-----5---3-----3-----3---|---------------------------------|
|o---------------------------------|-6-----6-----6---5-3-----------3-|
||---3-3---3-3---3---3-3---3-3---3-|---3-3---3-3---3-----5-3-2-3-5---|
||---------------------------------|---------------------------------|
|o---------------------------------|---------------------------------|
||---------------------------------|---------------------------------|

Guitar 1
|---------------------------------|---------------------------------|
|-6-----6-----6---5-----5-----5---|-3-----3-----3-------------------|
|---------------------------------|-----------------5-3-----------3-|
|---0-0---0-0---0---0-0---0-0---0-|---0-0---0-0---0-----7-5-3-5-7---|
|---------------------------------|---------------------------------|
|---------------------------------|---------------------------------|
|
|Guitar 2
|-5-----5----5--------------------|---------------------------------|
|-----------------8-----8-----8---|-6-----6-----6---5-3-----------3-|
|---7-7---7-7---7---7-7---7-7---7-|---7-7---7-7---7-----5-3-2-3-5---|
|---------------------------------|---------------------------------|
|---------------------------------|---------------------------------|
|---------------------------------|---------------------------------|

Guitar 1
|---------------------------------|---------------------------------||
|-6-----6-----6---5-----5-----5---|-3-----3-----3-------------------o|
|---3-3---3-3---3---3-3---3-3---3-|---3-3---3-3---3-5-3-----------3-||
|---------------------------------|---------------------7-5-3-5-7---||
|---------------------------------|---------------------------------o|
|---------------------------------|---------------------------------||
|
|Guitar 2
|-5-----5-----5---3-----3-----3---|---------------------------------||
|---------------------------------|-6-----6-----6---5-3-----------3-o|
|---3-3---3-3---3---3-3---3-3---3-|---3-3---3-3---3-----5-3-2-3-5---||
|---------------------------------|---------------------------------||
|---------------------------------|---------------------------------o|
|---------------------------------|---------------------------------||

First ending
Guitar 1
|---------------------------------|---------------------------------|
|-6-----6-----6---5-----5-----5---|-3-----3-----3-----------6---5---|
|---------------------------------|-----------------5-3---3---------|
|---0-0---0-0---0---0-0---0-0---0-|---0-0---0-0---0-----7-----------|
|---------------------------------|---------------------------------|
|---------------------------------|---------------------------------|
|
|Guitar 2
|-5-----5----5--------------------|-------------------------5---3---|
|-----------------8-----8-----8---|-6-----6-----6---5-3---3---------|
|---7-7---7-7---7---7-7---7-7---7-|---7-7---7-7---7-----5-----------|
|---------------------------------|---------------------------------|
|---------------------------------|---------------------------------|
|---------------------------------|---------------------------------|

Second ending
Guitar 1
|---------------------------------|-5---6---5---3-------------------|
|-6-----6-----6---5-----5-----5---|---------------------------------|
|---------------------------------|---------------------------------|
|---0-0---0-0---0---0-0---0-0---0-|-----------------5---7-----------|
|---------------------------------|---------------------------------|
|---------------------------------|---------------------------------|
|
|Guitar 2
|-5-----5----5--------------------|-1---3---1---0-------------------|
|-----------------8-----8-----8---|---------------------------------|
|---7-7---7-7---7---7-7---7-7---7-|---------------------------------|
|---------------------------------|-----------------2---3-----------|
|---------------------------------|---------------------------------|
|---------------------------------|---------------------------------|

___________________________________________________________________________________


That's all guys, please rate :)


DROWNING IN SLOW MOTION


Hammer on:    h
Pull off:     p
Bend up:          BU(?)
Natural Harmonic: NH

Guitar 1: Matt Heafy
Guitar 2: Corey Beaulieu


Intro/Outro
Both guitars
|---------------------------------|---------------------------------|
|-----------------3---------------|---------------------------------|
|-----------------2---------------|---------------------------------|
|-0---------------0---------------|---------------------------------|
|-0-------------------------------|-------------6h9p6---------6h9p6-|
|-0-------------------------------|-------------------0-0-0-0-------|

|---------------------------------|---------------------------------|
|-----------------3---------------|---------------------------------|
|-----------------2---------------|-----------------5-5-5-5-8-8-8-8-|
|-0---------------0---------------|---------------------------------|
|-0-------------------------------|-----------------3-3-3-3-6-6-6-6-|
|-0-------------------------------|---------------------------------|


Verse 1
Guitar 2 (Just guitar 1)
|---------------------------------|-------------------------------------|
|---------------------------------|-------------------------------------|
|---------------------------------|-------------------------------------|
|-------------------------------4-|-------------------------------------|
|-5-----3---3h6---5-----3---3h6---|-5-----3---3h6---6h9p6---------6h9p6-|
|---0-0---0-----0---0-0---0-------|---0-0---0-----0-------0-0-0-0-------|
_________

Guitar 1
|---------------------------------|---------------------------------|
|---------------------------------|---------------------------------|
|---------------------------------|-----------------5-5-5-5-8-8-8-8-|
|-------------------------------4-|---------------------------------|
|-5-----3---3h6---5-----3---3h6---|-5-----3---3h6---3-3-3-3-6-6-6-6-|
|---0-0---0-----0---0-0---0-------|---0-0---0-----0-----------------|
|
|Guitar 2
|---------------------------------|-------------------------------------|
|---------------------------------|-------------------------------------|
|---------------------------------|-----------------8-8-8-8-11-11-11-11-|
|-------------------------------4-|-------------------------------------|
|-5-----3---3h6---5-----3---3h6---|-5-----3---3h6---6-6-6-6--9--9--9--9-|
|---0-0---0-----0---0-0---0-------|---0-0---0-----0---------------------|

Both guitars
|---------------------------------|-------------------------------------|
|---------------------------------|-------------------------------------|
|---------------------------------|-------------------------------------|
|-------------------------------4-|-------------------------------------|
|-5-----3---3h6---5-----3---3h6---|-5-----3---3h6---6h9p6---------6h9p6-|
|---0-0---0-----0---0-0---0-------|---0-0---0-----0-------0-0-0-0-------|

Guitar 1
|---------------------------------|---------------------------------|
|---------------------------------|---------------------------------|
|---------------------------------|-----------------5-5-5-5-8-8-8-8-|
|-------------------------------4-|---------------------------------|
|-5-----3---3h6---5-----3---3h6---|-5-----3---3h6---3-3-3-3-6-6-6-6-|
|---0-0---0-----0---0-0---0-------|---0-0---0-----0-----------------|
|
|Guitar 2
|---------------------------------|-------------------------------------|
|---------------------------------|-------------------------------------|
|---------------------------------|-----------------8-8-8-8-11-11-11-11-|
|-------------------------------4-|-------------------------------------|
|-5-----3---3h6---5-----3---3h6---|-5-----3---3h6---6-6-6-6--9--9--9--9-|
|---0-0---0-----0---0-0---0-------|---0-0---0-----0---------------------|


Verse 2
Both guitars
|---------------------------------|---------------------------------|
|---------------------------------|---------------------------------|
|---------------------------------|---------------------------------|
|---------------------------------|---------------5---------7-5-3---|
|-5---5---------5---5p4---7-------|-5---8-------------5-4---------7-|
|---0---0-0h3h7---0-----0---0h3h7-|---0---0-0h3h7---0-----0---------|

Harmony
Guitar 2
|---------------------------------|---------------------------------|
|---------------------------------|---------------------------------|
|---------------------------------|---------------------------------|
|---------------------------------|---------------5---------5-3-2---|
|-5---5---------5---5p4---7-------|-5---8-------------5-4---------5-|
|---0---0-0h3h7---0-----0---0h3h7-|---0---0-0h3h7---0-----0---------|


Chorus
Guitar 1
|---------------------------------|---------------------------------|
|---------------------------------|---------------------------------|
|---------------------------------|---------------------------------|
|---------------------------------|---------------------------------|
|-8-8-8-8-8-8-8-8-8-8-8-8-8-8-8-8-|-8-8-8-8-8-8-8-8-8-8-8-8-8-8-8-8-|
|-8-8-8-8-8-8-8-8-8-8-8-8-8-8-8-8-|-8-8-8-8-8-8-8-8-8-8-8-8-8-8-8-8-|

|---------------------------------|---------------------------------|
|---------------------------------|---------------------------------|
|---------------------------------|---------------------------------|
|---------------------------------|---------------------------------|
|-8-8-8-8-8-8-8-8-8-8-8-8-8-8-8-8-|-8-8-8-8-8-8-8-8-7-7-7-7-7-7-7-7-|
|-8-8-8-8-8-8-8-8-8-8-8-8-8-8-8-8-|-8-8-8-8-8-8-8-8-7-7-7-7-7-7-7-7-|

Guitar 2
|-------------------------------------------------------------------------------|
|-------------------------------------------------------------------------------|
|-10----10----10h12p10----10----10h12p10----10----10h12p10-------10-12-10----10-|
|---12----12----------12----12----------12----12-----------12-14----------14----|
|-----13----13----------13----13----------13----13------------------------------|
|-------------------------------------------------------------------------------|

|-------------------------------------------------------------------------------|
|-------------------------------------------------------------------------------|
|-10----10----10h12p10----10----10h12p10----10----10h12p10-------10-12-10----10-|
|---12----12----------12----12----------12----12-----------12-14----------14----|
|-----13----13----------13----13----------13----13------------------------------|
|-------------------------------------------------------------------------------|

Guitar 1
|---------------------------------|---------------------------------|
|---------------------------------|---------------------------------|
|-7-7-7-7-7-7-7-7-7-7-7-7-7-7-7-7-|-7-7-7-7-7-7-7-7-7-7-7-7-7-7-7-7-|
|-7-7-7-7-7-7-7-7-7-7-7-7-7-7-7-7-|-7-7-7-7-7-7-7-7-7-7-7-7-7-7-7-7-|
|-5-5-5-5-5-5-5-5-5-5-5-5-5-5-5-5-|-5-5-5-5-5-5-5-5-5-5-5-5-5-5-5-5-|
|---------------------------------|---------------------------------|

|---------------------------------|---------------------------------|
|---------------------------------|---------------------------------|
|-6-6-6-6-6-6-6-6-6-6-6-6-6-6-6-6-|-6-6-6-6-6-6-6-6-6-6-6-6-6-6-6-6-|
|-7-7-7-7-7-7-7-7-7-7-7-7-7-7-7-7-|-7-7-7-7-7-7-7-7-7-7-7-7-7-7-7-7-|
|-4-4-4-4-4-4-4-4-4-4-4-4-4-4-4-4-|-4-4-4-4-4-4-4-4-4-4-4-4-4-4-4-4-|
|---------------------------------|---------------------------------|

Guitar 2
|-------------------------------------------------------------------------------|
|-------------------------------------------------------------------------------|
|-14----14----14h15p14----14----14h15p14----14----14h15p14----15-14----14-------|
|---15----15----------15----15----------15----15-----------15-------17----17-14-|
|-----17----17----------17----17----------17----17------------------------------|
|-------------------------------------------------------------------------------|

|-------------------------------------------------------------------------------|
|-------------------------------------------------------------------------------|
|-14----14----14h15p14----14----14h15p14----14----14h15p14----15-14----14-------|
|---14----14----------14----14----------14----14-----------15-------17----17-14-|
|-----16----16----------16----16----------16----16------------------------------|
|-------------------------------------------------------------------------------|

Guitar 1
|---------------------------------|---------------------------------|
|---------------------------------|---------------------------------|
|---------------------------------|---------------------------------|
|---------------------------------|---------------------------------|
|-8-8-8-8-8-8-8-8-8-8-8-8-8-8-8-8-|-8-8-8-8-8-8-8-8-7-7-7-7---------|
|-8-8-8-8-8-8-8-8-8-8-8-8-8-8-8-8-|-8-8-8-8-8-8-8-8-7-7-7-7-12\-----|

Guitar 2
|-------------------------------------------------------------------------------|
|-------------------------------------------------------------------------------|
|-10----10----10h12p10----10----10h12p10----10----10h12p10-------10-12-10----10-|
|---12----12----------12----12----------12----12-----------12-14----------14----|
|-----13----13----------13----13----------13----13------------------------------|
|-------------------------------------------------------------------------------|


Repeat Verse 1


Repeat Verse 2


Breakdown
Both guitars
||-----------------|-----------------|-----------------|--------------------||
|o-----------------|-----------------|-----------------|--------------------o| x4
||-----------------|-----------------|-----------------|--------------------||
||-----------------|-----------------|-----------------|-------3------------||
|o-------0---0-----|-----0-----------|-------0---0-----|-5-4-5---4-5--------o|
||-0-0-0-0-0-0-----|-00000-----------|-0-0-0-0-0-0-----|-------------3BU(5)-||

                             NH-----|
||-----------------|-----------------|-----------------|--------------------||
|o-----------------|-----------------|-----------------|--------------------o| x2
||-----------------|-----------------|-----------------|--------------------||
||-----------------|---------55555555|-----------------|-------3------------||
|o-------0---0-----|-----0-----------|-------0---0-----|-5-4-5---4-5--------o|
||-0-0-0-0---0-----|-00000-----------|-0-0-0-0---0-----|-------------3BU(5)-||


Solo
Guitar 1 (Rhythm)
|---------------------------------|---------------------------------|
|---------------------------------|---------------------------------|
|---------------------------------|---------------------------------|
|---------------------------------|-7-----7-----7-----7-----7---7---|
|-8-----8-----8-----8-----8---8---|---5-5---5-5---5-5---5-5---5---5-|
|---8-8---8-8---8-8---8-8---8---8-|---------------------------------|

|---------------------------------|---------------------------------|
|---------------------------------|---------------------------------|
|---------------------------------|---------------------------------|
|---------------------------------|-5-----5-----5---7-----7-----7---|
|-8-----8-----8-----8-----8---8---|---3-3---3-3---3---5-5---5-5---5-|
|---8-8---8-8---8-8---8-8---8---8-|---------------------------------|

|---------------------------------|---------------------------------|
|---------------------------------|---------------------------------|
|---------------------------------|---------------------------------|
|---------------------------------|-7-7-7-7-7-7-7-7-7-7-7-7-7-7-7-7-|
|-8-8-8-8-8-8-8-8-8-8-8-8-8-8-8-8-|-5-5-5-5-5-5-5-5-5-5-5-5-5-5-5-5-|
|-8-8-8-8-8-8-8-8-8-8-8-8-8-8-8-8-|-0-0-0-0-0-0-0-0-0-0-0-0-0-0-0-0-|

|---------------------------------|---------------------------------|
|---------------------------------|---------------------------------|
|---------------------------------|---------------------------------|
|---------------------------------|-5-5-5-5-5-5-5-5-7-7-7-7-7-7-7-7-|
|-8-8-8-8-8-8-8-8-8-8-8-8-8-8-8-8-|-3-3-3-3-3-3-3-3-5-5-5-5-5-5-5-5-|
|-8-8-8-8-8-8-8-8-8-8-8-8-8-8-8-8-|---------------------------------|

Guitar 2 (Lead)
|-------------------------------------------------|
|-11-11-11-11-11-11-11-11-11-11-11-11-13-13-13-13-|
|-10-10-10-10-10-10-10-10-10-10-10-10-10-10-10-10-|
|-------------------------------------------------|
|-------------------------------------------------|
|-------------------------------------------------|

|-------------------------------------------------|
|-15-15-15-15-15-15-15-15-18-18-18-18-17-17-17-17-|
|-14-14-14-14-14-14-14-14-14-14-14-14-14-14-14-14-|
|-------------------------------------------------|
|-------------------------------------------------|
|-------------------------------------------------|

|-------------------------------------------------|
|-11-11-11-11-11-11-11-11-11-11-11-11-10-10-10-10-|
|-10-10-10-10-10-10-10-10-10-10-10-10-10-10-10-10-|
|-------------------------------------------------|
|-------------------------------------------------|
|-------------------------------------------------|

|-------------------------------------------------|
|-8-8-8-8-8-8-8-8--15-----------------------------|
|-9-9-9-9-9-9-9-9-----15-14-15-12BU(14)-----------|
|-------------------------------------------------|
|-------------------------------------------------|
|-------------------------------------------------|

|--------------------------------13h17p13---------|
|-13BU(15)---(13)(15)----------15--------15-------|
|----------------------------14------------14-----|
|--------------------------15----------------15---|
|------------------------17--------------------17-|
|-------------------------------------------------|

|-------------------------------------------------|
|-------------------------------------------------|
|----14-15-14-------------------------------------|
|-17-------------17-15-17----15-14-15-------------|
|-------------------------------------------------|
|-------------------------------------------------|

|-------------------------------------------|
|-------------------------------------------|
|-7-7-7-9-9-9-10-10-10-12-12-12-14-14-14-14-|
|-------------------------------------------|
|-5-5-5-7-7-7--8--8--8-10-10-10-12-12-12-12-|
|-------------------------------------------|

|-------------------------------------15-17-18-20-|-20BU(22)---(20)(22)-|
|----------------------------15-17-18-------------|---------------------|
|-------------------15-17-19----------------------|---------------------|
|----------15-17-19-------------------------------|---------------------|
|-15-17-19----------------------------------------|---------------------|
|-------------------------------------------------|---------------------|


Repeat Breakdown


Repeat Chorus


Repeat Intro/Outro


That's all, please rate guys :)


A GREY SO DRAK


Hammer on:    h
Pull off:     p
Slide up:     /
Slide down:   \
Vibrato:      ~~~
Bend up:      BU(?)
Muted note:   x


UPDATES

Outro added: 18/06/12



Guitar 1: Matt Heafy
Guitar 2: Corey Beaulieu

Intro
Both Guitars
|----------|
|----------|
|----------|
|----------|
|-12\------|
|-12\------|

Guitar 1
|-------------------|------|
|-------------------|------|
|-------------------|------|
|-10-----------10---|---10-|
|-------------------|------|
|----7-7-7---7------|-7----|

Guitar 2
|-------------------|------|
|-------------------|------|
|-------------------|------|
|-------------------|------|
|--7-7-7-7----------|------|
|--7-7-7-7----------|------|

Guitar 1
|-----------------------|-------|
|-----------------------|-------|
|-----------------------|-------|
|-----------------------|-------|
|-----------------------|-------|
|-14-10-10-10---10-14---|-10-14-|

Guitar 2
|-----------------------|-------|
|-----------------------|-------|
|-----------------------|-------|
|-10-10-10-10-----------|-------|
|-10-10-10-10-----------|-------|
|-10-10-10-10-----------|-------|

Guitar 1
|-----------------|-----|
|-----------------|-----|
|-----------------|-----|
|-9-----------9---|---9-|
|-----------------|-----|
|---5-5-5---5-----|-5---|

Guitar 2
|-----------------|-----|
|-----------------|-----|
|-----------------|-----|
|-5-5-5-5---------|-----|
|-5-5-5-5---------|-----|
|-5-5-5-5---------|-----|

Guitar 1
|-----------------|----------|---------------|
|-----------------|----------|---------------|
|-----------------|----------|---------------|
|-7---------------|----------|-3-------------|
|-----------------|----------|-3-------------|
|---3-3-3---3-2---|-/9---6---|-3-------------|

Guitar 2
|-----------------|----------|---------------|
|-----------------|----------|---------------|
|-----------------|----------|---------------|
|-3-3-3-3---------|----------|-3-------------|
|-3-3-3-3---------|----------|-3-------------|
|-3-3-3-3---3-2---|----------|-3-------------|

Verse
Both Guitars
|---------------------------------|
|---------------------------------|
|---------------------------------|
|---------------------------------|
|-7-----------7-------------------|
|-7---7-7-7-7-7---7-7-7-7-7-7-7-7-|

|---------------------------------|
|---------------------------------|
|---------------------------------|
|---------------------------------|
|---------------------------------|
|-7-7-7-7-7-7-7-7-7-7-7-7-7-7-7-7-|

|---------------------------------|
|---------------------------------|
|---------------------------------|
|---------------------------------|
|-3-----------3-------------------|
|-3---3-3-3-3-3---3-3-3-3-3-3-3-3-|

|---------------------------------|
|---------------------------------|
|---------------------------------|
|---------------------------------|
|---------------------------------|
|-3-3-3-3-3-3-3-3-3-3-3-3-3-3-3-3-|

|---------------------------------|
|---------------------------------|
|---------------------------------|
|---------------------------------|
|-7-----------7-------------------|
|-7---7-7-7-7-7---7-7-7-7-7-7-7-7-|

|---------------------------------|
|---------------------------------|
|---------------------------------|
|---------------------------------|
|---------------------------------|
|-7-7-7-7-7-7-7-7-7-7-7-7-7-7-7-7-|

Pre Chours
Guitar 1
|---------------------------------|---------------------------------|
|---------------------------------|---------------------------------|
|---------------------------------|---------------------------------|
|---------------------------------|---------------------------------|
|-3-3-3-3-3-3-3-3-3-3-3-3-3-3-3-3-|-7-7-7-7-7-7-7-7-7-7-7-7-7-7-7-7-|
|-3-3-3-3-3-3-3-3-3-3-3-3-3-3-3-3-|-7-7-7-7-7-7-7-7-7-7-7-7-7-7-7-7-|

Guitar 2
|---------------------------------|---------------------------------|
|---------------------------------|---------------------------------|
|-9---10---9---10----9h10p9-------|-9-----9-----9-----9-----9-------|
|--10---10--10---10--------12-10--|--10----10----10----10----9----9-|
|----8----8---8----8--------------|----12----12----12----12----12---|
|---------------------------------|---------------------------------|

Guitar 1
|---------------------------------|---------------------------------|
|---------------------------------|---------------------------------|
|---------------------------------|---------------------------------|
|---------------------------------|-7-------------------------------|
|-3-3-3-3-3-3-3-3-3-3-3-3-3-3-3-3-|-7-------------------------------|
|-3-3-3-3-3-3-3-3-3-3-3-3-3-3-3-3-|-7-------------------------------|

Guitar 2
|---------------------------------|---------------------------------|
|---------------------------------|---------------------------------|
|-9---10---9---10----9h10p9-------|---------------------------------|
|--10---10--10---10--------12-10--|---------------------------------|
|----8----8---8----8--------------|---------------------------------|
|---------------------------------|---------------------------------|

Chorus
Both Guitars
|-------------------|------|
|-------------------|------|
|-------------------|------|
|-10-----------10---|---10-|
|-------------------|------|
|----7-7-7---7------|-7----|

|-----------------------|-------|
|-----------------------|-------|
|-----------------------|-------|
|-----------------------|-------|
|-----------------------|-------|
|-14-10-10-10---10-14---|-10-14-|

Guitar 1
|-----------------|---------|
|-----------------|---------|
|-----------------|---------|
|-5-5-5-5-5-5-5-5-|-5-5-5-5-|
|-5-5-5-5-5-5-5-5-|-5-5-5-5-|
|-5-5-5-5-5-5-5-5-|-5-5-5-5-|

Guitar 2
|-------------------------|-------------|
|-------------------------|-------------|
|-12-12-12-12-12-12-12-12-|-12-12-12-12-|
|-------------------------|-------------|
|-10-10-10-10-10-10-10-10-|-10-10-10-10-|
|-------------------------|-------------|

Guitar 1
|-----------------|----------|
|-----------------|----------|
|-----------------|----------|
|-3-3-3-3-3-3-2---|----------|
|-3-3-3-3-3-3-2---|----------|
|-3-3-3-3-3-3-2---|-/9---6---|

Guitar 2
|------------------------|------------|
|------------------------|-/12--------|
|-10-----10-14-----14----|-------13---|
|---------------------14-|------------|
|------------------------|------------|
|------------------------|------------|

Guitar 1 repeats the last note of the Intro (F5) and then repeats
the verse

Guitar 2
|-------------------------------------------------|
|-13----13----13----13----13----13----10----10----|
|----10----10----10----10----10----10----10----10-|
|-------------------------------------------------|
|-------------------------------------------------|
|-------------------------------------------------|

|-------------------------------------------------|
|-17----17----17----17----17----17----17----17----|
|----14----14----14----14----14----14----14----14-|
|-------------------------------------------------|
|-------------------------------------------------|
|-------------------------------------------------|

Repeat Pre Chorus

Repeat Chrous

Solo 1
Guitar 2
|--------12BU(13)(12)(13)-|-12----------15----------|
|-------------------------|----15-13-12----13-12-10-|
|-/10---------------------|-------------------------|
|-------------------------|-------------------------|
|-------------------------|-------------------------|
|-------------------------|-------------------------|

|-------------15-13-12-10-|-19BU(20)-19-17-------------|
|-10-12-13-15-------------|----------------18----------|
|-------------------------|-------------------17-16-17-|
|-------------------------|----------------------------|
|-------------------------|----------------------------|
|-------------------------|----------------------------|

|------20----19-------15-|----13----12-------------|
|------------------------|----------------15----13-|
|-14------17----17-12----|-12----12----12----12----|
|------------------------|-------------------------|
|------------------------|-------------------------|
|------------------------|-------------------------|

|------------------------|
|-12h13p12---------------|
|----------14-12-14------|
|------------------------|
|------------------------|
|------------------------|

|-------------------------------------------------------------12-13-15-17-|
|-------------------------------------------------------13-15-------------|
|-------------------------------------12-14-16-12-14-16-------------------|
|-------------------12-14-15-12-14-15-------------------------------------|
|-12-14-15-12-14-15-------------------------------------------------------|
|-------------------------------------------------------------------------|

|-17BU(19)-------|
|----------------|
|----------------|
|----------------|
|----------------|
|----------------|

Interlude
Guitar 1
|----------------------|--------------------|
|-------------------13-|-13--------------13-|
|-14-------------14----|--------------14----|
|----------------------|--------------------|
|----------------------|--------------------|
|----------------------|--------------------|

|----------------------|-15---13---12---13-12-|
|-12----------12-13-15-|----------------------|
|----------12----------|----------------------|
|----------------------|----------------------|
|----------------------|----------------------|
|----------------------|----------------------|

Solo 2
Guitar 1
|-5--------------------|-8-5---5-------------------------|
|-8BU(10)--------------|-----8---8-5-8-5---5-------------|
|----------------------|-----------------7---7-5-7-5---5-|
|----------------------|-----------------------------7---|
|----------------------|---------------------------------|
|----------------------|---------------------------------|

|---------------------------------|---------------------------|
|---------------------------------|---------------------------|
|-7-5---5-7-5-7-5---5-7-5-7-5---5-|-7-5---5-7-5---5-7BU(9)----|
|-----7-----------7-----------7---|-----7-------7-------------|
|---------------------------------|---------------------------|
|---------------------------------|---------------------------|

|----------------------|---------------------|
|------13------13------|-13---13/15-15-------|
|-9-10----9-10----9-10-|----9----------------|
|----------------------|---------------------|
|----------------------|---------------------|
|----------------------|---------------------|

|-------------------------------------------------|
|-13-10----10-13-10-13-10----10-13-10-13-10----10-|
|-------12----------------12----------------12----|
|-------------------------------------------------|
|-------------------------------------------------|
|-------------------------------------------------|

|---------------------------------------|
|-13-10----10-13-10----10---------------|
|-------12----------12----12BU(14)------|
|---------------------------------------|
|---------------------------------------|
|---------------------------------------|

Solo 1 and Interlude Rhythm
|-----------------|-----------------|
|-----------------|-----------------|
|-----------------|-----------------|
|-----------------|-----------------|
|-----------------|-----------------|
|-3-3-3-3-3-3-3-3-|-7-7-7-7-7-7-7-7-|

|-----------------|-----------------|
|-----------------|-----------------|
|-----------------|-----------------|
|-----------------|-----------------|
|-----------------|-3-3-3-3-5-5-5-5-|
|-5-5-5-5-5-5-5-5-|-----------------|

Solo 2 Rhythm
|-----------------|-----------------|
|-----------------|-----------------|
|-----------------|-----------------|
|-3---------------|-7---------------|
|-3---------------|-7---------------|
|-3---------------|-7---------------|

|-----------------|-----------------|
|-----------------|-----------------|
|-----------------|-----------------|
|-3---------------|-7---------------|
|-3---------------|-7---------------|
|-3---------------|-7---------------|

Outro
Guitar 1
|-----------------|-----------------|
|-----------------|-----------------|
|-----------------|-----------------|
|-7---------------|-10--------------|
|-7---------------|-10--------------|
|-7---------------|-10--------------|

|-----------------|-----------------|
|-----------------|-----------------|
|-----------------|-----------------|
|-5---------------|-3-------2-------|
|-5---------------|-3-------2-------|
|-5---------------|-3-------2-/9--6-|

Guitar 2
|-----------------|-----------------|
|-----------------|-----------------|
|---------9---7---|-----------------|
|-/7--------------|-10------9PH-----|
|-----------------|-----------------|
|-----------------|-----------------|

|-----------------|-----------------|
|-----------------|-----------------|
|---------9---7---|-5h7p5-4---------|
|-/5--------------|-------------6---|
|-----------------|-----------------|
|-----------------|-----------------|


That's all
Please Rate


CHAOS REIGNS


Hammer on:    h
Pull off:     p
Slide up:     /
Slide down:   \
Tremelo pick: Tr---

Guitar 1: Matt Heafy
Guitar 2: Corey Beaulieu


Intro
Guitar 1
|--------------------------------------------------------------|
|--------------------------------------------------------------|
|--------------------------------------------------------------|
|--------------------------------------------------------------|
|--------------------------------------------------------------|
|-0h12h15-0---0---0h12h15-0---0---0h12h15-0---0---0h12h15p0h14-|
|
|Guitar 2
|--------------------------------------------------------------|
|--------------------------------------------------------------|
|--------------------------------------------------------------|
|--------------------------------------------------------------|
|--------------------------------------------------------------|
|-------------------------------------------------0h12h15p0h14-|

Guitar 1
|----------------------------------------------------------|
|----------------------------------------------------------|
|----------------------------------------------------------|
|----------------------------------------------------------|
|----------------------------------------------------------|
|-0h8h12-0---0---0h8h12-0---0---0h8h12-0---0---0h8h12p0h11-|
|
|Guitar 2
|-----------------------------------------------------------|
|-----------------------------------------------------------|
|-----------------------------------------------------------|
|-----------------------------------------------------------|
|-----------------------------------------------------------|
|----------------------------------------------0h12h15p0h14-|

_______________________________________________________________________


Verse 1/chorus
Guitar 1
|--------------------------------------------------------------|
|--------------------------------------------------------------|
|--------------------------------------------------------------|
|--------------------------------------------------------------|
|--------------------------------------------------------------|
|-0h12h15-0---0---0h12h15-0---0---0h12h15-0---0---0h12h15p0h14-|
|
|Guitar 2
|--------------------------------------------------------------|
|--------------------------------------------------------------|
|--------------------------------------------------------------|
|--------------------------------------------------------------|
|--------------------------------------------------------------|
|-0h12h15-0---0---0h12h15-0---0---0h12h15-0---0---0h12h15p0h14-|

Guitar 1
|--------------------------------------------------------------|
|--------------------------------------------------------------|
|--------------------------------------------------------------|
|--------------------------------------------------------------|
|--------------------------------------------------------------|
|-0h12h15-0---0---0h12h15-0---0---0h12h15-0---0---0h12h15p0h14-|
|
|Guitar 2
|----------------------------------------------------------|
|----------------------------------------------------------|
|----------------------------------------------------------|
|----------------------------------------------------------|
|----------------------------------------------------------|
|-0h8h12-0---0---0h8h12-0---0---0h8h12-0---0---0h8h12p0h11-|

_______________________________________________________________________


Verse 2
Guitar 1
|-----------------|-----------------|-----------------|-----------------|
|-----------------|-----------------|-----------------|-----------------|
|-----------------|-----------------|-----------------|-----------------|
|-0---------------|-5---------------|-8---------------|-----------------|
|-0---------------|-5---------------|-8---------------|-----------------|
|-0---------------|-5---------------|-8---------------|-5-555-5-888-333-|
|
|Guitar 2
|-----------------|-----------------|-----------------|-----------------|
|-----------------|-----------------|-----------------|-----------------|
|-11--------------|-12--------------|-10--------------|-----------------|
|-----------------|-----------------|-----------------|-----------------|
|--9--------------|-10--------------|--8--------------|-----------------|
|-----------------|-----------------|-----------------|-5-555-5-888-333-|

|-----------------|-----------------|-----------------|----------------------------|
|-----------------|-----------------|-----------------|----------------------------|
|-----------------|-----------------|-----------------|----------------------------|
|-8---------------|-10--------------|-7---------------|----------------------------|
|-8---------------|-10--------------|-7---------------|----------------------------|
|-8---------------|-10--------------|-7---------------|-10-101010-10-111111-111111-|
|
|Guitar 2
|-----------------|-----------------|-----------------|----------------------------|
|-----------------|-----------------|-----------------|----------------------------|
|-7---------------|-9---------------|-9---------------|----------------------------|
|-----------------|-----------------|-----------------|----------------------------|
|-5---------------|-7---------------|-7---------------|----------------------------|
|-----------------|-----------------|-----------------|-10-101010-10-111111-111111-|

_______________________________________________________________________


Verse 3
|-----------------|
|-----------------| x4
|-----------------|
|-----------------|
|-----------------|
|-0-000-0-000-000-|

_______________________________________________________________________


Repeat Verse 1/Chorus

Repeat Verse 2

Repeat Verse 3

Repeat Verse 1/Chorus

_______________________________________________________________________


Verse 4
Guitar 1
|--------------------------------------|----------------------------------------|
|--------------------------------------|----------------------------------------|
|--------------------------------------|--------------------------10------------|
|-----10-----10-----10-----10-----10---|-----10-----10-----10--------------12---|
|--------------------------------------|-----------------------------12p10------|
|-0-0----0-0----0-0----0-0----0-0----0-|-0-0----0-0----0-0----0-0-------------0-|
|
|Guitar 2
|--------------------------------------|----------------------------------------|
|--------------------------------------|----------------------------------------|
|--------------------------------------|--------------------------10------------|
|-----10-----10-----10-----10-----10---|-----10-----10-----10--------------12---|
|--------------------------------------|-----------------------------12p10------|
|-0-0----0-0----0-0----0-0----0-0----0-|-0-0----0-0----0-0----0-0-------------0-|

Guitar 1
|---------------------------------|-------------------------------|
|---------------------------------|-------------------------------|
|---------------------------------|-------------------------------|
|---------------------------------|-------------------------------|
|-----5-----5-----5-----5-----5---|-----8-----8-----8-----7-----8-|
|---3---3-3---3-3---3-3---3-3---5-|---5---5-5---5-5---0p5---0p7---|
|
|Guitar 2
|---------------------------------|----------------------------------|
|---------------------------------|----------------------------------|
|---------------------------------|----------------------------------|
|---------------------------------|----------------------------------|
|-----5-----5-----5-----5-----5---|-----8-----8-----8-----10------12-|
|---3---3-3---3-3---3-3---3-3---5-|---5---5-5---5-5---0p8----0p10----|

_______________________________________________________________________


Breakdown
Guitar 1
|---------------|---------------|---------------|--------------|
|---------------|---------------|---------------|--------------|
|---------------|---------------|---------------|--------------|
|---------------|---------------|---------------|--------------|
|-------0---0---|-------0---0---|-------0---0---|--------------|
|-0-0-0-0-0-0-0-|-0-0-0-0-0-0-0-|-0-0-0-0-0-0-0-|-0h12h15p0h14-|
|
|Guitar 2
|---------------|---------------|---------------|-------------|
|---------------|---------------|---------------|-------------|
|---------------|---------------|---------------|-------------|
|---------------|---------------|---------------|-------------|
|-------0---0---|-------0---0---|-------0---0---|-------------|
|-0-0-0-0-0-0-0-|-0-0-0-0-0-0-0-|-0-0-0-0-0-0-0-|-0h8h12p0h11-|

_______________________________________________________________________


Solo
Guitar 1 (Rhythm)
|---------------|---------------|---------------|--------------|
|---------------|---------------|---------------|--------------| x4
|---------------|---------------|---------------|--------------|
|---------------|---------------|---------------|--------------|
|-------0---0---|-------0---0---|-------0---0---|--------------|
|-0-0-0-0-0-0-0-|-0-0-0-0-0-0-0-|-0-0-0-0-0-0-0-|-0h12h15p0h14-|

Guitar 2 (Lead)
|----------18-------17----|----13-------12----|----------18-------17-------13----|
|-18-17-15----15\14----14\|\11----11\10----10/|-18-17-15----15\14----14\11----10-|
|-------------------------|-------------------|----------------------------------|
|-------------------------|-------------------|----------------------------------|
|-------------------------|-------------------|----------------------------------|
|-------------------------|-------------------|----------------------------------|

  Tr----------------------------------------
|-21-----------18---17---15---14---15---17---18p17p15----------------------------|
|-----------------------------------------------------18p17p15-------------------|
|--------------------------------------------------------------18p16p15----------|
|-----------------------------------------------------------------------17p15p14-|
|--------------------------------------------------------------------------------|
|--------------------------------------------------------------------------------|

|--------|--------|---------------|--------------------------------------------|
|--------|--------|---------------|-----------------------------------10-11-13-|
|-11-----|-12-----|-14-12-10------|--------------------7-9-10-9-10-12----------|
|--------|--------|---------------|-------5-7-8-7-8-10-------------------------|
|--9-----|-10-----|-12-10--8------|-5-7-8--------------------------------------|
|--------|--------|---------------|--------------------------------------------|

_______________________________________________________________________


Octave Verse
Guitar 1
|---------------|---------------|---------------|--------------|
|---------------|---------------|---------------|--------------| x4
|---------------|---------------|---------------|--------------|
|---------------|---------------|---------------|--------------|
|-------0---0---|-------0---0---|-------0---0---|--------------|
|-0-0-0-0-0-0-0-|-0-0-0-0-0-0-0-|-0-0-0-0-0-0-0-|-0h12h15p0h14-|

Guitar 2
|--------|--------|------|--------|--------|------|
|--------|--------|------|--------|--------|------|
|-11-----|-12-----|-14---|-11-----|-12-----|-15---|
|--------|--------|------|--------|--------|------|
|--9-----|-10-----|-12---|--9-----|-10-----|-13---|
|--------|--------|------|--------|--------|------|

_______________________________________________________________________


Repeat Verse 2

Repeat Chorus

Repeat Breakdown

_______________________________________________________________________


That's all guys, please rate :)


OF ALL THESE YESTERDAYS


Hammer on:    h
Pull off:     p
Slide up:     /
Slide down:   \
Bend up:      BU(?)

Guitar 1:        Matt Heafy
Guitar 2:        Corey Beaulieu
Acoustic guitar: Matt Heafy


Verse 1
Acoustic guitar
|-------------------------------------------------|
|-------------------------------------------------|
|-------------------------------------------------|
|---------0-----------3-----------0-------3p0-----|
|-----0-----------0-----------0---------------0---|
|-3-3---3-----0-0---0-----3-3---3-----0-0---------|

|-------------------------------------------------|
|-------------------------------------------------|
|-------------------------------------------------|
|---------0-----------3-------0---0-------2---2---|
|-----0-----------0-------0-0---0-----4-4---4-----|
|-3-3---3-----0-0---0-----------------------------|


Verse 2
Acoustic guitar
|---------------------------------|---------------------------------|
|---------------------------------|---------------------------------|
|-------0-------0-------0-------0-|---2p0-----2p0-----2p0-----2p0---|
|---0h3-----0h3-----0h3-----0h3---|-------3-------3-------3-------3-|
|-1-------1-------1-------1-------|---------------------------------|
|---------------------------------|-0-------0-------0-------0-------|

|---------------------------------|---------------------------------|
|---------------------------------|---------------------------------|
|-------0-------0-------0-------0-|-------0-------0-------0-------0-|
|---0h3-----0h3-----0h3-----0h3---|---0p2-----0p2-----0p2-----0p2---|
|-1-------1-------1-------1-------|-3-------3-------3-------3-------|
|---------------------------------|---------------------------------|


Chorus
Guitar 1
|---------------------------------|---------------------------------|
|---------------------------------|---------------------------------|
|---------------------------------|---------------------------------|
|---------------------------------|---------------------------------|
|-8-8-8-8-8-8-8-8-8-8-8-8-8-8-8-8-|-0-0-0-0-0-0-0-0-0-0-0-0-0-0-0-0-|
|-8-8-8-8-8-8-8-8-8-8-8-8-8-8-8-8-|-0-0-0-0-0-0-0-0-0-0-0-0-0-0-0-0-|

|---------------------------------|---------------------------------|
|---------------------------------|---------------------------------|
|---------------------------------|---------------------------------|
|---------------------------------|-5-5-5-5-5-5-5-5-5-5-5-5-5-5-5-5-|
|-3-3-3-3-3-3-3-3-3-3-3-3-3-3-3-3-|-3-3-3-3-3-3-3-3-3-3-3-3-3-3-3-3-|
|-3-3-3-3-3-3-3-3-3-3-3-3-3-3-3-3-|---------------------------------|

Guitar 2
||-------------------------------------------------||
|o-------------------------------------------------o| x3
||-10-10-10-10-10-10-10-10-10-10-10-10-12-12-14-14-||
||-------------------------------------------------||
|o--8--8--8--8--8--8--8--8--8--8--8--8-10-10-12-12-o|
||-------------------------------------------------||

|---------------------------------|
|---------------------------------|
|-9-9-9-9-9-9-9-9-9-9-9-9-9-9-9-9-|
|---------------------------------|
|-7-7-7-7-7-7-7-7-7-7-7-7-7-7-7-7-|
|---------------------------------|


Repeat Verse 1


Repeat Chorus x2


Solo
Guitar 1 (Rhythm)
|-----------------|-----------------|-----------------|
|-----------------|-----------------|-----------------|
|-----------------|-7---------------|---------6h7-7/9-|
|-----4h5---------|-----8-------8---|-----------------|
|-------------8-8-|---------5-5-----|-5---0-0---------|
|-0-0-----0-0-8-8-|---------5-5-----|-5---------------|

|-----------------|-----------------|-----------------|
|-----------------|-----------------|-----------------|
|-----------------|-7---------------|-----------------|
|-----4h5---------|-----8-------8---|-----2-2-2-7-7-7-|
|-------------8-8-|---------5-5-----|-5---0-0-0-4-4-4-|
|-0-0-----0-0-8-8-|---------5-5-----|-5---------------|

Guitar 2 (Lead)
|-----------------|-----------------|-----------------|
|-----------5-6---|---------6-/-8-6-|-----5-----------|
|-7-------5-------|-----------------|-----------6-----|
|---0-5-7---------|-----------------|-----------------|
|-----------------|-----------------|-----------------|
|-----------------|-----------------|-----------------|

|-----------------|-----------------|-----------------|
|-----------5-6---|---------6-/-8-6-|---/10-----------|
|-7-------5-------|-----------------|-----------9-----|
|---0-5-7---------|-----------------|-----------------|
|-----------------|-----------------|-----------------|
|-----------------|-----------------|-----------------|

|-8---------------------------------|---------------------------------|
|-8BU(10)(8)-6---6-8-8BU(10)(8)p6---|---------------------------------|
|--------------7------------------7-|-5---7---------------------------|
|-----------------------------------|---------------------10h12-------|
|-----------------------------------|---------------10h12-------10h12-|
|-----------------------------------|---------12h15-------------------|

|-------------------------------------------10h13-|
|-------------------------10h13-------10h13-------|
|-------10h12-------10h12-------10h12-------------|
|-10h12-------10h12-------------------------------|
|-------------------------------------------------|
|-------------------------------------------------|

|-10------------12-13---|-------13BU(15)(13)-|-----17-----21-----|-22-|
|---------10-13---------|--------------------|-------------------|----|
|------12---------------|--------------------|-------------------|----|
|----0------------------|--------------------|-------------------|----|
|-----------------------|--------------------|-------------------|----|
|-----------------------|--------------------|-------------------|----|


Verse 3 part 1
Guitar 1
|-----------------|-----------------|
|-----------------|-----------------|
|-----------------|-----------------|
|-0---------------|-8---------------|
|-0---------------|-8---------------|
|-0---------------|-8---------------|

|-----------------|-----------------|
|-----------------|-----------------|
|-----------------|-----------------|
|-5---------------|-3-------7-------|
|-5---------------|-3-------7-------|
|-5---------------|-3-------7-------|

Guitar 2
|--------------------|-----------------|
|--------------------|-----------------|
|-10-10-10-7-7-7-7-7-|-7-7-7-7-7-7-7-7-|
|--------------------|-----------------|
|--------------------|-----------------|
|--------------------|-----------------|

|----------------------|-------------------------|
|----------------------|-------------------------|
|-9-9-9-10-10-10-------|-------------------------|
|----------------10-10-|-10-10-10-10-10-10-10-10-|
|----------------------|-------------------------|
|----------------------|-------------------------|

|-----------------|-----------------|
|-8-8-8-----------|-----------------|
|-------7-7-7-7-7-|-7-7-7-7-7-7-7-7-|
|-----------------|-----------------|
|-----------------|-----------------|
|-----------------|-----------------|

|-------------------------|-------------------------|
|-10-10-10----------------|-------------------------|
|----------10-10-10-10-10-|-12-12-12-12-12-12-12-12-|
|-------------------------|-------------------------|
|-------------------------|-------------------------|
|-------------------------|-------------------------|


Verse 3 part 2
Guitar 1
|------------------------|------------------------|
|------------------------|------------------------|
|------------------------|------------------------|
|-0------0---------------|-8------8---------------|
|-0------0---------------|-8------8---------------|
|-0--000-0--000-00000000-|-8--888-8--888-88888888-|

|------------------------|------------------------|
|------------------------|------------------------|
|------------------------|------------------------|
|-5------5---------------|-3------3---------------|
|-5------5---------------|-3------3---------------|
|-5--555-5--555-55555555-|-3--333-3--777-77777777-|

Guitar 2
|--------------------|-----------------|
|--------------------|-----------------|
|-10-10-10-7-7-7-7-7-|-7-7-7-7-7-7-7-7-|
|--------------------|-----------------|
|--------------------|-----------------|
|--------------------|-----------------|

|----------------------|-------------------------|
|----------------------|-------------------------|
|-9-9-9-10-10-10-------|-------------------------|
|----------------10-10-|-10-10-10-10-10-10-10-10-|
|----------------------|-------------------------|
|----------------------|-------------------------|

|-----------------|-----------------|
|-8-8-8-----------|-----------------|
|-------7-7-7-7-7-|-7-7-7-7-7-7-7-7-|
|-----------------|-----------------|
|-----------------|-----------------|
|-----------------|-----------------|

|-------------------------|-------------------------|
|-10-10-10----------------|----------14-14-14-14-14-|
|----------10-10-10-10-10-|-10-10-10----------------|
|-------------------------|-------------------------|
|-------------------------|-------------------------|
|-------------------------|-------------------------|


Repeat Chorus x2

An added harmony plays this
|-10-10-10p8-8-8-8p6-6-6-6p5-5-5-5h6-|
|------------------------------------|
|------------------------------------|
|------------------------------------|
|------------------------------------|
|------------------------------------|

|-10-10-10p8-8-8-8p6-6-6-6p5-5-5-5h6-|
|------------------------------------|
|------------------------------------|
|------------------------------------|
|------------------------------------|
|------------------------------------|

|------------------------------------|
|-10-10-10p8-8-8-8p6-6-6-6p5-8-8-8---|
|------------------------------------|
|------------------------------------|
|------------------------------------|
|------------------------------------|

|-----------------------------------|
|-5h6-8-------6---5-----------------|
|---------------------5-------------|
|-----------------------------------|
|-----------------------------------|
|-----------------------------------|


Repeat Verse 2


Outro
Guitar 1
|-------|
|-------|
|-5-----|
|-5-----|
|-3-----|
|-------|

Guitar 2
|-------|
|-13----|
|-------|
|-10----|
|-------|
|-------|

That's all guys, please rate :)


LEAVING THIS WORLD BEHIND


Guitar 1 (Distorted Electric)
|---------------------------------|---------------------------------|
|---------------------------------|---------------------------------|
|---------------------------------|---------------------------------|
|-8-8-8-8-8-8-8-8-8-8-8-8-8-8-8-8-|-7-7-7-7-7-7-7-7-5-5-5-5-5-5-5-5-|
|-7-7-7-7-7-7-7-7-7-7-7-7-7-7-7-7-|-7-7-7-7-7-7-7-7-7-7-7-7-7-7-7-7-|
|-5-5-5-5-5-5-5-5-5-5-5-5-5-5-5-5-|-5-5-5-5-5-5-5-5-5-5-5-5-5-5-5-5-|

Guitar 2 (Acoustic)
|---------------------------------|---------------------------------|
|---------------------------------|-------------------------5-------|
|---------0---------------0-------|---------6-----------------------|
|-----8-------8-------8-------8---|-----7-------7-------5-------5---|
|-7---------------7---------------|-7---------------7---------------|
|---------------------------------|---------------------------------|

Guitar 1
|-----------------------------------------|-------------------------------------------------|
|-----------------------------------------|-------------------------------------------------|
|-----------------------------------------|-------------------------------------------------|
|-7-7-7-7-7-7-7-7-11-11-11-11-11-11-11-11-|-12-12-12-12-12-12-12-12-14-14-14-14-14-14-14-14-|
|-5-5-5-5-5-5-5-5-10-10-10-10-10-10-10-10-|-10-10-10-10-10-10-10-10-12-12-12-12-12-12-12-12-|
|-3-3-3-3-3-3-3-3--7--7--7--7--7--7--7--7-|--8--8--8--8--8--8--8--8-11-11-11-11-11-11-11-11-|

Guitar 2
|-----------------------------------|---------------------------------|
|-----------------------------------|---------------------------------|
|---------7----------------12-------|-----7-------7---6---------------|
|-----3-------3--------8--------8---|-7-------7-----------7-------7---|
|-5---------------10----------------|-------------------------7-------|
|-----------------------------------|---------------------------------|

Guitar 1
|---------------------------------|---------------------------------|
|---------------------------------|---------------------------------|
|---------------------------------|---------------------------------|
|-7-7-7-7-7-7-7-7-7-7-7-7-7-7-7-7-|-5-5-5-5-5-5-5-5-3-3-3-3-3-3-3-3-|
|-5-5-5-5-5-5-5-5-5-5-5-5-5-5-5-5-|-5-5-5-5-5-5-5-5-5-5-5-5-5-5-5-5-|
|-3-3-3-3-3-3-3-3-3-3-3-3-3-3-3-3-|-3-3-3-3-3-3-3-3-3-3-3-3-3-3-3-3-|

Guitar 2
|---------------------------------|---------------------------------|
|---------------------------------|---------------------------------|
|---------3---------------3-------|---------3---------------2-------|
|-----7-------7-------7-------7---|-----5-------5-------3-------3---|
|-5---------------5---------------|-5---------------5---------------|
|---------------------------------|---------------------------------|

Guitar 1
|---------------------------------|---------------------------------|
|---------------------------------|---------------------------------|
|---------------------------------|---------------------------------|
|-5-5-5-5-5-5-5-5-5-5-5-5-5-5-5-5-|-3-3-3-3-3-3-3-3-2-2-2-2-2-2-2-2-|
|-4-4-4-4-4-4-4-4-4-4-4-4-4-4-4-4-|-4-4-4-4-4-4-4-4-4-4-4-4-4-4-4-4-|
|-2-2-2-2-2-2-2-2-2-2-2-2-2-2-2-2-|-2-2-2-2-2-2-2-2-2-2-2-2-2-2-2-2-|

Guitar 2
|---------------------------------|---------------------------------|
|---------------------------------|---------------------------------|
|---------3---------------3-------|---------2---------------0-------|
|-----5-------5-------5-------5---|-----3-------3-------2-------2---|
|-4---------------4---------------|-4---------------4---------------|
|---------------------------------|---------------------------------|

That's all, please rate :)


SHATTERING THE SKIES ABOVE


bend up:                  BU(?)
bend return:              (?)
pre bend:                 PB
hammer on:                h
pull off:                 p
vibrato:                  ~
tremelo pick:             TR
triplets:                 _3_
slide up:                 /
pinch harmonic:           PH
whammy bar pitch lowered: WBL
palm mute:                PM


intro/verse 1
guitar 1
           PM---
E||---------------------|-1st,2nd&3rd-----|
B||---------------------|-------ending----|
G||---------------------|-----------------|
D||---------------------|-----------------|
A||-4BU(5)-------4BU(5)-|--------5-0---4--|
D||--------0-0-0--------|--0-3-7-----3----|

           PM---
E||---------------------|--4th-ending---------|
B||---------------------|---------------------|
G||---------------------|---------------------|
D||---------------------|--------5h7p5--------|
A||-4BU(5)-------4BU(5)-|--------------8-7----|
D||--------0-0-0--------|--0-3-7--------------|


verse 1 harmony
guitar 2
           PM---
E||---------------------|-1st,2nd&3rd-----|
B||---------------------|------ending-----|
G||---------------------|-----------------|
D||---------------------|-----------------|
A||-7BU(8)-------7BU(8)-|--------8-0---12-|
D||--------0-0-0--------|-0-7-11-----8----|

           PM---
E||---------------------|-4th-ending-------|
B||---------------------|------------------|
G||---------------------|------------------|
D||---------------------|-------7h8p7------|
A||-7BU(8)-------7BU(8)-|-------------10-8-|
D||--------0-0-0--------|-0-5-8------------|


verse 2
guitar 1
E||---------------|---------------------|------------------|
B||o-------------o|-----guitar1---------|----guitar2-------|
G||--12----10-----|---------------------|------------------|
D||----x16---x16--|-------5h7p5---------|-------7h8p7------|
A||0-10-----8----o|-------------8-7-----|-------------10-8-|
D||---------------|-0-3-7---------------|-0-5-8------------|

guitar 2
           PM---        PM----------
E||----------------------------------|
B||----------------------------------|
G||----------------------------------|
D||----------------------------------|
A||-4BU(5)-------4BU(5)--------------|
D||--------0-0-0--------0--0-0-0-0-0-|


verse 3
guitar 1
      PM-   PM-   PM-   PM-
E||-------------------------|-1st,2nd&3rd-|
B||-------------------------|------ending-|
G||-------------------------|-------------|
D||-------------------------|-------5-----|
A||-5-----8-----5-----8-----|-7-----------|
D||---0-0---0-0---0-0---0-0-|---8-5-------|

       PM-   PM-   
E||------------------|-4th-ending----------------|
B||------------------|---------------------------|
G||------------------|---------------------------|
D||------------------|-5h7p5---------------------|
A||--5-----8-----5---|-------8-7--5h7p5----------|
D||----0-0---0-0---0-|------------------8-7------|


verse 3
guitar 2 harmony
      PM-   PM-   PM-   PM-
E||-------------------------|-1st,2nd&3rd-|
B||-------------------------|------ending-|
G||-------------------------|-------------|
D||-------7-----------7-----|-5-0---8-----|
A||-8-5-5---5-5-8-5-5---5-5-|-------------|
D||-------------------------|-----8-------|

      PM-   PM-
E||-----------------|-4th-ending-------------|
B||-----------------|------------------------|
G||-----------------|-3h5p3------------------|
D||-------7---------|-------7-5-3h5p3--------|
A||-8-5-5---5-5-8-5-|-----------------5-4----|
D||-----------------|------------------------|


chorus
guitar 2
E||------------------|-----------------------|
B||------------------|-----------------------|
G||-12~--14~--10~~~--|-/14-12~--14~--9~---7~-|
D||------------------|-----------------------|
A||-10~--12~---8~~~--|-/12-10~--12~--7~---5~-|
D||------------------|-----------------------|

      PM-   PM-   PM-   PM-   PM  PM
E||---------------------------------|-------------------------|
B||---------------------------------|-------------------------|
G||-7-----6-----7-----9-----7---9---|-10~~---12~~---14~~~~~~~-|
D||---------------------------------|-------------------------|
A||-5-----4-----5-----7-----5---7---|--8~~---10~~---12~~~~~~~-|
D||---0-0---0-0---0-0---0-0---0---0-|-------------------------|

guitar 1
                PM---   PM---
E||----------------------------|
B||o--------------------------o|
G||----------------------------|
D||--1--1-1-1---------0--------|
A||o-2--3-3-3-0-------0-------o|
D||-----------0-0-0-0-0-0-0-0--|

      PM-   PM-   PM-   PM-   PM  PM    PM-    PM-
E||---------------------------------|-------------------------------------|
B||---------------------------------|-------------------------------------|
G||---------------------------------|-------------------------------------|
D||---------------------------------|-------------------------------------|
A||-5-----4-----5-----7-----5---7---|-8-----10-----12-12-12-12-12-12-12~~-|
D||---0-0---0-0---0-0---0-0---0---0-|---0-0----0-0------------------------|


solo 1 CKB
guitar 2
    TR------     ___3___  ___3___  ___3___  ___3___
E||-22-------21-22-21-18-21-18-17-18-17-15-17-15-14-17~~~-|
B||-------------------------------------------------------|
G||-------------------------------------------------------|
D||-------------------------------------------------------|
A||-------------------------------------------------------|
D||-------------------------------------------------------|

    TR--- ___3___  TR---
E||-------------------------|---------------|
B||-18----18-17-15-17----17-|--15-14--------|
G||-------------------------|--------15-14--|
D||-------------------------|---------------|
A||-------------------------|---------------|
D||-------------------------|---------------|

E||-------------------------------------------------------|
B||-------------------------------------------------------|
G||-------------------------------------------------------|
D||--/15WBL--/15WBL-14WBL-12WBL-14WBL-12WBL-11WBL-7WBL~~~-|
A||-------------------------------------------------------|
D||-------------------------------------------------------|

E||-------------------------------------------------|
B||----------------------------------------15PH-WBL-|
G||-----6-9----------9-12------------12-15----------|
D||---------5-8-----------8-11----------------------|
A||-4-7---------7-10-----------10-13----------------|
D||-------------------------------------------------|


verse 4 part 1
both guitars
    PM----------------------------------------------------------------
E||---------------------------------------------------------------------|
B||o-------------------------------------------------------------------o|
G||---------------------------------------------------------------------|
D||---------------------------------------------------------------------|
A||o5555--5555--5555--5555--555-555--4444--4444--4444--0000--8888-7777-o|
D||---------------------------------------------------------------------|


verse 4 part 2
guitar 1
E||------------------------------------------------------------------|
B||------------------------------------------------------------------|
G||------------------------------------------------------------------|
D||------------------------------------------------------------------|
A||----------------------------------4444--4444--4444--0000----------|
D||-0000--0000--0000--0000--000-000--------------------------333-222-|

guitar 2
E||------------------------------------------------------------------|
B||------------------------------------------------------------------|
G||------------------------------------------------------------------|
D||------------------------------------------------------------------|
A||----------------------------------------------------------555-444-|
D||-3333--3333--3333--3333--777-555--2222--2222--5555--2222----------|


solo 2 CKB
guitar 2
E||-10----------------------10-12-13~~---12h13p12-12----------|
B||-13BU(15)-13BU(15)PH~~~---------------------------13-------|
G||-----------------------------------------------------12\10-|
D||-----------------------------------------------------------|
A||-----------------------------------------------------------|
D||-----------------------------------------------------------|

E||-------------------------------------------------|---------------------|
B||----------11-------------------------------------|---------------------|
G||-12BU(14)------14--12----12-10----10\9-10-12-12~-|-14~-14h15p14p12-14~-|
D||-------------------------------------------------|---------------------|
A||----------------------13-------12----------------|---------------------|
D||-------------------------------------------------|---------------------|


E||------------------------------------------------------|
B||------------------------------------------------------|
G||-12\10--12-10-9--10-9-7--9BU(10)(9)--7\5-7--7~--------|
D||-----------------------------------------------/7-7~~-|
A||------------------------------------------------------|
D||------------------------------------------------------|


solo 3 MKH
guitar 1
all of these note are triplets
E||------------------------------------------------------|
B||------------------------------------------------------|
G||------------------------------------------------------|
D||---------------------------5-7-8-5-7-8----------------|
A||---------------5-7-8-5-7-8-------------7-8-10-7-8-10--|
D||-7-8-10-7-8-10----------------------------------------|

E||--------------------------------|
B||--------------------------------|
G||---------------7-9-10-7-9-10----|
D||-7-8-10-7-8-10------------------|
A||--------------------------------|
D||--------------------------------|

E||---------------------------------|
B||---------------------------------|
G||-----------------9-10-12-9-10-12-|
D||-8-10-12-8-10-12-----------------|
A||---------------------------------|
D||---------------------------------|

E||----------------------------------------------------------|
B||-------------------------------------11-13-15-11-13-15----|
G||-------------------10-12-14-10-12-14----------------------|
D||-10-12-14-10-12-14----------------------------------------|
A||----------------------------------------------------------|
D||----------------------------------------------------------|

E||-------------------------------------12-13-15-12-13-15-|
B||-------------------11-13-15-11-13-15-------------------|
G||-10-12-14-10-12-14-------------------------------------|
D||-------------------------------------------------------|
A||-------------------------------------------------------|
D||-------------------------------------------------------|

E||-13-12-13-15-13~~-|-----------------------------------------|
B||------------------|--------------------------13PH-BU(15)~~~-|
G||------------------|-----10-12-12BU(14)-12-10----------------|
D||------------------|-/12-------------------------------------|
A||------------------|-----------------------------------------|
D||------------------|-----------------------------------------|

each bend excet the last is picked once but after the note 
is picked the bend then goes up, then down and then up again
E||-10----------------12----------------13----------------|
B||-13BU(15)(13)(15)--15BU(17)(15)(17)--16BU(18)(16)(18)--|
G||-------------------------------------------------------|
D||-------------------------------------------------------|
A||-------------------------------------------------------|
D||-------------------------------------------------------|

E||-15----------------17----------------20~-20BU(22)~~--|
B||-18BU(20)(18)(20)--20BU(22)(20)(22)------------------|
G||-----------------------------------------------------|
D||-----------------------------------------------------|
A||-----------------------------------------------------|
D||-----------------------------------------------------|


verse 5
guitar 1
E||----------------------------------|-----------------|
B||----------------------------------|-----------------|
G||-7-----9-----10------14-12-14-15--|--7--------------|
D||---x24---x8-----x24---x--x--x--x--|--x--10--7---0~--|
A||-5-----7-----8-------12-10-12-13--|--5---x--x---0~--|
D||----------------------------------|-----10--7---0~--|

E||-----------------------|----------------|
B||-----------------------|----------------|
G||-7~-9~-10~-14-12-14-15-|--7-------------|
D||-x--x---x---x--x--x--x-|--x--10--7------|
A||-5~-7~--8~-12-10-12-13-|--5---x--x------|
D||-----------------------|-----10--7------|

guitar 2
harmony
E||--------------------------------|
B||--------------------------------|
G||-3-----5-----7------10-9-10-12--|
D||---x24---x8-----x24--x-x--x--x--|
A||-1-----3-----5-------8-7--8-10--|
D||--------------------------------|

E||-----------------------------------------------------|
B||-----------------------------------------------------|
G||-----------------3~-5~-7~--10-9-10-12----------------|
D||--8--7--3---0~---x--x--x----x-x--x--x---8--7--3------|
A||--8--7--3---0~---1~-3~-5~---8-7--8-10---8--7--3------|
D||--8--7--3---0~--------------------------8--7--3------|


verse 6
both guitars
                PM---   PM---      PM-------------
E||----------------------------||------------------------------|
B||o--------------------------o||------------------------------|
G||----------------------------||------------------------------|
D||--1--1-1-1---------0--------||------------------------------|
A||--2--3-3-3-0-------0-------o||------------------000-111-444-|
D||o----------0-0-0-0-0-0-0-0--||--333-222-555-333-------------|


order of song:
intro/verse 1
verse 2
verse 3
chorus
verse 1
verse 2
solo 1 (CKB)
verse 3
chorus
verse 4 part 1
verse 4 part 2
solo 2 (CKB)
solo 3 (MKH)
verse 5
verse 3
chorus
verse 6
verse 4 part 2



SLAVE NEW WORLD


Hammer on:      h
Pull off:       p
Slide up:       /
Slide down:     \

Guitar 1:        Matt Heafy
Guitar 2:        Corey Beaulieu


_________________________________________________________________________

Intro
Guitar 1
|---------------------------------|---------------------------------|
|---------------------------------|---------------------------------|
|---------------------------------|---------------------------------|
|-0-------2-------3---------------|-0-------2-------3---------------|
|-0-------2-------3---------------|-0-------2-------3---------------|
|-0-------2-------3---------------|-0-------2-------3---------------|
|
|Guitar 2
|---------------------------------|---------------------------------|
|---------------------------------|---------------------------------|
|---------------------------------|---------------------------------|
|---------------------------------|---------------------------------|
|---------------------------------|---------------------------------|
|---------------------------------|---------------------------------|

Both guitars
|---------------------------------|---------------------------------|
|---------------------------------|---------------------------------|
|---------------------------------|---------------------------------|
|-0-------2-------3---------------|-0-------2-------3---------------|
|-0-------2-------3---------------|-0-------2-------3---------------|
|-0-------2-------3---------------|-0-------2-------3---------------|

_________________________________________________________________________


Verse 1
Guitar 1
||---------------------------------||
|o---------------------------------o| x2
||---------------------------------||
||---------------------------------||
|o-----------------------------7\6-o|
||-0-0-0-0-0-0-0-0-0-0-0-0-0-0-7\6-||
|
|Guitar 2
||---------------------------------||
|o---------------------------------o|
||---------------------------------||
||---------------------------------||
|o---------------------------------o|
||---------------------------------||

Both guitars
||---------------------------------||
|o---------------------------------o| x4
||---------------------------------||
||---------------------------------||
|o-----------------------------7\6-o|
||-0-0-0-0-0-0-0-0-0-0-0-0-0-0-7\6-||

_________________________________________________________________________


Verse 2
Both guitars
||---------------------------------|---------------------------------||
|o---------------------------------|---------------------------------o|
||---------------------------------|---------------------------------||
||-0-------2-------3---------------|-0-------3-------6---------------||
|o-0-------2-------3---------------|-0-------3-------6---------------o|
||-0-------2-------3---------------|-0-------3-------6---------------||

_________________________________________________________________________


Repeat Verse 1

_________________________________________________________________________


Verse 3
Both guitar
|-----------------|-----------------|-----------------|-----------------|
|-----------------|-----------------|-----------------|-----------------|
|-----------------|-----------------|-----------------|-----------------|
|-----------------|-----------------|-----------------|-1---------------|
|-0---1---4-------|-0---1---4-------|-0---1---4-------|-1---------------|
|-0---1---4-------|-0---1---4-------|-0---1---4-------|-1---------------|

_________________________________________________________________________


Verse 4
Both guitars
||---------------------------------||
|o---------------------------------o| x4
||---------------------------------||
||---------------------------------||
|o---------0h1-1-----------0h1-1---o|
||-0h1-1-----------0h1-1-----------||

_________________________________________________________________________


Verse 5
Both guitars
||---------------------------------|---------------------------------||
|o---------------------------------|---------------------------------o| x4
||---------------------------------|---------------------------------||
||---------------------------------|-0-------------------------------||
|o-0h1-1---0h1-1---0h1-1---0h1-1---|-0-------------------------------o|
||-0h1-1---0h1-1---0h1-1---0h1-1---|-0-------------------------------||

_________________________________________________________________________


Verse 6
Both guitars
||---------------------------------|---------------------------------||
|o---------------------------------|---------------------------------o| x2
||---------------------------------|---------------------------------||
||---------------------------------|---------------------------------||
|o-0---1---4-------0---1---4-------|-0---1---4-----------------------o|
||-0---1---4---0-0-0---1---4---0-0-|-0---1---4---0-0-0-0-0-0-0-0-0-0-||

_________________________________________________________________________


Verse 7
Both guitars
||---------------------------------|---------------------------------||
|o---------------------------------|---------------------------------o| x4
||---------------------------------|---------------------------------||
||-7/8-8-8-7/8-8-8-7/8-8-8-7/8-8-8-|-7-------------------------------||
|o-5/6-6-6-5/6-6-6-5/6-6-6-5/6-6-6-|-5-------------------------------o|
||---------------------------------|-0-------------------------------||

_________________________________________________________________________


Verse 8
Guitar 1
||-----------------||
|o-----------------o| x4
||-----------------||
||-----------------||
|o---0-----0-------o|
||-0-0---0-0---/12-||

Both guitars
||-----------------||
|o-----------------o| x8
||-----------------||
||-----------------||
|o---0-----0-------o|
||-0-0---0-0---/12-||

_________________________________________________________________________


Solo 1
Guitar 1
||-----------------||
|o-----------------o| x16
||-----------------||
||-----------------||
|o---0-----0---0---o|
||-0-0---0-0---0---||

Guitar 2
(Using a wah wah pedal)
|---------------------------------|---------------------------------|
|---------------------------------|---------------------------------|
|---------------------------------|---------------------------------|
|---------------------------------|---------------------------------|
|-4-4-4-4-4-4-5-5-5-5-5-5-7-7-7-7-|-8-8-8-8-8-8-7-7-7-7-7-7-5-5-5-5-|
|---------------------------------|---------------------------------|

|---------------------------------|---------------------------------------|
|---------------------------------|---------------------------------------|
|-6-6-6-6-6-6-7-7-7-7-7-7-9-9-9-9-|-10-10-10-10-10-10-9-9-9-9-9-9-7-7-7-7-|
|---------------------------------|---------------------------------------|
|---------------------------------|---------------------------------------|
|---------------------------------|---------------------------------------|

||---------------------------------||
|o-----------------5h6-6p5-5h6-6p5-o| x3
||-6h7-7p6-6h7-7p6-----------------||
||---------------------------------||
|o---------------------------------o|
||---------------------------------||

|----------------20---------------|
|---------------------------------|
|-6h7-7p6-6h7/19------------------|
|---------------------------------|
|---------------------------------|
|---------------------------------|

_________________________________________________________________________

Repeat Verse 1

_________________________________________________________________________

Solo 2
Guitar 1 plays verse 1

Guitar 2
(With wah wah pedal)
||-----------------------------------------------------------------------||
|o-6-6-6-6-9-9-9-9-6-6-6-6-9-9-9-9-12-12-12-12-12-12-9-9-9-9-9-9-9-9-9-9-o|
||-----------------------------------------------------------------------||
||-----------------------------------------------------------------------||
|o-----------------------------------------------------------------------o|
||-----------------------------------------------------------------------||

_________________________________________________________________________


Outro
Both guitars
|-------------|
|-------------|
|-------------|
|-0---1---4---|
|-0---1---4---|
|-0---1---4---|

That's literally it!!!
EGGWHITES!!!
That's all guys! 
PLEASE, PLEASE, PLEASE RATE!!! :D
comments
print report bad tab
5 comments total. Showing first comments.
+1 reply
ps9700 wrote on June 22 2013, 07:46 pm

The tuning is not drop C. What you described is drop C sharp, which is the correct tuning. That part is a little confusing. Other than that mislabeled tuning seems like a pretty solid tab. 5 stars.

0 reply
slipknot836 wrote on June 23 2013, 02:46 pm

I've always put the tuning as Drop C#. Perhaps a typo or a bad correction from tab moderators, who knows?

I'll change it anyway, thank you! :)

0 reply
tyty4678 wrote on November 18 2013, 06:05 pm

in the song in waves the part after the intro corrys lead is played alot higher than wear u have put it :(

I want to post or [tab]
guest
You may want to rate the tab now too:
select rating
Please do not post tabs as comments. Select "correction" instead!