Oops, an error
Loading. Please wait.

Inception Of The End Tab

ver2
ver2

Intro

Whole song

Interactive

More versions @911Tabs.com
21,913 views 75 this week
3 commentsread comments
1 2 3 4 5
excellent!
x 18
add to favorites launch autoscroll
font size
0
reset
Autoscroll
+/-
esc
set tempo
stop
Contributor
Difficulty
Tuning
advanced
C# G# C# F# A# D#
WARNING: You are trying to view
                                    content from Ultimate-Guitar.com
                                    in an unauthorized application,
                                    which is prohibited.

                                    Please use an official Ultimate
                                    Guitar Tabs application for iPhone,
                                    iPad or Android to access legitimate
                                    chords, guitar, bass, and drum tabs
                                    from Ultimate-Guitar.com database.

                                    Type "ultimate guitar tabs" in Apple
                                    App Store's or Android Market's
                                    search to find the application.
Band:  Trivium
Song:  Inception of the End
Album: In Waves

Tuning: Drop C# (C#, G#, C#, F#, A#, D#)
(Tune all strings down half a step then drop tune)

Right, this is all of the song except the little interlude that
Is played in the breakdown by Corey Beaulieu which I can’t make
Out, so if anyone wants to put a correction in then go for it, it
Will be much appreciated.

Also, please rate, it took ages to type out :D

UPDATE: 27th December 2011: Updated the Chorus Lead
                            Updated the Breakdown Rhythm
                            Updated the Solo Rhythm

Update: 18th June 2012:     Added the bridge solo!!!
                            (This includes the tremelo pick riff)
                            (Before the solo aswell as the bends)
                            (And picking after)
                            It should be 99% spot on, I've repeatedly
                            Listened to that part over and over

Hammer on:    h
Pull off:     p
Slide up:     /
Slide down:   \
Vibrato:      ~~~
Palm mute:    PM
String mute:  M
Bend up:      BU(?)
Tremolo pick: Tr---

Guitar 1: Matt Heafy
Guitar 2: Corey Beaulieu


Intro
Both guitars

|-------|
|-------|
|-------|
|-------|
|-12\---|
|-12\---|

Guitar 1
    PM-   PM-
|-------------------------|-------------------------|
|-------------------------|-------------------------|
|-------------------------|-------------------------|
|-------------------------|-------------------------|
|-5-----8-----------7-----|-------------4p0h4h7p4p0-|
|---0-0---0-0-0h5h8---8p5-|-3p0h3h7p3p0-------------|

Guitar 2
|-------------------------|-------------------------|
|-------------------------|-------------------------|
|-------------------------|-------------------------|
|-0-----------------------|-------------------------|
|-0-----------------------|-------------4p0h4h7p4p0-|
|-0-----------------------|-------------------------|

Guitar 1
    PM-   PM-
|-------------------------|-------------------------|
|-------------------------|-------------------------|
|-------------------------|-------------------------|
|-------------------------|-------------------------|
|-5-----8-----------------|-------------4p0h4h7~~~--|
|---0-0---0-0-0h5p8---8p5-|-3p0h3h7p3p0-------------|

Guitar 2
|-------------------------|-------------------------|
|-------------------------|-------------------------|
|-------------------------|-------------------------|
|-0-M---------------------|-------------------------|
|-0-M---------------------|-------------4p0h4h7~~~--|
|-0-M---------------------|-------------------------|

Guitar 1
    PM-   PM-
|-------------------------|-------------------------|
|-------------------------|-------------------------|
|-------------------------|-------------------------|
|-------------------------|-------------------------|
|-5-----8-----------7-----|-------------4p0h4h7p4p0-|
|---0-0---0-0-0h5h8---8p5-|-3p0h3h7p3p0-------------|

Guitar 2
  PM-----       PM---       PM-----------------
|-------------------------|-------------------------|
|-------------------------|-------------------------|
|-------------------------|-------------------------|
|-------------------------|-------------------------|
|-------------------------|-------------------------|
|-0-0-0-0-------0-0-0-----|-0-0-0-0-0-0-0-0-0-0-----|
|-0-0-0-0-------0-0-0-----|-0-0-0-0-0-0-0-0-0-0-----|

Both Guitars
  PM-----       PM---       PM---------------
|-------------------------|-------------------------|
|-------------------------|-------------------------|
|-------------------------|-------------------------|
|-------------------------|-------------------------|
|-------------------------|-------------------------|
|-0-0-0-0-------0-0-0-----|-0-0-0-0-0-0-0-0-0-12\---|
|-0-0-0-0-------0-0-0-----|-0-0-0-0-0-0-0-0-0-12\---|

Verse 1
Both Guitars
    PM-   PM-
|-------------------------|-------------------------|
|-------------------------|-------------------------|
|-------------------------|-------------------------|
|-------------------------|-------------------------|
|-5-----8-----------7-----|-------------4p0h4h7p4p0-|
|---0-0---0-0-0h5h8---8p5-|-3p0h3h7p3p0-------------|

    PM-   PM-
|-------------------------|-------------------------|
|-------------------------|-------------------------|
|-------------------------|-------------------------|
|-------------------------|-------------------------|
|-5-----8-----------------|-------------4p0h4h7~~~--|
|---0-0---0-0-0h5p8---8p5-|-3p0h3h7p3p0-------------|

Guitar 1 
    PM-   PM-
|-------------------------|-------------------------|
|-------------------------|-------------------------|
|-------------------------|-------------------------|
|-------------------------|-------------------------|
|-5-----8-----------7-----|-------------4p0h4h7p4p0-|
|---0-0---0-0-0h5h8---8p5-|-3p0h3h7p3p0-------------|

Guitar 2
    PM-    PM-
|-----------------------------|---------------------------|
|-----------------------------|---------------------------|
|-----------------------------|---------------------------|
|-----------------------------|---------------------------|
|-8-----12------------10------|--------------7p0h7h10p7p0-|
|---0-0----0-0-0h8h11----11p8-|-7p0h7h10p7p0--------------|

Guitar 1
    PM-   PM-
|-------------------------|-------------------------|
|-------------------------|-------------------------|
|-------------------------|-------------------------|
|-------------------------|-------------------------|
|-5-----8-----------------|-------------4p0h4h7~~~--|
|---0-0---0-0-0h5p8---8p5-|-3p0h3h7p3p0-------------|

Guitar 2
    PM-    PM-
|-----------------------------|---------------------------|
|-----------------------------|---------------------------|
|-----------------------------|---------------------------|
|-----------------------------|---------------------------|
|-8-----12------------10------|--------------7p0h7h10~~~--|
|---0-0----0-0-0h8h11----11p8-|-7p0h7h10p7p0--------------|

Verse 2
Guitar 1
  PM---       PM---         PM---       PM---
|-------------------------|--------------------------|
|-------------------------|--------------------------|
|-------------------------|--------------------------|
|-------0-----------0-----|-------7-----------7------|
|-------0-----------0-----|-------7-----------7------|
|-0-0-0-0-----0-0-0-0-----|-7-7-7-7-----7-7-7-7------|

Guitar 2
    PM-   PM-   PM  PM  PM    PM-   PM-   PM  PM   PM
|-------------------------|--------------------------|
|-------------------------|--------------------------|
|-------------------------|--------------------------|
|-------------------------|--------------------------|
|-5-----5-----5---7---8---|-7-----7-----7---8---10---|
|---0-0---0-0---0---0---0-|---7-7---7-7---7---7----7-|

Guitar 1
  PM---       PM---         PM---       PM------
|-------------------------|-----------------------------|
|-------------------------|-----------------------------|
|-------------------------|-----------------------------|
|-------8-----------8-----|-------3--------------10-----|
|-------8-----------8-----|-------3--------------10-----|
|-8-8-8-8-----8-8-8-8-----|-3-3-3-3-----10-10-10-10-----|

Guitar 2
    PM-   PM-   PM   PM   PM
|---------------------------|-------------------------------|
|---------------------------|-------------------------------|
|---------------------------|-------------------------------|
|---------------------------|-------------------------------|
|-8-----8-----8---10---12---|-12-10-8-10-8----8-------------|
|---8-8---8-8---8----8----8-|--------------10---10-8-10-8-7-|

Guitar 1
    PM-   PM-   PM  PM  PM    PM-   PM-   PM  PM  PM
|-------------------------|-------------------------|
|-------------------------|-------------------------|
|-------------------------|-------------------------|
|-3-----3-----3---5---7---|-5-----5-----5---7---8---|
|-------------------------|-------------------------|
|---0-0---0-0---0---0---0-|---7-7---7-7---7---7---7-|

Guitar 2
    PM-   PM-   PM  PM  PM    PM-   PM-   PM  PM   PM
|-------------------------|--------------------------|
|-------------------------|--------------------------|
|-------------------------|--------------------------|
|-------------------------|--------------------------|
|-5-----5-----5---7---8---|-7-----7-----7---8---10---|
|---0-0---0-0---0---0---0-|---7-7---7-7---7---7----7-|

Guitar 1
    PM-   PM-   PM  PM   PM
|--------------------------|---------------------------|
|--------------------------|---------------------------|
|--------------------------|---------------------------|
|-7-----7-----7---8---10---|-10-8-7-8-7---7------------|
|--------------------------|------------8---8-7-8-7----|
|---8-8---8-8---8---8----8-|------------------------10-|

Chorus
Guitar 1
      PM-----                   PM-----
|-------------------------|----------------------------|
|-------------------------|----------------------------|
|-------------------------|----------------------------|
|-8----------10--10--10---|-8-----------10---10---10---|
|-8-----------8---8---8---|-8-----------10---10---10---|
|-8---8-8-8-8-8---8---8---|-8---8-8-8-8-10---10---10---|

Guitar 2
|-------------------------|----------------------------|
|-------------------------|----------------------------|
|------------10~--9~------|-------------10~--12~-------|
|-8~~~~~~------------10~--|-8~~~~~~---------------10~--|
|-------------------------|----------------------------|
|-------------------------|----------------------------|

Both Guitars
|---------------------------|-------------------------------|
|---------------------------|-------------------------------|
|---------------------------|-------------------------------|
|---------------------------|-------------------------------|
|---------------------------|-------------------------------|
|-12p0-0-0-0-0-12p0-0-0-0-0-|-15p0-14p0-12p0-14p0-12p0-10p0-|

Guitar 1
      PM-----                   PM-----
|-------------------------|----------------------------|
|-------------------------|----------------------------|
|-------------------------|----------------------------|
|-8----------10--10--10---|-8-----------10---10---10---|
|-8-----------8---8---8---|-8-----------10---10---10---|
|-8---8-8-8-8-8---8---8---|-8---8-8-8-8-10---10---10---|

Guitar 2
|-------------------------|----------------------------|
|-------------------------|----------------------------|
|------------10~--9~------|-------------10~--12~-------|
|-8~~~~~~------------10~--|-8~~~~~~---------------10~--|
|-------------------------|----------------------------|
|-------------------------|----------------------------|

Both Guitars
|---------------------------|-------------------------------|
|---------------------------|-------------------------------|
|---------------------------|-------------------------------|
|---------------------------|-------------------------------|
|---------------------------|-------------------------------|
|-12p0-0-0-0-0-12p0-0-0-0-0-|-12p0-14p0-15p0-14p0-15p0-17p0-|

Verse 1

Both Guitars
    PM-   PM-
|-------------------------|-------------------------|
|-------------------------|-------------------------|
|-------------------------|-------------------------|
|-------------------------|-------------------------|
|-5-----8-----------7-----|-------------4p0h4h7p4p0-|
|---0-0---0-0-0h5h8---8p5-|-3p0h3h7p3p0-------------|

    PM-   PM-
|-------------------------|-------------------------|
|-------------------------|-------------------------|
|-------------------------|-------------------------|
|-------------------------|-------------------------|
|-5-----8-----------------|-------------4p0h4h7~~~--|
|---0-0---0-0-0h5p8---8p5-|-3p0h3h7p3p0-------------|

Guitar 1 
    PM-   PM-
|-------------------------|-------------------------|
|-------------------------|-------------------------|
|-------------------------|-------------------------|
|-------------------------|-------------------------|
|-5-----8-----------7-----|-------------4p0h4h7p4p0-|
|---0-0---0-0-0h5h8---8p5-|-3p0h3h7p3p0-------------|

Guitar 2
  PM-----       PM---       PM---------------
|-------------------------|-------------------------|
|-------------------------|-------------------------|
|-------------------------|-------------------------|
|-------------------------|-------------------------|
|-------------------------|-------------------------|
|-0-0-0-0-------0-0-0-----|-0-0-0-0-0-0-0-0-0-12\---|
|-0-0-0-0-------0-0-0-----|-0-0-0-0-0-0-0-0-0-12\---|

Guitar 1
    PM-   PM-
|-------------------------|-------------------------|
|-------------------------|-------------------------|
|-------------------------|-------------------------|
|-------------------------|-------------------------|
|-5-----8-----------------|-------------4p0h4h7~~~--|
|---0-0---0-0-0h5p8---8p5-|-3p0h3h7p3p0-------------|

Guitar 2
    PM-    PM-
|-----------------------------|---------------------------|
|-----------------------------|---------------------------|
|-----------------------------|---------------------------|
|-----------------------------|---------------------------|
|-8-----12------------10------|--------------7p0h7h10~~~--|
|---0-0----0-0-0h8h11----11p8-|-7p0h7h10p7p0--------------|

Verse 2
Guitar 1
  PM---       PM---         PM---       PM---
|-------------------------|--------------------------|
|-------------------------|--------------------------|
|-------------------------|--------------------------|
|-------0-----------0-----|-------7-----------7------|
|-------0-----------0-----|-------7-----------7------|
|-0-0-0-0-----0-0-0-0-----|-7-7-7-7-----7-7-7-7------|

Guitar 2
    PM-   PM-   PM  PM  PM    PM-   PM-   PM  PM   PM
|-------------------------|--------------------------|
|-------------------------|--------------------------|
|-------------------------|--------------------------|
|-------------------------|--------------------------|
|-5-----5-----5---7---8---|-7-----7-----7---8---10---|
|---0-0---0-0---0---0---0-|---7-7---7-7---7---7----7-|

Guitar 1
  PM---       PM---         PM---       PM------
|-------------------------|-----------------------------|
|-------------------------|-----------------------------|
|-------------------------|-----------------------------|
|-------8-----------8-----|-------3--------------10-----|
|-------8-----------8-----|-------3--------------10-----|
|-8-8-8-8-----8-8-8-8-----|-3-3-3-3-----10-10-10-10-----|

Guitar 2
    PM-   PM-   PM   PM   PM
|---------------------------|-------------------------------|
|---------------------------|-------------------------------|
|---------------------------|-------------------------------|
|---------------------------|-------------------------------|
|-8-----8-----8---10---12---|-12-10-8-10-8----8-------------|
|---8-8---8-8---8----8----8-|--------------10---10-8-10-8-7-|

Guitar 1
    PM-   PM-   PM  PM  PM    PM-   PM-   PM  PM  PM
|-------------------------|-------------------------|
|-------------------------|-------------------------|
|-------------------------|-------------------------|
|-3-----3-----3---5---7---|-5-----5-----5---7---8---|
|-------------------------|-------------------------|
|---0-0---0-0---0---0---0-|---7-7---7-7---7---7---7-|

Guitar 2
    PM-   PM-   PM  PM  PM    PM-   PM-   PM  PM   PM
|-------------------------|--------------------------|
|-------------------------|--------------------------|
|-------------------------|--------------------------|
|-------------------------|--------------------------|
|-5-----5-----5---7---8---|-7-----7-----7---8---10---|
|---0-0---0-0---0---0---0-|---7-7---7-7---7---7----7-|

Guitar 1
    PM-   PM-   PM  PM   PM
|--------------------------|-------------------------------|
|--------------------------|-------------------------------|
|--------------------------|-------------------------------|
|-7-----7-----7---8---10---|-------------------------------|
|--------------------------|-12-10-8-10-8----8-------------|
|---8-8---8-8---8---8----8-|--------------10---10-8-10-8-7-|

Guitar 2
    PM-   PM-   PM   PM   PM
|---------------------------|-------------------------------|
|---------------------------|-------------------------------|
|---------------------------|-------------------------------|
|---------------------------|-------------------------------|
|-8-----8-----8---10---12---|-12-10-8-10-8----8-------------|
|---8-8---8-8---8----8----8-|--------------10---10-8-10-8-7-|

Guitar 1
|---------------------------|
|---------------------------|
|---------------------------|
|-10-8-7-8-7---7------------|
|------------8---8-7-8-7----|
|------------------------10-|

Guitar 2
|-------------------------------|
|-------------------------------|
|-------------------------------|
|-------------------------------|
|-12-10-8-10-8----8-------------|
|--------------10---10-8-10-8-7-|

Chorus
Guitar 1
      PM-----                   PM-----
|-------------------------|----------------------------|
|-------------------------|----------------------------|
|-------------------------|----------------------------|
|-8----------10--10--10---|-8-----------10---10---10---|
|-8-----------8---8---8---|-8-----------10---10---10---|
|-8---8-8-8-8-8---8---8---|-8---8-8-8-8-10---10---10---|

Guitar 2
|-------------------------|----------------------------|
|-------------------------|----------------------------|
|------------10~--9~------|-------------10~--12~-------|
|-8~~~~~~------------10~--|-8~~~~~~---------------10~--|
|-------------------------|----------------------------|
|-------------------------|----------------------------|

Both Guitars
|---------------------------|-------------------------------|
|---------------------------|-------------------------------|
|---------------------------|-------------------------------|
|---------------------------|-------------------------------|
|---------------------------|-------------------------------|
|-12p0-0-0-0-0-12p0-0-0-0-0-|-15p0-14p0-12p0-14p0-12p0-10p0-|

Guitar 1
      PM-----                   PM-----
|-------------------------|----------------------------|
|-------------------------|----------------------------|
|-------------------------|----------------------------|
|-8----------10--10--10---|-8-----------10---10---10---|
|-8-----------8---8---8---|-8-----------10---10---10---|
|-8---8-8-8-8-8---8---8---|-8---8-8-8-8-10---10---10---|

Guitar 2
|-------------------------|----------------------------|
|-------------------------|----------------------------|
|------------10~--9~------|-------------10~--12~-------|
|-8~~~~~~------------10~--|-8~~~~~~---------------10~--|
|-------------------------|----------------------------|
|-------------------------|----------------------------|

Both Guitars
|---------------------------|-------------------------------|
|---------------------------|-------------------------------|
|---------------------------|-------------------------------|
|---------------------------|-------------------------------|
|---------------------------|-------------------------------|
|-12p0-0-0-0-0-12p0-0-0-0-0-|-12p0-14p0-15p0-14p0-15p0-17p0-|

Guitar 1
      PM-----                   PM-----
|-------------------------|----------------------------|
|-------------------------|----------------------------|
|-------------------------|----------------------------|
|-8----------10--10--10---|-8-----------10---10---10---|
|-8-----------8---8---8---|-8-----------10---10---10---|
|-8---8-8-8-8-8---8---8---|-8---8-8-8-8-10---10---10---|

Guitar 2
|-------------------------|----------------------------|
|-------------------------|----------------------------|
|------------10~--9~------|-------------10~--12~-------|
|-8~~~~~~------------10~--|-8~~~~~~---------------10~--|
|-------------------------|----------------------------|
|-------------------------|----------------------------|

Both Guitars
|---------------------------|-------------------------------|
|---------------------------|-------------------------------|
|---------------------------|-------------------------------|
|---------------------------|-------------------------------|
|---------------------------|-------------------------------|
|-12p0-0-0-0-0-12p0-0-0-0-0-|-15p0-14p0-12p0-14p0-12p0-10p0-|

Guitar 1
      PM-----                   PM-----
|-------------------------|----------------------------|
|-------------------------|----------------------------|
|-------------------------|----------------------------|
|-8----------10--10--10---|-8-----------10---10---10---|
|-8-----------8---8---8---|-8-----------10---10---10---|
|-8---8-8-8-8-8---8---8---|-8---8-8-8-8-10---10---10---|

Guitar 2
|-------------------------|----------------------------|
|-------------------------|----------------------------|
|------------10~--9~------|-------------10~--12~-------|
|-8~~~~~~------------10~--|-8~~~~~~---------------10~--|
|-------------------------|----------------------------|
|-------------------------|----------------------------|

Guitar 1
|---------------------------|-------------------------------|
|---------------------------|-------------------------------|
|---------------------------|-------------------------------|
|---------------------------|-------------------------------|
|---------------------------|-------------------------------|
|-12p0-0-0-0-0-12p0-0-0-0-0-|-12p0-14p0-15p0-14p0-15p0-17p0-|

Guitar 2
|---------------------------|-------------------------------|
|---------------------------|-------------------------------|
|---------------------------|-------------------------------|
|---------------------------|-------------------------------|
|---------------------------|-------------------------------|
|-15p0-0-0-0-0-15p0-0-0-0-0-|-15p0-17p0-19p0-17p0-19p0-20p0-|

Guitar 1
|---------------------------|-------------------------------|
|---------------------------|-------------------------------|
|---------------------------|-------------------------------|
|---------------------------|-------------------------------|
|---------------------------|-------------------------------|
|-12p0-0-0-0-0-12p0-0-0-0-0-|-12p0-14p0-15p0-14p0-12p0-10p0-|

Guitar 2
|---------------------------|-------------------------------|
|---------------------------|-------------------------------|
|---------------------------|-------------------------------|
|---------------------------|-------------------------------|
|---------------------------|-------------------------------|
|-15p0-0-0-0-0-15p0-0-0-0-0-|-15p0-17p0-19p0-17p0-15p0-14p0-|

Guitar 1
|---------------------------|-------------------------------|
|---------------------------|-------------------------------|
|---------------------------|-------------------------------|
|---------------------------|-------------------------------|
|---------------------------|-------------------------------|
|-12p0-0-0-0-0-12p0-0-0-0-0-|-12p0-14p0-15p0-14p0-15p0-17p0-|

Guitar 2
|---------------------------|-------------------------------|
|---------------------------|-------------------------------|
|---------------------------|-------------------------------|
|---------------------------|-------------------------------|
|---------------------------|-------------------------------|
|-15p0-0-0-0-0-15p0-0-0-0-0-|-15p0-17p0-19p0-17p0-19p0-20p0-|

Guitar 1
|---------------------------|-------------------------------|
|---------------------------|-------------------------------|
|---------------------------|-------------------------------|
|---------------------------|-------------------------------|
|---------------------------|-------------------------------|
|-12p0-0-0-0-0-12p0-0-0-0-0-|-12p0-14p0-15p0-14p0-15p0-17p0-|

Guitar 2
|---------------------------|-------------------------------|
|---------------------------|-------------------------------|
|---------------------------|-------------------------------|
|---------------------------|-------------------------------|
|---------------------------|-------------------------------|
|-15p0-0-0-0-0-15p0-0-0-0-0-|-15p0-17p0-19p0-17p0-19p0-20p0-|

Breakdown
Both Guitars         
          PM---------------          PM-----
||--------------------------|----------------------------|
||--------------------------|----------------------------|
||--------------------------|----------------------------|
||--------------------------|----------------------------|
||--------------------------|----------------------------|
||-12p0---0-----0-0---0---0-|-12p0---0-----0-0h5h8-0h3h7-|

         PM---------------          PM-----
|--------------------------|-----------------------------||
|--------------------------|-----------------------------o|
|--------------------------|-----------------------------||
|--------------------------|-----------------------------||
|--------------------------|----------------0h4h7-0h7h10-o|
|-12p0---0-----0-0---0---0-|-12p0---0-----0--------------||



Guitar 1
|-----------------|-----------------|
|-----------------|-----------------|
|---2-------2-----|---3-------3-----|
|-0-------0---0---|-2-------2---2---|
|-----------------|-----------------|
|-----------------|-----------------|

Guitar 2
|-----------------|-----------------|
|-----------------|-----------------|
|-----------------|-----------------|
|-0---------------|-2---------------|
|-0---------------|-1---------------|
|-0---------------|-2---------------|

Guitar 1
|-----------------|-----------------|
|-----------------|-----------------|
|---2-------3-----|---5-------7-----|
|-0-------2---2---|-3-------4---4---|
|-----------------|-----------------|
|-----------------|-----------------|

Guitar 2
|-----------------|-----------------|
|-----------------|-----------------|
|-----------------|-----------------|
|-0-------2-------|-3-------4-------|
|-0-------1-------|-3-------5-------|
|-0-------2-------|-3-------4-------|

Both Guitars         
         PM---------------          PM-----
|--------------------------|----------------------------|
|--------------------------|----------------------------|
|--------------------------|----------------------------|
|--------------------------|----------------------------|
|--------------------------|----------------------------|
|-12p0---0-----0-0---0---0-|-12p0---0-----0-0h5h8-0h3h7-|

         PM---------------          PM-----
|--------------------------|-----------------------------|
|--------------------------|-----------------------------|
|--------------------------|-----------------------------|
|--------------------------|-----------------------------|
|--------------------------|----------------0h4h7-0h7h10-|
|-12p0---0-----0-0---0---0-|-12p0---0-----0--------------|

Guitar 1
|-----------------|-----------------|
|-----------------|-----------------|
|---2-------2-----|---3-------3-----|
|-0-------0---0---|-2-------2---2---|
|-----------------|-----------------|
|-----------------|-----------------|

Guitar 2
|-----------------|-----------------|
|-----------------|-----------------|
|-----------------|-----------------|
|-0---------------|-2---------------|
|-0---------------|-1---------------|
|-0---------------|-2---------------|

Guitar 1
|-----------------|-----------------|
|-----------------|-----------------|
|---2-------3-----|---5-------7-----|
|-0-------2---2---|-3-------4---4---|
|-----------------|-----------------|
|-----------------|-----------------|

Guitar 2
|-----------------|-----------------|
|-----------------|-----------------|
|-----------------|-----------------|
|-0-------2-------|-3-------4-------|
|-0-------1-------|-3-------5-------|
|-0-------2-------|-3-------4-------|

Guitar 1
  Tr-----------------------------------------------------
|----------------------------|----------------------------|
|----------------------------|----------------------------|
|----------------------------|----------------------------|
|----------------------------|----------------------------|
|----------------------------|----------------------------|
|-5-----------7--------------|-8-------7------6-----2-----|

Guitar 1
  Tr------------------------
|----------------------------|
|----------------------------|
|----------------------------|
|----------------------------|
|----------------------------|
|-7--------------------------|

Guitar 2
  Tr--------------------------------------------------------
|-------------|----------------|-----------------------------|
|-------------|----------------|-----------------------------|
|-----7-8-----|------8-10------|------10------10-----9-----7-|
|-5-8-----8-5-|-7-10------10-7-|-8-12----7-12----6-9-----6---|
|-------------|----------------|-----------------------7-----|
|-------------|----------------|-----------------------------|

Guitar 2
  Tr----------------------------
|-------------|------------------|
|-------------|------------------|
|-6-----6-----|-9-------14-------|
|---7-----7---|---11-------14----|
|-----7-----7-|------12-------16-|
|-------------|------------------|

Solo
Guitar 1
  PM-----------------------------------
|-------------------------|-------------------------|
|-------------------------|-------------------------|
|-------------------------|-------------------------|
|-------------------------|-------------------------|
|-0-0---0---0-0---0---0---|-0-0---0---0-------------|
|-0-0---0---0-0---0---0---|-0-0---0---0-0-5-8-0-3-7-|

Guitar 2
|-------------------------|-------------------------|
|-------------------------|-17----------18----------|
|-------------17BU(19)----|-------------------------|
|-------------------------|-------------------------|
|-------------------------|-------------------------|
|-------------------------|-------------------------|

Guitar 1
  PM-----------------------------------------------
|-------------------------|-------------------------|
|-------------------------|-------------------------|
|-------------------------|-------------------------|
|-------------------------|-------------------------|
|-3p2---2---2-2---2---2---|-3p2---2---2-2---2---2---|
|-3p2---2---2-2---2---2---|-3p2---2---2-2---2---2---|

Guitar 2
|-------------------------|-------------------------|
|-------------------------|-------------------------|
|-13----------------------|-14----------16----------|
|-------------------------|-------------------------|
|-------------------------|-------------------------|
|-------------------------|-------------------------|

Guitar 1
  PM-----------------------------------
|-------------------------|-------------------------|
|-------------------------|-------------------------|
|-------------------------|-------------------------|
|-------------------------|-------------------------|
|-0-0---0---0-0---0---0---|-0-0---0---0-------------|
|-0-0---0---0-0---0---0---|-0-0---0---0-0-5-8-0-3-7-|

Guitar 2
|-------------------------|-------------------------|
|-------------------------|-17----------18----------|
|-------------17BU(19)----|-------------------------|
|-------------------------|-------------------------|
|-------------------------|-------------------------|
|-------------------------|-------------------------|

Guitar 1
  PM-----------------------------------------------
|-------------------------|-------------------------|
|-------------------------|-------------------------|
|-------------------------|-------------------------|
|-------------------------|-------------------------|
|-3p2---2---2-2---2---2---|-3p2---2---2-2---2---2---|
|-3p2---2---2-2---2---2---|-3p2---2---2-2---2---2---|

Guitar 2
|-16----------------------|-17----------17BU(19)----|
|-------------------------|-------------------------|
|-------------------------|-------------------------|
|-------------------------|-------------------------|
|-------------------------|-------------------------|
|-------------------------|-------------------------|

Breakdown
Guitar 1
|-----------------|-----------------|
|-----------------|-----------------|
|---2-------2-----|---3-------3-----|
|-0-------0---0---|-2-------2---2---|
|-----------------|-----------------|
|-----------------|-----------------|

Guitar 2
|-----------------|-----------------|
|-----------------|-----------------|
|-----------------|-----------------|
|-0---------------|-2---------------|
|-0---------------|-1---------------|
|-0---------------|-2---------------|

Guitar 1
|-----------------|-----------------|
|-----------------|-----------------|
|---2-------3-----|---5-------7-----|
|-0-------2---2---|-3-------4---4---|
|-----------------|-----------------|
|-----------------|-----------------|

Guitar 2
|-----------------|-----------------|
|-----------------|-----------------|
|-----------------|-----------------|
|-0-------2-------|-3-------4-------|
|-0-------1-------|-3-------5-------|
|-0-------2-------|-3-------4-------|

Guitar 1
  Tr-----------------------------------------------------
|----------------------------|----------------------------|
|----------------------------|----------------------------|
|----------------------------|----------------------------|
|----------------------------|----------------------------|
|----------------------------|----------------------------|
|-5-----------7--------------|-8-------7------6-----2-----|

Guitar 1
  Tr------------------------
|----------------------------|
|----------------------------|
|----------------------------|
|----------------------------|
|----------------------------|
|-7--------------------------|

Guitar 2
|-6-------------8------------|-10------8--------7--------4------|
|-9BU(11)-------11BU(13)-----|13BU(15)-11BU(13)-10BU(12)-7BU(9)-|
|----------------------------|----------------------------------|
|----------------------------|----------------------------------|
|----------------------------|----------------------------------|
|----------------------------|----------------------------------|

Guitar 2
|-5-----------19BU(21)-----|
|-8BU(10)------------------|
|--------------------------|
|--------------------------|
|--------------------------|
|--------------------------|

Verse 1
Both Guitars
    PM-   PM-
|-------------------------|-------------------------|
|-------------------------|-------------------------|
|-------------------------|-------------------------|
|-------------------------|-------------------------|
|-5-----8-----------7-----|-------------4p0h4h7p4p0-|
|---0-0---0-0-0h5h8---8p5-|-3p0h3h7p3p0-------------|

    PM-   PM-
|-------------------------|-------------------------|
|-------------------------|-------------------------|
|-------------------------|-------------------------|
|-------------------------|-------------------------|
|-5-----8-----------------|-------------4p0h4h7~~~--|
|---0-0---0-0-0h5p8---8p5-|-3p0h3h7p3p0-------------|

Chorus
Guitar 1
      PM-----                   PM-----
|-------------------------|----------------------------|
|-------------------------|----------------------------|
|-------------------------|----------------------------|
|-8----------10--10--10---|-8-----------10---10---10---|
|-8-----------8---8---8---|-8-----------10---10---10---|
|-8---8-8-8-8-8---8---8---|-8---8-8-8-8-10---10---10---|

Guitar 2
|-------------------------|----------------------------|
|-------------------------|----------------------------|
|------------10~--9~------|-------------10~---9~-------|
|-8~~~~~~------------10~--|-8~~~~~~---------------10~--|
|-------------------------|----------------------------|
|-------------------------|----------------------------|

Both Guitars
|---------------------------|-------------------------------|
|---------------------------|-------------------------------|
|---------------------------|-------------------------------|
|---------------------------|-------------------------------|
|---------------------------|-------------------------------|
|-12p0-0-0-0-0-12p0-0-0-0-0-|-15p0-14p0-12p0-14p0-12p0-10p0-|

Guitar 1
      PM-----                   PM-----
|-------------------------|----------------------------|
|-------------------------|----------------------------|
|-------------------------|----------------------------|
|-8----------10--10--10---|-8-----------10---10---10---|
|-8-----------8---8---8---|-8-----------10---10---10---|
|-8---8-8-8-8-8---8---8---|-8---8-8-8-8-10---10---10---|

Guitar 2
|-------------------------|----------------------------|
|-------------------------|----------------------------|
|------------10~--9~------|-------------10~---9~-------|
|-8~~~~~~------------10~--|-8~~~~~~---------------10~--|
|-------------------------|----------------------------|
|-------------------------|----------------------------|

Both Guitars
|---------------------------|-------------------------------|
|---------------------------|-------------------------------|
|---------------------------|-------------------------------|
|---------------------------|-------------------------------|
|---------------------------|-------------------------------|
|-12p0-0-0-0-0-12p0-0-0-0-0-|-12p0-14p0-15p0-14p0-15p0-17p0-|

Guitar 1
      PM-----                   PM-----
|-------------------------|----------------------------|
|-------------------------|----------------------------|
|-------------------------|----------------------------|
|-8----------10--10--10---|-8-----------10---10---10---|
|-8-----------8---8---8---|-8-----------10---10---10---|
|-8---8-8-8-8-8---8---8---|-8---8-8-8-8-10---10---10---|

Guitar 2
|-------------------------|----------------------------|
|-------------------------|----------------------------|
|------------10~--9~------|-------------10~---9~-------|
|-8~~~~~~------------10~--|-8~~~~~~---------------10~--|
|-------------------------|----------------------------|
|-------------------------|----------------------------|

Both Guitars
|---------------------------|-------------------------------|
|---------------------------|-------------------------------|
|---------------------------|-------------------------------|
|---------------------------|-------------------------------|
|---------------------------|-------------------------------|
|-12p0-0-0-0-0-12p0-0-0-0-0-|-15p0-14p0-12p0-14p0-12p0-10p0-|

Guitar 1
      PM-----                   PM-----
|-------------------------|----------------------------|
|-------------------------|----------------------------|
|-------------------------|----------------------------|
|-8----------10--10--10---|-8-----------10---10---10---|
|-8-----------8---8---8---|-8-----------10---10---10---|
|-8---8-8-8-8-8---8---8---|-8---8-8-8-8-10---10---10---|

Guitar 2
|-------------------------|----------------------------|
|-------------------------|----------------------------|
|------------10~--9~------|-------------10~---9~-------|
|-8~~~~~~------------10~--|-8~~~~~~---------------10~--|
|-------------------------|----------------------------|
|-------------------------|----------------------------|

Guitar 1
|---------------------------|-------------------------------|
|---------------------------|-------------------------------|
|---------------------------|-------------------------------|
|---------------------------|-------------------------------|
|---------------------------|-------------------------------|
|-12p0-0-0-0-0-12p0-0-0-0-0-|-12p0-14p0-15p0-14p0-15p0-17p0-|

Guitar 2
|---------------------------|-------------------------------|
|---------------------------|-------------------------------|
|---------------------------|-------------------------------|
|---------------------------|-------------------------------|
|---------------------------|-------------------------------|
|-15p0-0-0-0-0-15p0-0-0-0-0-|-15p0-17p0-19p0-17p0-19p0-20p0-|

Guitar 1
|---------------------------|-------------------------------|
|---------------------------|-------------------------------|
|---------------------------|-------------------------------|
|---------------------------|-------------------------------|
|---------------------------|-------------------------------|
|-12p0-0-0-0-0-12p0-0-0-0-0-|-12p0-14p0-15p0-14p0-12p0-10p0-|

Guitar 2
|---------------------------|-------------------------------|
|---------------------------|-------------------------------|
|---------------------------|-------------------------------|
|---------------------------|-------------------------------|
|---------------------------|-------------------------------|
|-15p0-0-0-0-0-15p0-0-0-0-0-|-15p0-17p0-19p0-17p0-15p0-14p0-|

Guitar 1
|---------------------------|-------------------------------|
|---------------------------|-------------------------------|
|---------------------------|-------------------------------|
|---------------------------|-------------------------------|
|---------------------------|-------------------------------|
|-12p0-0-0-0-0-12p0-0-0-0-0-|-12p0-14p0-15p0-14p0-15p0-17p0-|

Guitar 2
|---------------------------|-------------------------------|
|---------------------------|-------------------------------|
|---------------------------|-------------------------------|
|---------------------------|-------------------------------|
|---------------------------|-------------------------------|
|-15p0-0-0-0-0-15p0-0-0-0-0-|-15p0-17p0-19p0-17p0-19p0-20p0-|

Guitar 1
|---------------------------|-------------------------------|
|---------------------------|-------------------------------|
|---------------------------|-------------------------------|
|---------------------------|-------------------------------|
|---------------------------|-------------------------------|
|-12p0-0-0-0-0-12p0-0-0-0-0-|-12p0-14p0-15p0-14p0-15p0-17p0-|

Guitar 2
|---------------------------|-------------------------------|
|---------------------------|-------------------------------|
|---------------------------|-------------------------------|
|---------------------------|-------------------------------|
|---------------------------|-------------------------------|
|-15p0-0-0-0-0-15p0-0-0-0-0-|-15p0-17p0-19p0-17p0-19p0-20p0-|

That's all of it, please rate :)
comments
print report bad tab
3 comments total.
+1 reply
TheFamousCow wrote on January 16 2012, 04:41 pm

Great work dude!

+1 reply
slipknot836 wrote on January 18 2012, 05:42 pm

Thanks dude

+1 reply
Gnasha13 wrote on May 11 2012, 11:59 pm

hey you can hear part more clearly here around 2:15
http://www.youtube.com/watch?v=rgfTUnnVQmU&feature=feedu
seems easy enough to tab but i'll leave that to you since you did such a ****ing amazing job of the rest of the song, nice work dude!

I want to post or [tab]
guest
You may want to rate the tab now too:
select rating
Please do not post tabs as comments. Select "correction" instead!