Oops, an error
Loading. Please wait.

Insurrection Tab

ver2
ver2

Intro

Whole song

More versions @911Tabs.com
2,381 views 1 this week
no commentswrite comment
1 2 3 4 5
excellent!
x 2
Autoscroll
+/-
esc
set tempo
stop
Contributor
WARNING: You are trying to view
                                    content from Ultimate-Guitar.com
                                    in an unauthorized application,
                                    which is prohibited.

                                    Please use an official Ultimate
                                    Guitar Tabs application for iPhone,
                                    iPad or Android to access legitimate
                                    chords, guitar, bass, and drum tabs
                                    from Ultimate-Guitar.com database.

                                    Type "ultimate guitar tabs" in Apple
                                    App Store's or Android Market's
                                    search to find the application.
#----------------------------------PLEASE NOTE---------------------------------#
#This file is the author's own work and represents their interpretation of the #
#song. You may only use this file for private study, scholarship, or research. #
#------------------------------------------------------------------------------##

                                  INSURRECTION
                             As recorded by Trivium
                          (From the 2008 Album SHOGUN)

Words and Music by Trivium
Transcribed by GuitarHeroJP

Gtr I (E A D G B E) - 'Matt'
Gtr II (E A D G B E) - 'Corey'
Gtr III (E A D G B E) - 'Solo Guitar I'
Gtr IV (E A D G B E) - 'Solo Guitar II'

   Intro
    Q=230
   4/4
    Gtrs I, II
        PM   PM  PM--------------|                    PM------|
    E E E  E E E E E   S S E S S E E E E E   E E Q    E S S E E
||-------------------|---------------------|--------------------|
||o------------------|---------------------|--------------------|
||-------------------|---------------------|--------------------|
||-------------------|-----------------9---|--------------------|
||o-8p7---10---7-----|-------------0h7---7-|-5h8-7b8r===========|
||------0----0---0-0-|-0-0-0-0-0-0---------|----------0-0-0-0-0-|


                                                         2/4
  PM--------|     ~   PM----|   PM  PM--|   PM  PM|   PM
  S S E S S E E E Q   E E E E E E E E   E E E E E E E E   Q  Q
|-------------------|-----------------|-----------------|--------||
|-------------------|-----------------|-----------------|-------o||
|-------------------|-----------------|-----------------|--------||
|-------------------|-----------------|-----------------|--------||
|-------------3h5-2-|---------3---2---|---3---2-----3---|-5--5--o||
|-0-0-0-0-0-0-------|-4-3-1-0---1---1-|-1---1---1-1---1-|-3--3---||


   Verse
   4/4
    Gtr I
        PM    PM--------------------------|       PM    PM--|
    E E E E E E E E   E E S S E S S E S S E   E E E E E E E E
||------------------|-----------------------|----------------|
||o-----------------|-----------------------|----------------|
||------------------|-----------------------|----------------|
||------------------|-----------------------|----------------|
||o-3p2---5p2-------|-----------------------|-3p2---5p2------|
||--1p0-0-3p0-0-0-0-|-0-0-0-0-0-0-0-0-0-0-0-|-1p0-0-3p0-0-0-0|
|
|   Gtr II
|       PM    PM--------------------------|       PM    PM--|
|   E E E E E E E E   E E S S E S S E S S E   E E E E E E E E
||------------------|-----------------------|----------------|
||o-----------------|-----------------------|----------------|
||------------------|-----------------------|----------------|
||------------------|-----------------------|----------------|
||o-3p2---5p2-------|-----------------------|-3p2---5p2------|
||--1p0-0-3p0-0-0-0-|-0-0-0-0-0-0-0-0-0-0-0-|-1p0-0-3p0-0-0-0|


  PM----|                  PM    PM--------------------------|
  E E E E  E  E  Q     E E E E E E E E   E E S S E S S E S S E
|--------------------|-----------------|-----------------------|
|--------------------|-----------------|-----------------------|
|--------------------|-----------------|-----------------------|
|--------------------|-----------------|-----------------------|
|---------12-10------|-3p2---5p2-------|-----------------------|
|-0-0-0-0-------12\--|-1p0-0-3p0-0-0-0-|-0-0-0-0-0-0-0-0-0-0-0-|
|
| PM----|                  PM    PM--------------------------|
| E E E E  E  E  E     E E E E E E E E   E E S S E S S E S S E
|--------------------|-----------------|-----------------------|
|--------------------|-----------------|-----------------------|
|--------------------|-----------------|-----------------------|
|--------------------|-----------------|-----------------------|
|----------8--7------|-3p2---5p2-------|-----------------------|
|-0-0-0-0--------8\--|-1p0-0-3p0-0-0-0-|-0-0-0-0-0-0-0-0-0-0-0-|


      PM    PM------------------------|
  E E E E E E E E   E  E E  E E  E  E  E
|-----------------|-----------------------||
|-----------------|----------------------o||
|-----------------|-----------------------||
|-----------------|------6--9-------7-10--||
|-3p2---5p2-------|-----------5--8-------o||
|-1p0-0-3p0-0-0-0-|-4--7------------------||
|
|     PM    PM------------------------|
| E E E E E E E E   E  E E  E E  E  E  E
|-----------------|-----------------------||
|-----------------|----------------------o||
|-----------------|-----------------------||
|-----------------|------9-12------10-13--||
|-3p2---5p2-------|-----------8-11-------o||
|-1p0-0-3p0-0-0-0-|-7-10------------------||


   Pre-Chorus
      PM|   PM   PM------|    PM   PM  PM    PM|   PM   PM------|   PM~
    E E E E E  E E E   E E  E E  E E E E   E E E E E  E E E   E E E E H
||-------------------|-------------------|------------------|-------------|
||o------------------|-------------------|------------------|-------------|
||-------------------|-------------------|------------------|-------------|
||--7-----9---10-----|-----12---10---9---|-7-----9---10-----|-----9-------|
||o-0-0-0-0-0--0-0-0-|-0-0--0-0--0-0-0-0-|-8-8-8-8-8--8-8-8-|-8-8-8-8-----|
||-------------------|-------------------|------------------|---------8---|
|
|     PM|   PM   PM------|    PM   PM  PM    PM|   PM   PM------|   PM~
|   E E E E E  E E E   E E  E E  E E E E   E E E E E  E E E   E E E E H
||-------------------|-------------------|------------------|-------------|
||o------------------|-------------------|------------------|-------------|
||-------------------|-------------------|------------------|-------------|
||--7-----9---10-----|-----12---10---9---|-7-----9---10-----|-----9-------|
||o-0-0-0-0-0--0-0-0-|-0-0--0-0--0-0-0-0-|-8-8-8-8-8--8-8-8-|-8-8-8-8-----|
||-------------------|-------------------|------------------|---------8---|


    PM|   PM   PM------|    PM   PM  PM    PM|   PM   PM|
  E E E E E  E E E   E E  E E  E E E E   E E E E E  E E E
|------------------|-------------------|------------------|
|------------------|-------------------|------------------|
|------------------|-------------------|------------------|
|-7-----9---10-----|-----12---10---9---|-7-----9---10-----|
|-0-0-0-0-0--0-0-0-|-0-0--0-0--0-0-0-0-|-8-8-8-8-8--8-8-8-|
|------------------|-------------------|------------------|
|
|   PM|   PM   PM------|    PM   PM  PM    PM|   PM   PM|
| E E E E E  E E E   E E  E E  E E E E   E E E E E  E E E
|------------------|-------------------|------------------|
|------------------|-------------------|------------------|
|------------------|-------------------|------------------|
|-7-----9---10-----|-----12---10---9---|-7-----9---10-----|
|-0-0-0-0-0--0-0-0-|-0-0--0-0--0-0-0-0-|-8-8-8-8-8--8-8-8-|
|------------------|-------------------|------------------|


  1.                       2.
                     ~~
   E  E  E  E  E  E  Q        E  E  E  E  E  E  E  E
|-----------------------||---------------------------|
|----------------------o||---------------------------|
|-12-10----10-12-14-12--||---12-10-------------------|
|-------14--------------||---------14-12-10----------|
|----------------------o||------------------14-12-10-|
|-----------------------||---------------------------|
|
|                    ~~
|  E  E  E  E  E  E  Q     E  E  E  E  E  E  E  E
|-----------------------||---------------------------|
|----------------------o||---------------------------|
|--9--7-----7--9-10--9--||-9--7----------------------|
|-------10--------------||------10--9--7-------------|
|----------------------o||---------------10--8--7----|
|-----------------------||---------------------------|


   Chorus
    Gtrs I, II
         PM|            PM|                       PM--------|
    H    E E  Q    H    E E Q    Q   Q  Q  Q   Q  E E E E E E
||---------------|-------------|-------------|----------------|
||o--------------|-------------|-------------|----------------|
||---------------|-------------|-------------|----------------|
||--9--------10--|-9--------7--|-9--10--9--7-|-9--------------|
||o-7---------8--|-7--------5--|-7---8--7--5-|-7--2-2-2-2-2-2-|
||-------0-0-----|------0-0----|-------------|----0-0-0-0-0-0-|


                 1.                2.
                                  D.C. al Coda
       PM|
  H    E E  Q     Q   Q  Q  Q       Q   Q  Q  Q
|--------------|----------------||--------------|
|--------------|---------------o||--------------|
|--------------|----------------||--------------|
|-9--------14--|-13--10--9--7---||-13--10--9--7-|
|-7--------12--|-11---8--7--5--o||-11---8--7--5-|
|------0-0-----|----------------||--------------|


   Bridge
    Gtr I
    PM----------------------------------------|     PM
    Q  Q  Q  Q    Q  Q  Q  Q    Q  Q  Q  Q    Q  Q  Q  Q
||--------------|-------------|-------------|------------|
||o-------------|-------------|-------------|------------|
||--------------|-------------|-------------|----2-----1-|
||-----2--3-----|-0--2-----2--|----3--2--3--|------------|
||o-------------|-------------|-------------|------------|
||--0--------0--|-------0-----|-1-----------|-1-----1----|


  PM----------------------------------------|     PM
  Q  Q  Q  Q    Q  Q  Q  Q    Q  Q  Q  Q    Q  Q  Q  Q
|-------------|-------------|-------------|--------------||
|-------------|-------------|-------------|-------------o||
|-------------|-------------|-------------|----2-----4---||
|----2--3-----|-0--2-----2--|----3--2--3--|--------------||
|-------------|-------------|-------------|-------------o||
|-4--------4--|-------4-----|-1-----------|-1-----1------||


    Gtr I
    PM----------------------------------------|     PM
    Q  Q  Q  Q    Q  Q  Q  Q    Q  Q  Q  Q    Q  Q  Q  Q
||--------------|-------------|-------------|------------|
||o-------------|-------------|-------------|------------|
||--------------|-------------|-------------|----2-----1-|
||-----2--3-----|-0--2-----2--|----3--2--3--|------------|
||o-------------|-------------|-------------|------------|
||--0--------0--|-------0-----|-1-----------|-1-----1----|
|
|   Gtr II
|   PM-------------------------------------------------|
|   Q  Q  Q  Q    Q  Q  Q  Q    Q  Q  Q  Q    Q  Q  Q  Q
||--------------|-------------|-------------|------------|
||o-------------|-------------|-------------|------------|
||--------------|-------------|-------------|------------|
||--------------|-------------|-------------|------------|
||o-------------|-------------|-------------|------------|
||--0--0--0--0--|-0--0--0--0--|-1--1--1--1--|-1--1--1--1-|


  PM----------------------------------------|     PM
  Q  Q  Q  Q    Q  Q  Q  Q    Q  Q  Q  Q    Q  Q  Q  Q
|-------------|-------------|-------------|--------------||
|-------------|-------------|-------------|-------------o||
|-------------|-------------|-------------|----2-----4---||
|----2--3-----|-0--2-----2--|----3--2--3--|--------------||
|-------------|-------------|-------------|-------------o||
|-4--------4--|-------4-----|-1-----------|-1-----1------||
|
| PM-------------------------------------------------|
| Q  Q  Q  Q    Q  Q  Q  Q    Q  Q  Q  Q    Q  Q  Q  Q
|-------------|-------------|-------------|--------------||
|-------------|-------------|-------------|-------------o||
|-------------|-------------|-------------|--------------||
|-------------|-------------|-------------|--------------||
|-------------|-------------|-------------|-------------o||
|-4--4--4--4--|-4--4--4--4--|-1--1--1--1--|-1--1--1--1---||


    PM------------------------------------------|       PM
    Q  Q  Q  Q     Q   Q  Q  Q    Q  Q  Q  Q     Q   Q  Q  Q
||--------------|---------------|-------------|--------------|
||o-------------|---------------|-------------|--------------|
||--------------|---------------|-------------|------2-----1-|
||-----2--3-----|--0---2-----2--|----3--2--3--|--------------|
||o-------------|---------------|-------------|--------------|
||--0--------0--|---------0-----|-1-----------|--1------1----|
|
|   W             +W              W             +W
||--------------|---------------|-------------|--------------|
||o-------------|---------------|-------------|--------------|
||--------------|---------------|-------------|--------------|
||--2-----------|-(2)-----------|-3-----------|-(3)----------|
||o-------------|---------------|-------------|--------------|
||--0-----------|-(0)-----------|-1-----------|-(1)----------|


  PM------------------------------------------|       PM
  Q  Q  Q  Q     Q   Q  Q  Q    Q  Q  Q  Q     Q   Q  Q  Q
|-------------|---------------|-------------|----------------||
|-------------|---------------|-------------|---------------o||
|-------------|---------------|-------------|------2-----4---||
|----2--3-----|--0---2-----2--|----3--2--3--|----------------||
|-------------|---------------|-------------|---------------o||
|-4--------4--|---------4-----|-1-----------|--1------1------||
|
| W             +W              W             +W
|-------------|---------------|-------------|----------------||
|-------------|---------------|-------------|---------------o||
|-------------|---------------|-------------|----------------||
|-6-----------|-(6)-----------|-3-----------|-(3)------------||
|-------------|---------------|-------------|---------------o||
|-4-----------|-(4)-----------|-1-----------|-(1)------------||


    Gtrs I, II
    PM----------------------------------------------|
    |-3-| |-3-| |-3-| |-3-|   |-3-| |-3-| |-3-| |-3-|
    E E E E E E E E E E E E   E E E E E E E E E E E E
||--------------------------|------------------------|
||o-------------------------|------------------------|
||--------------------------|------------------------|
||--------------------------|------------------------|
||o-------------------------|------------------------|
||--0-0-0-0-0-0-0-0-0-0-0-0-|-0-0-0-0-0-0-0-0-0-0-0-0|


  PM----------------------------------------------|
  |-3-| |-3-| |-3-| |-3-|   |-3-| |-3-| |-3-| |-3-|
  E E E E E E E E E E E E   E E E E E E E E E E E E
|-------------------------|-------------------------|
|-------------------------|-------------------------|
|-------------------------|-------------------------|
|-------------------------|-------------------------|
|-------------------------|-------------------------|
|-1-1-1-1-1-1-1-1-1-1-1-1-|-1-1-1-1-1-1-1-1-1-1-1-1-|


  PM-------------------------------------------------
  |-3-| |-3-| |-3-| |-3-|   |-3-| |-3-| |-3-| |-3-|
  E E E E E E E E E E E E   E E E E E E E E E E E E
|-------------------------|-------------------------|
|-------------------------|-------------------------|
|-------------------------|-------------------------|
|-------------------------|-------------------------|
|-------------------------|-------------------------|
|-4-4-4-4-4-4-4-4-4-4-4-4-|-4-4-4-4-4-4-4-4-4-4-4-4-|


 -------------------------------------------------|
  |-3-| |-3-| |-3-| |-3-|   |-3-| |-3-| |-3-| |-3-|
  E E E E E E E E E E E E   E E E E E E E E E E E E
|-------------------------|-----------------------------||
|-------------------------|----------------------------o||
|-------------------------|-----------------------------||
|-------------------------|-----------------------------||
|-------------------------|----------------------------o||
|-1-1-1-1-1-1-1-1-1-1-1-1-|-1-1-1-1-1-1-1-1-1-1-1-1-----||


 Corey Solo
  Q=130
  Gtr IV
   |--3--|  |--3--|  |--3--|  |--3--|  |--3--|  |--3--|  |--3--|  |--3--|
   S  S  S  S  S  S  S  S  S  S  S  S  S  S  S  S  S  S  S  S  S  S  S  S
|-------------------------------------------------------------------------|
|-------------------------------------------------------------------------|
|----------------------------------------------14-16-17----------16-17-19-|
|-------------------14-16-17----------14-16-17----------16-17-19----------|
|----------12-14-15----------14-15-17-------------------------------------|
|-12-14-15----------------------------------------------------------------|
|
| Gtrs I, II
|                                      PM                PM
|  E        E        E        E        E        E        E        E
|-------------------------------------------------------------------------|
|-------------------------------------------------------------------------|
|-------------------------------------------------------------------------|
|--2--------0--------2--------3-----------------2-----------------0-------|
|--2--------0--------2--------3-----------------2-----------------0-------|
|--------------------------------------0-----------------0----------------|


   |--3--|  |--3--|  |--3--|  |--3--|  |--3--|  |--3--|
   S  S  S  S  S  S  S  S  S  S  S  S  S  S  S  S  S  S  S  E.
|----------------------------------------17-19-20-19-17-------------|
|-17-19-20-19-17----------------17-19-20----------------20-20b22----|
|----------------19-17-16-17-19-------------------------------------|
|-------------------------------------------------------------------|
|-------------------------------------------------------------------|
|-------------------------------------------------------------------|
|
|  PM                PM
|  E        E        E        E        E        E        E        E
|-------------------------------------------------------------------|
|-------------------------------------------------------------------|
|-------------------------------------------------------------------|
|-----------2-----------------3--------6--------3--------2--------3-|
|-----------2-----------------3--------6--------3--------2--------3-|
|--0-----------------0----------------------------------------------|


    E.    S  S  S  S  S  S  S  S  S  S  S  S  S
|-/17----17-17S16-16-16S13-13-13-13-13S12-12-12-|
|-----------------------------------------------|
|-----------------------------------------------|
|-----------------------------------------------|
|-----------------------------------------------|
|-----------------------------------------------|
|
|                        PM          PM
|   E  E     E     E     E     E     E     E
|-----------------------------------------------|
|-----------------------------------------------|
|-----------------------------------------------|
|---2--0-----2-----3-----------2-----------0----|
|---2--0-----2-----3-----------2-----------0----|
|------------------------0-----------0----------|


   T  T  T  T  T  T  T  T  T  T  T  T  T  T  T  T  T  T T  T T  T  T T  T T T  T T T  T T
|-16p13p12-16p12-16p13p12-------------------------------------------------------------------|
|-------------------------15p13p12-15p12-15p13p12-------------------------------------------|
|-------------------------------------------------------------------------------------------|
|-------------------------------------------------12p10p9-12p9-12p10p9----------------------|
|----------------------------------------------------------------------11p8p7-11p8p7-11p7---|
|-------------------------------------------------------------------------------------------|
|
|                                      ~~~~~~~~~~~~~~~~~~~
|  E        E        E        E        Q                Q
|-------------------------------------------------------------------------------------------|
|-------------------------------------------------------------------------------------------|
|-------------------------------------------------------------------------------------------|
|-----------2-----------------3-------------------------------------------------------------|
|-----------2-----------------3-------------------------------------------------------------|
|--0-----------------0-----------------4----------------5-----------------------------------|


  Gtr IV
   S  S  S  S  S  S  S  S  S  S  S  S S  S  S  S    Q    E  Q    E  Q
|------------------------------------------13-16-|-12S==19-19S==24-24---|
|-------------------------------12-15-9-12-------|----------------------|
|-------------------10-13------------------------|----------------------|
|-------------------------12-15------------------|----------------------|
|-------14-17-11-14------------------------------|----------------------|
|-12-15------------------------------------------|----------------------|
|
| Gtr III
|  S  S  S  S  S  S  S  S  S  S  S  S S  S  S  S    Q    E  Q    E  Q
|------------------------------------------10-13-|----------------------|
|--------------------------------9-12-6--9-------|----------------------|
|--------------------7-10------------------------|--9S==16-16S==21-21---|
|--------------------------9-12------------------|----------------------|
|-------11-14--8-11------------------------------|----------------------|
|--8-12------------------------------------------|----------------------|
|
| Gtrs I, II
|                          PM         PM            PM   PM
|  E     E     E     E     E     E    E     E       E E  E  E E  E  E E
|------------------------------------------------|----------------------|
|------------------------------------------------|----------------------|
|------------------------------------------------|----------------------|
|--2-----0-----2-----3-----------2----------0----|----2-----3-6--3--2-3-|
|--2-----0-----2-----3-----------2----------0----|----2-----3-6--3--2-3-|
|--------------------------0----------0----------|--0----0--------------|


      |--3--|                               |--3--|       |--3--|
   E  S  S  S  E  E  E.    E.    E     Q    S  S  S  Q    S  S  S  Q
|-24-22h24p22-22-20-19----20----22-|-/22---20h22p20------19h20p19-------|
|----------------------------------|----------------21------------18----|
|----------------------------------|------------------------------------|
|----------------------------------|------------------------------------|
|----------------------------------|------------------------------------|
|----------------------------------|------------------------------------|
|
|     |--3--|                               |--3--|       |--3--|
|  E  S  S  S  E  E  E.    E.    E     Q    S  S  S  Q    S  S  S  Q
|----------------------------------|------------------------------------|
|----------------------------------|------------------------------------|
|-21-19h21p19-19-17-16----17----19-|-/19---17h19p17------16h17p16-------|
|----------------------------------|----------------18------------15----|
|----------------------------------|------------------------------------|
|----------------------------------|------------------------------------|
|
|                    PM       PM                       ~~~~~~~~~~~~~~
|  E  E        E  E  E  E     E  E     E E  E        E Q           Q
|----------------------------------|------------------------------------|
|----------------------------------|------------------------------------|
|----------------------------------|------------------------------------|
|--2--0--------2--3-----2--------0-|-----2-----------3------------------|
|--2--0--------2--3-----2--------0-|-----2-----------3------------------|
|--------------------0--------0----|---0----0----------4-----------5----|


  Gtr IV
   |-3--|  |--3--| |--3--|  |-3--|  |--3--|  |--3--|  |--3--|  |--3--|
   S S  S  S  S  S S  S  S  S  S S  S  S  S  S  S  S  S  S  S  S  S  S
|-13p8---------------------------8-17p13-------------------------------|
|------10---------------------10---------13----------------------------|
|---------10---------------10---------------14----------------------14-|
|------------10---------10---------------------15----------------15----|
|---------------12-8-12---------------------------15----------15-------|
|----------------------------------------------------17p13h17----------|
|
| Gtrs I, II
|  W
|----------------------------------------------------------------------|
|----------------------------------------------------------------------|
|----------------------------------------------------------------------|
|--3-------------------------------------------------------------------|
|----------------------------------------------------------------------|
|--1-------------------------------------------------------------------|


   |--3--|  |--3--|  |--3--|  |--3--|
   E  E  E  E  E  E  E  E  E  E  E  E
|-20-19-17------------------------------|
|----------18-17-15---------------------|
|-------------------17-16-14-16-14-13---|
|---------------------------------------|
|---------------------------------------|
|---------------------------------------|
|
|  H           H
|---------------------------------------|
|---------------------------------------|
|---------------------------------------|
|--6-----------7------------------------|
|---------------------------------------|
|--4-----------5------------------------|


 Matt Solo
  Gtr III
                   \1/         \1/
    Q.      Q.     Q       +E  Q.      S S S S S S S S
|------------------------|-----------------------------|
|------------------------|-----------------------------|
|------------------------|-----------------------------|
|------------------------|-----------------------------|
|-/12------11------8-----|-(8)-7-------8-7-5-7-5-------|
|------------------------|-----------------------8-7-5-|
|
| Gtrs I, II
|              PM  PM       PM     PM
|   E  E E  E  E E E   E    E  E   E E E   E   E   E
|------------------------|-----------------------------|
|------------------------|-----------------------------|
|------------------------|-----------------------------|
|---2--0-2--3----2-----0-|-----2-----3-6---3---2---3---|
|---2--0-2--3----2-----0-|-----2-----3-6---3---2---3---|
|--------------0---0-----|--0------0-------------------|


                    \1/       \1/   \1/   \1/   \1/   \1/   \1/   \1/
    Q.      Q.      Q        +E    +E    +E    +E    +E    +E    +Q
|-------------------------|--------------------------------------------|
|-------------------------|--------------------------------------------|
|-------------------------|--------------------------------------------|
|-------------------------|--------------------------------------------|
|-/12------11------14-----|-(14)--(14)--(14)--(14)--(14)--(14)--(14)---|
|-------------------------|--------------------------------------------|
|
|              PM   PM                                ~~~~~~~~~~~~~~~~
|   E  E E  E  E E  E   E     E     E     E     E     Q           Q
|-------------------------|--------------------------------------------|
|-------------------------|--------------------------------------------|
|-------------------------|--------------------------------------------|
|---2--0-2--3----2------0-|---------2-----------3----------------------|
|---2--0-2--3----2------0-|---------2-----------3----------------------|
|--------------0----0-----|---0-----------0-----------4-----------5----|


                    \1/
    Q.      Q.      Q        +E  Q.      S S S S S  S S S
|-------------------------|-------------------------------|
|-------------------------|-------------------------------|
|-/14------13------10-----|-(10)-9------10-9-7-9-7--------|
|-------------------------|------------------------10-9-7-|
|-------------------------|-------------------------------|
|-------------------------|-------------------------------|
|
|              PM   PM        PM    PM
|   E  E E  E  E E  E   E     E  E  E E  E   E   E    E
|-------------------------|-------------------------------|
|-------------------------|-------------------------------|
|-------------------------|-------------------------------|
|---2--0-2--3----2------0-|------2----3--6---3---2----3---|
|---2--0-2--3----2------0-|------2----3--6---3---2----3---|
|--------------0----0-----|---0-----0---------------------|


   |--3--|  |--3--|  |--3--|  |--3--|  |--3--|  |--3--|  |--3--|  |--3--|
   S  S  S  S  S  S  S  S  S  S  S  S  S  S  S  S  S  S  S  S  S  S  S  S
|--------------------------------------------------------------------------|
|-13-10-12-13-10-12-15-12-13-15-12-13-17-13-15-17-13-15-18-15-17-18-15-17--|
|--------------------------------------------------------------------------|
|--------------------------------------------------------------------------|
|--------------------------------------------------------------------------|
|--------------------------------------------------------------------------|
|
|                                      PM                PM
|  E        E        E        E        E        E        E        E
|--------------------------------------------------------------------------|
|--------------------------------------------------------------------------|
|--------------------------------------------------------------------------|
|--2--------0--------2--------3-----------------2-----------------0--------|
|--2--------0--------2--------3-----------------2-----------------0--------|
|--------------------------------------0-----------------0-----------------|


   |--3--|  |--3--|
   S  S  S  S  S  S  E  E  Q   E  E
|-----------------------------------|
|-21-17-18-21-17-18-22-22-21--18-17-|
|-----------------------------------|
|-----------------------------------|
|-----------------------------------|
|-----------------------------------|
|
|                          ~~~~~~
|  E        E        E  E  Q   Q
|-----------------------------------|
|-----------------------------------|
|-----------------------------------|
|-----------2-----------3-----------|
|-----------2-----------3-----------|
|--0-----------------0-----4---5----|


   |--3--|  |--3--|  |--3--|  |--3--|  |--3--|  |--3--|  |--3--|  |--3--|
   S  S  S  S  S  S  S  S  S  S  S  S  S  S  S  S  S  S  S  S  S  S  S  S
|-16h17p16-13h16p13---------------------------------------------------------|
|-------------------17h18-15h17---------------------------------------------|
|-------------------------------16h17p16-14h16p14-13h14p13----13------------|
|----------------------------------------------------------15----15p14h15---|
|---------------------------------------------------------------------------|
|---------------------------------------------------------------------------|
|
|     W
|---------------------------------------------------------------------------|
|---------------------------------------------------------------------------|
|---------------------------------------------------------------------------|
|-----3---------------------------------------------------------------------|
|---------------------------------------------------------------------------|
|-----1---------------------------------------------------------------------|


   |--3--|  |--3--|  |--3--|  |--3--|
   S  S  S  S  S  S  S  S  S  S  S  S  E  E  E E
|------------------------------------------------|
|------------------------------------------------|
|------------------------------------------------|
|-12h14----12------------------------------------|
|-------15----15p14h15-12h14h15-14p12------------|
|-------------------------------------13-12-10-5-|
|
|------------------------------------------------|
|------------------------------------------------|
|------------------------------------------------|
|------------------------------------------------|
|------------------------------------------------|
|------------------------------------------------|
|
|  H                                   H
|------------------------------------------------|
|------------------------------------------------|
|------------------------------------------------|
|--6-----------------------------------7---------|
|------------------------------------------------|
|--4-----------------------------------5---------|


   T       T       T       T       T       T       T       T
   |-3--|  |-3--|  |-3--|  |-3--|  |-3--|  |-3--|  |-3--|  |-3--|
   S S  S  S S  S  S S  S  S S  S  S S  S  S S  S  S S  S  S S  S
|-12p8h10-12p8h10-12p8h10-12p8h10-12p8h10-12p8h10-12p8h10-12p8h10-|
|-----------------------------------------------------------------|
|-----------------------------------------------------------------|
|-----------------------------------------------------------------|
|-----------------------------------------------------------------|
|-----------------------------------------------------------------|
|
|  T       T       T       T       T       T       T       T
|  |-3--|  |-3--|  |-3--|  |-3--|  |-3--|  |-3--|  |-3--|  |-3--|
|  S S  S  S S  S  S S  S  S S  S  S S  S  S S  S  S S  S  S S  S
|--8p5h=7--8p5h=7--8p5h=7--8p5h=7--8p5h=7--8p5h=7--8p5h=7--8p5h=7-|
|-----------------------------------------------------------------|
|-----------------------------------------------------------------|
|-----------------------------------------------------------------|
|-----------------------------------------------------------------|
|-----------------------------------------------------------------|
|
|  E       E       E       E       E         E       E       E
|-----------------------------------------------------------------|
|-----------------------------------------------------------------|
|-----------------------------------------------------------------|
|-----------------------------------------------------------------|
|--2-------2---------------2-------2-----------------2-------2----|
|--0-------0---------------0-------0-----------------0-------0----|


   T      T      T      T        T      T
   |-3-|  |-3-|  |-3-|  |-3--|   |-3-|  |-3-|
   S S S  S S S  S S S  S S  S   S S S  S S S  Q
|-10p7h8-10p7h8-10p7h8-10p7h=8--10p7h8-10p7h8-17b19-|
|---------------------------------------------------|
|---------------------------------------------------|
|---------------------------------------------------|
|---------------------------------------------------|
|---------------------------------------------------|
|
|  T      T      T      T        T      T
|  |-3-|  |-3-|  |-3-|  |-3--|   |-3-|  |-3-|
|  S S S  S S S  S S S  S S  S   S S S  S S S  Q
|--7p4h5--7p4h5--7p4h5--7p4h=5---7p4h5--7p4h5-10b12-|
|---------------------------------------------------|
|---------------------------------------------------|
|---------------------------------------------------|
|---------------------------------------------------|
|---------------------------------------------------|
|
|  E   E  E   E    E E       Q
|---------------------------------------------------|
|---------------------------------------------------|
|---------------------------------------------------|
|---------------------------------------------------|
|------2--2--------2-2------------------------------|
|------0--0--------0-0------18\---------------------|


   Last Chorus
    Q=230
    Gtrs I, II
         PM|            PM|                        PM--------|
    H    E E  Q    H    E E Q    Q   Q  Q  Q    Q  E E E E E E
||---------------|-------------|--------------|-----------------|
||o--------------|-------------|--------------|-----------------|
||---------------|-------------|--------------|-----------------|
||--9--------10--|-9--------7--|-9--10--9--7--|-9---------------|
||o-7---------8--|-7--------5--|-7---8--7--5--|-7--2-2-2-2-2-2--|
||-------0-0-----|------0-0----|--------------|----0-0-0-0-0-0--|


       PM|
  H    E E  Q     Q   Q  Q  Q
|--------------|---------------||
|--------------|--------------o||
|--------------|---------------||
|-9--------14--|-13--10--9--7--||
|-7--------12--|-11---8--7--5-o||
|------0-0-----|---------------||


         PM|           PM|                       PM--------|
    H    E E Q    H    E E Q    Q  Q  Q  Q    Q  E E E E E E
||--------------|-------------|-------------|-----------------|
||o-------------|-------------|-------------|-----------------|
||--------------|-------------|-------------|-----------------|
||--------------|-------------|-------------|-----------------|
||o-2--------3--|-2--------0--|-2--3--2--0--|-2--2-2-2-2-2-2--|
||--0----0-0-1--|-0----0-0----|-0--1--0-----|-0--0-0-0-0-0-0--|


       PM|
  H    E E Q    Q  Q  Q  Q
|-------------|-------------||
|-------------|------------o||
|-------------|-------------||
|-------------|-------------||
|-2--------7--|-6--3--2--0-o||
|-0----0-0-5--|-4--1--0-----||


 Outro
  Gtrs I, II
   <
   ~~~~~~~~~~~~~~~~~~~~~~~~~~~~~~~~~~~~~~~~~~
   W           +W           +W           +W
|------------|------------|------------|--------|
|------------|------------|------------|--------|
|------------|------------|------------|--------|
|-[7]--------|-(7)--------|-(7)--------|-(7)----|
|------------|------------|------------|--------|
|-[5]--------|-(5)--------|-(5)--------|-(5)----|


        PM   PM  PM--------------|                    PM------|
    E E E  E E E E E   S S E S S E E E E E   E E Q    E S S E E
||-------------------|---------------------|-------------------|
||o------------------|---------------------|-------------------|
||-------------------|---------------------|-------------------|
||-------------------|-----------------9---|-------------------|
||o-8p7---10---7-----|-------------0h7---7-|-5h8-7b8r==========|
||------0----0---0-0-|-0-0-0-0-0-0---------|----------0-0-0-0-0|


                                                          2/4
  PM--------|     ~    PM----|   PM  PM--|   PM  PM|   PM
  S S E S S E E E Q    E E E E E E E E   E E E E E E E E   Q  Q
|--------------------|-----------------|-----------------|-------||
|--------------------|-----------------|-----------------|------o||
|--------------------|-----------------|-----------------|-------||
|--------------------|-----------------|-----------------|-------||
|-------------3h5-2--|---------3---2---|---3---2-----3---|-5--5-o||
|-0-0-0-0-0-0--------|-4-3-1-0---1---1-|-1---1---1-1---1-|-3--3--||


  PM------|
  E S S E E   E E Q
|-----------|--------||-|
|-----------|--------||-|
|-----------|--------||-|
|-----------|--------||-|
|-----------|-3-3-3--||-|
|-0-0-0-0-0-|-1-1-1--||-|


Duration Legend
---------------
W - whole; H - half; Q - quarter; E - 8th; S - 16th; T - 32nd; X - 64th; a - acciaccatura
+ - note tied to previous; . - note dotted; .. - note double dotted
Uncapitalized letters represent notes that are staccato (1/2 duration)
Irregular groupings are notated above the duration line
Duration letters will always appear directly above the note/fret number it represents the
duration for.  Duration letters with no fret number below them represent rests.  Multi-
bar rests are notated in the form Wxn, where n is the number of bars to rest for.  Low
melody durations appear below the staff

Tablature Legend
----------------
 h   - hammer-on
 p   - pull-off
 b   - bend
 pb  - pre-bend
 r   - bend release (if no number after the r, then release immediately)
 /\  - slide into or out of (from/to "nowhere")
 s   - legato slide
 S   - shift slide
  - natural harmonic
[n]  - artificial harmonic
n(n) - tapped harmonic
 ~   - vibrato
 tr  - trill
 T   - tap
 TP  - trem. picking
 PM  - palm muting
\n/  - tremolo bar dip; n = amount to dip
 \n  - tremolo bar down
 n/  - tremolo bar up
/n\  - tremolo bar inverted dip
 =   - hold bend; also acts as connecting device for hammers/pulls
 <>  - volume swell (louder/softer)
 x   - on rhythm slash represents muted slash
 o   - on rhythm slash represents single note slash

Misc Legend
-----------
 |  - bar
||  - double bar
||o - repeat start
o|| - repeat end
*|  - double bar (ending)
 :  - bar (freetime)
 $  - Segno
 &  - Coda
Tempo markers -  = BPM(8/16=s8/s16), where s8 = swing 8ths, s16 = swing 16ths


***************************************************************************************
* Generated using Power Tab Editor by Brad Larsen - http://powertab.guitarnetwork.org *
***************************************************************************************
comments
We did not receive enough feedback on this tab! Please rate:
print report bad tab
1 2 3 4 5
I want to post or [tab]
guest
You may want to rate the tab now too:
select rating
Please do not post tabs as comments. Select "correction" instead!