Oops, an error
Loading. Please wait.

Kirisute Gomen Tab

ver1
ver1

Intro

Whole song

More versions @911Tabs.com
75,076 views 112 this week
27 commentsread comments
1 2 3 4 5
excellent!
x 28
Autoscroll
+/-
esc
set tempo
stop
Contributor
Hey! There's an official Ultimate Guitar app which is ideal
for learning songs when you're away from computer. Get the app
WARNING: You are trying to view
                                    content from Ultimate-Guitar.com
                                    in an unauthorized application,
                                    which is prohibited.

                                    Please use an official Ultimate
                                    Guitar Tabs application for iPhone,
                                    iPad or Android to access legitimate
                                    chords, guitar, bass, and drum tabs
                                    from Ultimate-Guitar.com database.

                                    Type "ultimate guitar tabs" in Apple
                                    App Store's or Android Market's
                                    search to find the application.
-------------------------------------------------------------------------------
     Kirisute Gomen - Trivium
-------------------------------------------------------------------------------
Tabbed by: Alex
Email: xander1711@hotmail.com

Tuning:Standard (BEADGBe)

Guitar I (B E A D G B e)
Guitar II (B E A D G B e)

BEWARE - this song is played with a 7 string guitar so some parts you may be unable to 
on a 6 stringed guitar, which most people do.


| /  slide up
| \  slide down
| h  hammer-on
| p  pull-off
| ~  vibrato
| +  harmonic
| PM Palm mute
| b  Bend
| br Bend release
|(?) Natural Harmonic


 Intro (0:00 - 0:16)

Guitar I - Clean
e|--------------------------------------------------------------------------------|
B|--------------------------------------------------------------------------------|
G|--12-11--9--5~---16--14--12--9--8~---12-11--9--17----17--16--17---16--16--14~---|
D|--------------------------------------------------------------------------------|
A|--10--9--7--3~---14--12--10--7--6~---10--9--7--15----15--14--15---14--14--12~---|
E|--------------------------------------------------------------------------------|
B|--------------------------------------------------------------------------------|

Guitar II - Clean
e|--------------------------------------------------------------------------------------------|
B|--------------------------------------------------------------------------------------------|
G|--------------------------------------------------------------------------------------------|
D|--------------------------------------------------------------------------------------------|
A|--------------------------------------------------------------------------------------------|
E|-----------(12)-(12)-(12)-(12)-(12)-(12)-(12)-(12)-(12)-(12)-(12)-(12)-(12)-(12)-(12)-(12)--|
B|--------------------------------------------------------------------------------------------|
  PM          .    .    .    .    .    .    .     .   .    .    .    .    .    .    .    .

 Solo 1 (0:21 - 0:52)

Guitar I - Distortion
e|---------------------------------------------------------------------|
B|---------------------------------------------------------------------|
G|--------------------8--8--8--8h9p8-----------------------------------|
D|--9-9h10p9--------------------------10-9-----------------7--9-9------| x2
A|-----------12-10-9------------------------6--7---10-7-9--------------|
E|---------------------------------------------------------------------|
B|---------------------------------------------------------------------|
Guitar II - Distortion
e|------------------------------------------------------------------------|
B|------------------------------------------------------------------------|
G|------------------------------------------------------------------------|
D|-2----------------------------------------------------------------------|
A|-2----------------4-----------------------6--7---10-7-9---7--9----------|
E|-0----------------2---------------------------------------5--7----------|
B|------------------------------------------4--5----8-5-7-----------------|

Guitar I - Distortion
e|------------------------------------------------------------------------------|
B|----------------------16-16-16-16h17p16---------------------------------------|
G|-16-16h17p16----------------------------17-16------------------14-16-(16)-----|
D|-------------19-17-16-------------------------13-14---17-14-16----------------| x2
A|------------------------------------------------------------------------------|
E|------------------------------------------------------------------------------|
B|------------------------------------------------------------------------------|
Guitar II - Distortion
e|------------------------------------------------------------------------|
B|------------------------------------------------------------------------|
G|------------------------------------------------------------------------|
D|-2----------------------------------------------------------------------|
A|-2------------------4-------------------------6--7----10-7-9----7--9----|
E|-0------------------2-------------------------------------------5--7----|
B|----------------------------------------------4--5-----8-5-7------------|


 "Verse" (0:52 - 1:05)

Guitar I

e|--------------------------------------------------------------------------------|
B|--------------------------------------------------------------------------------|
G|--------------------------------------------------------------------------------|
D|------5-5---4-4---------------------------------5-5---4-4-----------------------|
A|------7-7---6-6---------------------------------7-7---6-6-----------------------|
E|---0------0------0--0-0-0---0--0-0-0--0-0-0---0-----0-------0-3p0-3p0-2p0-2p0---|
B|--------------------------------------------------------------------------------|
       PM   .      .  . . .   .  . . .  . . .
e|----------------------------------------------------------------------------------------------|
B|----------------------------------------------------------------------------------------------|
G|----------------------------------------------------------------------------------------------|
D|------5-5---4-4---------------------------------5-5---4-4-------------------------------------|
A|------7-7---6-6---------------------------------7-7---6-6---2p0-2p0---------3p0-3p0-----------|
E|---0------0------0--0-0-0---0--0-0-0--0-0-0---0-----0---------------3p0-3p0----------2p0-2p0--|
B|----------------------------------------------------------------------------------------------|
       PM   .      .  . . .   .  . . .  . . .

Guitar II

e|--------------------------------------------------------------------------------|
B|--------------------------------------------------------------------------------|
G|--------------------------------------------------------------------------------|
D|------5-5---4-4---------------------------------2-2---1-1-----------------------|
A|------7-7---6-6---------------------------------3-3---2-2-----------------------|
E|---0------0------0--0-0-0---0--0-0-0--0-0-0---0-----0-------0-3p0-3p0-2p0-2p0---|
B|--------------------------------------------------------------------------------|
       PM   .      .  . . .   .  . . .  . . .
e|----------------------------------------------------------------------------------------------|
B|----------------------------------------------------------------------------------------------|
G|----------------------------------------------------------------------------------------------|
D|------5-5---4-4---------------------------------2-2---1-1-------------------------------------|
A|------7-7---6-6---------------------------------3-3---2-2---2p0-2p0---------3p0-3p0-----------|
E|---0------0------0--0-0-0---0--0-0-0--0-0-0---0-----0---------------3p0-3p0----------2p0-2p0--|
B|----------------------------------------------------------------------------------------------|
       PM   .      .  . . .   .  . . .  . . .


Riff 2 (1:05 - 1:14)

e|-----------------------------------------------------------------------------------------------|
B|-----------------------------------------------------------------------------------------------|
G|-----------------------------------------------------------------------------------------------|
D|-----------------------------------------------------------------------------------------------|
A|-----------------------------------------------------------------------------2-2-2-3-3-3-6-6-6-|
E|-----------------------------------------------------5-5-5-7-7-7-8-8-8-------------------------|
B|-5-5-5-5-5-4-4-4-5-5-5-7-7-7-8-8-8-7-7-7-5-5-5-0-0-0-------------------1-1-1-------------------|
PM . . . . . . . . . . . . . . . . . . . . . . . . . .                   . . .


e|----------------------------------------------------------------------------|
B|----------------------------------------------------------------------------|
G|--------------------------------------------------------12-11--9--8~--------|
D|----------------------------------------------------------------------------|
A|--------------------------------------------------------10--9--7--6~--------|
E|----------------------------------------------------------------------------|
B|--5-5-5-5-5-4-4-4-5-5-5-7-7-7-8-8-8-7-7-7-5-5-5-0-0-0-----------------12\---|
 PM . . . . . . . . . . . . . . . . . . . . . . . . . .


 "Verse" (1:14 - 1:37)

Guitar I

e|--------------------------------------------------------------------------------|
B|--------------------------------------------------------------------------------|
G|--------------------------------------------------------------------------------|
D|------5-5---4-4---------------------------------5-5---4-4-----------------------|
A|------7-7---6-6---------------------------------7-7---6-6-----------------------|
E|---0------0------0--0-0-0---0--0-0-0--0-0-0---0-----0-------0-3p0-3p0-2p0-2p0---|
B|--------------------------------------------------------------------------------|
       PM   .      .  . . .   .  . . .  . . .
e|----------------------------------------------------------------------------------------------|
B|----------------------------------------------------------------------------------------------|
G|----------------------------------------------------------------------------------------------|
D|------5-5---4-4---------------------------------5-5---4-4-------------------------------------|
A|------7-7---6-6---------------------------------7-7---6-6---2p0-2p0---------3p0-3p0-----------|
E|---0------0------0--0-0-0---0--0-0-0--0-0-0---0-----0---------------3p0-3p0----------2p0-2p0--|
B|----------------------------------------------------------------------------------------------|
       PM   .      .  . . .   .  . . .  . . .

Guitar II

e|--------------------------------------------------------------------------------|
B|--------------------------------------------------------------------------------|
G|--------------------------------------------------------------------------------|
D|------5-5---4-4---------------------------------2-2---1-1-----------------------|
A|------7-7---6-6---------------------------------3-3---2-2-----------------------|
E|---0------0------0--0-0-0---0--0-0-0--0-0-0---0-----0-------0-3p0-3p0-2p0-2p0---|
B|--------------------------------------------------------------------------------|
       PM   .      .  . . .   .  . . .  . . .
e|----------------------------------------------------------------------------------------------|
B|----------------------------------------------------------------------------------------------|
G|----------------------------------------------------------------------------------------------|
D|------5-5---4-4---------------------------------2-2---1-1-------------------------------------|
A|------7-7---6-6---------------------------------3-3---2-2---2p0-2p0---------3p0-3p0-----------|
E|---0------0------0--0-0-0---0--0-0-0--0-0-0---0-----0---------------3p0-3p0----------2p0-2p0--|
B|----------------------------------------------------------------------------------------------|
       PM   .      .  . . .   .  . . .  . . .


Riff 2 (1:37 - 1:51)


e|-----------------------------------------------------------------------------------------------|
B|-----------------------------------------------------------------------------------------------|
G|-----------------------------------------------------------------------------------------------|
D|-----------------------------------------------------------------------------------------------|
A|-----------------------------------------------------------------------------2-2-2-3-3-3-6-6-6-|
E|-----------------------------------------------------5-5-5-7-7-7-8-8-8-------------------------|
B|-5-5-5-5-5-4-4-4-5-5-5-7-7-7-8-8-8-7-7-7-5-5-5-0-0-0-------------------1-1-1-------------------|
PM . . . . . . . . . . . . . . . . . . . . . . . . . .                   . . .


e|----------------------------------------------------------------------------|
B|----------------------------------------------------------------------------|
G|--------------------------------------------------------12-11--9--8~--------|
D|----------------------------------------------------------------------------|
A|--------------------------------------------------------10--9--7--6~--------|
E|----------------------------------------------------------------------------|
B|--5-5-5-5-5-4-4-4-5-5-5-7-7-7-8-8-8-7-7-7-5-5-5-0-0-0-----------------12\---|
 PM . . . . . . . . . . . . . . . . . . . . . . . . . .

 "Chorus" (1:51 - 2:01)

e|-------------------------------------------------------------------------------|
B|-------------------------------------------------------------------------------|
G|-------------------------------------------------------------------------------|
D|----------------------------------------------7-7-9-9-----10-10-9-9-7-7--------|
A|--------7-7-9-9-5-5-------9-9-10-10-6-6---------------7-7---------------7-7----|
E|-------------------------------------------------------------------------------|
B|--5-5-5-------------7-7-7---------------8-8-8----------------------------------|
 PM . . . . . . . . . . . . . . .  .  . . . . . . . . . . . .  .  . . . . . .

    "i    can   see     in     their      eyes             they've already died"

e|--------------------------------------------------------------------------------------------|
B|--------------------------------------------------------------------------------------------|
G|--------------------------------------------------------------------------------------------|
D|---------------------------------------------------------7-7-7-9-9-9-7-7-7------------------|
A|--9-9---------------10-10----------------12-12-----------------------------10-10-10-9-9-9---|
E|------7-7-------7-7-------7-7--------7-7-------8-8------------------------------------------|
B|----------10-10----------------11-11---------------12-12------------------------------------|
 PM . . . . .  .  . . .  .  . .  .  .  . . .  .  . . .  .  . . . . . . . . . .  .  .  . . .

   "inside,   but    as    for   the     outside      i'll take their fucking heads"


"Verse" (2:01 - 2:11)

Guitar I

e|--------------------------------------------------------------------------------|
B|--------------------------------------------------------------------------------|
G|--------------------------------------------------------------------------------|
D|------5-5---4-4---------------------------------5-5---4-4-----------------------|
A|------7-7---6-6---------------------------------7-7---6-6-----------------------|
E|---0------0------0--0-0-0---0--0-0-0--0-0-0---0-----0-------0-3p0-3p0-2p0-2p0---|
B|--------------------------------------------------------------------------------|
       PM   .      .  . . .   .  . . .  . . .
e|----------------------------------------------------------------------------------------------|
B|----------------------------------------------------------------------------------------------|
G|----------------------------------------------------------------------------------------------|
D|------5-5---4-4---------------------------------5-5---4-4-------------------------------------|
A|------7-7---6-6---------------------------------7-7---6-6---2p0-2p0---------3p0-3p0-----------|
E|---0------0------0--0-0-0---0--0-0-0--0-0-0---0-----0---------------3p0-3p0----------2p0-2p0--|
B|----------------------------------------------------------------------------------------------|
       PM   .      .  . . .   .  . . .  . . .

Guitar II

e|--------------------------------------------------------------------------------|
B|--------------------------------------------------------------------------------|
G|--------------------------------------------------------------------------------|
D|------5-5---4-4---------------------------------2-2---1-1-----------------------|
A|------7-7---6-6---------------------------------3-3---2-2-----------------------|
E|---0------0------0--0-0-0---0--0-0-0--0-0-0---0-----0-------0-3p0-3p0-2p0-2p0---|
B|--------------------------------------------------------------------------------|
       PM   .      .  . . .   .  . . .  . . .
e|----------------------------------------------------------------------------------------------|
B|----------------------------------------------------------------------------------------------|
G|----------------------------------------------------------------------------------------------|
D|------5-5---4-4---------------------------------2-2---1-1-------------------------------------|
A|------7-7---6-6---------------------------------3-3---2-2---2p0-2p0---------3p0-3p0-----------|
E|---0------0------0--0-0-0---0--0-0-0--0-0-0---0-----0---------------3p0-3p0----------2p0-2p0--|
B|----------------------------------------------------------------------------------------------|
       PM   .      .  . . .   .  . . .  . . .


Riff 2 (2:12 - 2:26)


e|-----------------------------------------------------------------------------------------------|
B|-----------------------------------------------------------------------------------------------|
G|-----------------------------------------------------------------------------------------------|
D|-----------------------------------------------------------------------------------------------|
A|-----------------------------------------------------------------------------2-2-2-3-3-3-6-6-6-|
E|-----------------------------------------------------5-5-5-7-7-7-8-8-8-------------------------|
B|-5-5-5-5-5-4-4-4-5-5-5-7-7-7-8-8-8-7-7-7-5-5-5-0-0-0-------------------1-1-1-------------------|
PM . . . . . . . . . . . . . . . . . . . . . . . . . .                   . . .


e|----------------------------------------------------------------------------|
B|----------------------------------------------------------------------------|
G|--------------------------------------------------------12-11--9--8~--------|
D|----------------------------------------------------------------------------|
A|--------------------------------------------------------10--9--7--6~--------|
E|----------------------------------------------------------------------------|
B|--5-5-5-5-5-4-4-4-5-5-5-7-7-7-8-8-8-7-7-7-5-5-5-0-0-0-----------------12\---|
 PM . . . . . . . . . . . . . . . . . . . . . . . . . .

"Chorus" (2:26 - 2:45)



e|-------------------------------------------------------------------------------|
B|-------------------------------------------------------------------------------|
G|-------------------------------------------------------------------------------|
D|----------------------------------------------7-7-9-9-----10-10-9-9-7-7--------|
A|--------7-7-9-9-5-5-------9-9-10-10-6-6---------------7-7---------------7-7----|
E|-------------------------------------------------------------------------------|
B|--5-5-5-------------7-7-7---------------8-8-8----------------------------------|
 PM . . . . . . . . . . . . . . .  .  . . . . . . . . . . . .  .  . . . . . .

    "i    can   see     in     their      eyes             they've already died"

e|--------------------------------------------------------------------------------------------|
B|--------------------------------------------------------------------------------------------|
G|--------------------------------------------------------------------------------------------|
D|---------------------------------------------------------7-7-7-9-9-9-7-7-7------------------|
A|--9-9---------------10-10----------------12-12-----------------------------10-10-10-9-9-9---|
E|------7-7-------7-7-------7-7--------7-7-------8-8------------------------------------------|
B|----------10-10----------------11-11---------------12-12------------------------------------|
 PM . . . . .  .  . . .  .  . .  .  .  . . .  .  . . .  .  . . . . . . . . . .  .  .  . . .

   "inside,   but    as    for   the     outside      i'll take their fucking heads"


"Bridge" (2:45 - 3:16)


e|--------------------------------------------|--------------------------------------------|
B|--------------------------------------------|--------------------------------------------|
G|-12-12-12--9-9-9-9-9--12-12-12--9-9-9-9-12--|--11-11-11--8-8-8-8-8---8---8-9---9-11------|
D|--------------------------------------------|--------------------------------------------|
A|-10-10-10--7-7-7-7-7--10-10-10--7-7-7-7-10--|---9--9--9--6-6-6-6-6---6-0-6-7-0-7-9--0----|
E|--------------------------------------------|--------------------------------------------|
B|--------------------------------------------|--------------------------------------------|
  "i      will             never         be       what    they       want me to"

e|--------------------------------------------|----------------------------------------------|
B|--------------------------------------------|----------------------------------------------|
G|-12-12-12--9-9-9-9-9--12-12-12--9-9-9-9-12--|--11-11-11--8-8-8-8-8-----16----14----11------|
D|--------------------------------------------|----------------------------------------------|
A|-10-10-10--7-7-7-7-7--10-10-10--7-7-7-7-10--|---9--9--9--6-6-6-6-6-----14----12-----9------|
E|--------------------------------------------|----------------------------------------------|
B|--------------------------------------------|----------------------------------------------|
  "i      live       by      my    own              path  in life       no turning"

e|--------------------------------------------|--------------------------------------------|
B|--------------------------------------------|--------------------------------------------|
G|-12-12-12--9-9-9-9-9--12-12-12--9-9-9-9-12--|--11-11-11--8-8-8-8-8---8---8-9---9-11------|
D|--------------------------------------------|--------------------------------------------|
A|-10-10-10--7-7-7-7-7--10-10-10--7-7-7-7-10--|---9--9--9--6-6-6-6-6---6-0-6-7-0-7-9--0----|
E|--------------------------------------------|--------------------------------------------|
B|--------------------------------------------|--------------------------------------------|
  "back    now,      i    won't      be          held      down         forced into a"

e|--------------------------------------------|-------------------------|
B|--------------------------------------------|-------------------------|
G|-12-12-12--9-9-9-9-9--12-12-12--9-9-9-9-12--|--11-11-11--8-8-8-8-8----|
D|--------------------------------------------|-------------------------|
A|-10-10-10--7-7-7-7-7--10-10-10--7-7-7-7-10--|---9--9--9--6-6-6-6-6----|
E|--------------------------------------------|-------------------------|
B|--------------------------------------------|-------------------------|
   "shallow grave     built      upon   their      empty    ways


e|--------------------|---------------------|
B|--------------------|---------------------|
G|--11-----11----11---|11----11----11---9---|
D|--------------------|---------------------|
A|---9-0-0--9-0-0-9-0-|-9-0-0-9-0-0-9-0-7---|
E|--------------------|---------------------|
B|--------------------|---------------------|
 there's no   turning    back~"

"Pre Solo Riff" (3:17 - 3:39)

Guitar II
e|-----------------------------------------------------------------|
B|-----------------------------------------------------------------|
G|-----------------------------------------------------------------|
D|-----------------------------------------------------------------|
A|-----------------------------------------------------------------|
E|--12-0-0-12-0-0-12-0-0-11-0-0-14-0-14-0-14-0-15-0-15-0-15-0-0-0--|
B|-----------------------------------------------------------------|

e|-----------------------------------------------------------------|
B|-----------------------------------------------------------------|
G|-----------------------------------------------------------------|
D|-----------------------------------------------------------------|
A|-----------------------------------------------------------------|
E|--12-0-0-12-0-0-12-0-0-11-0-0--12-0-11-0-8-0-11-0-8-0-7-0-7------|
B|-----------------------------------------------------------------|


e|-----------------------------------------------------------------|
B|-----------------------------------------------------------------|
G|-----------------------------------------------------------------|
D|-----------------------------------------------------------------|
A|-----------------------------------------------------------------|
E|--12-0-0-12-0-0-12-0-0-11-0-0-14-0-14-0-14-0-15-0-15-0-15-0-0-0--|
B|-----------------------------------------------------------------|

e|-----------------------------------------------------------------|
B|-----------------------------------------------------------------|
G|-----------------------------------------------------------------|
D|-----------------------------------------------------------------|
A|-----------------------------------------------------------------|
E|---12-0-0-12-0-0-12-0-0-11-0-12-0-14-0-15-0-14-0-15-0-17~--------|
B|-----------------------------------------------------------------|


Solo (3:39 - 4:39)

Guitar I - wah wah pedal
e|----------------------------------------------------------------------|
B|--17-17-17-17\--17-17-17-17-16-16-17-17-19-19-19-20-20-20-19-19-19~---|
G|----------------------------------------------------------------------|
D|----------------------------------------------------------------------|
A|----------------------------------------------------------------------|
E|----------------------------------------------------------------------|
B|----------------------------------------------------------------------|

e|-20-19-17-------------------------------------------------------------------------------------|
B|----------20-19-17-16-17-19-17-16-------------------------------------------------------------|
G|----------------------------------17-16-14----------------------------------------------------|
D|-------------------------------------------17-16-14-13-14-16-14-13----------------------------|
A|--------------------------------------------------------------------15-14-12------------------|
E|-----------------------------------------------------------------------------15-14-12-11-12~--|
B|----------------------------------------------------------------------------------------------|

e|------------------------------------------------------------------------------------|
B|------------------------------------------------------------------------------------|
G|--------------------------------------14--16h17p16p14----------17p16p14-------------|
D|--14~--16-14-16--17-16h17p16-14-16-17-----------------17p16p14----------17p16p14----|
A|------------------------------------------------------------------------------------|
E|------------------------------------------------------------------------------------|
B|------------------------------------------------------------------------------------|

e|----------------------------------------------17-19-20---|
B|-------------------17-19-20----------17-19-20------------|
G|----------14-16-17----------14-16-17---------------------|
D|-14-16-17------------------------------------------------|
A|---------------------------------------------------------|
E|---------------------------------------------------------|
B|---------------------------------------------------------|

e|--19-19-19-19-19-19-20-19-17-19-19-19-19-19-19-20-19-17--20-19-17-------------------------|
B|------------------------------------------------------------------20-19-17----------------|
G|---------------------------------------------------------------------------20-19-17--16---|
D|------------------------------------------------------------------------------------------|
A|------------------------------------------------------------------------------------------|
E|------------------------------------------------------------------------------------------|
B|------------------------------------------------------------------------------------------|

e|----------------------------------------------------------------|
B|----------------------------------------------------------------|
G|--14-14-14-16-16-14-14-14-16-16-14-14-14-17-17-14-14-14-16-16---|
D|----------------------------------------------------------------|
A|----------------------------------------------------------------|
E|----------------------------------------------------------------|
B|----------------------------------------------------------------|

e|--------------------------------------------------|
B|--------------------------------------------------|
G|--12-12-12-14-14-12-12-12-16-16-12-12-12--14~-----|
D|--------------------------------------------------|
A|--------------------------------------------------|
E|--------------------------------------------------|
B|--------------------------------------------------|

 T  .      .       .       .        .        .        .        .
e|------------------------------------------------------------------------|
B|------------------------------------------------------------------------|
G|-12p11p9-12p11p9-12p11p9-12p11p9--14p12p11-14p12p11-14p12p11-14p12p11---|
D|------------------------------------------------------------------------|
A|------------------------------------------------------------------------|
E|------------------------------------------------------------------------|
B|------------------------------------------------------------------------|

 T .        .        .        .         .        .        .        .
e|----------------------------------------------------------------------------|
B|----------------------------------------------------------------------------|
G|-16p14p12-16p14p12-16p14p12-16p14p12--17p16p14-17p16p14-17p16p14-17p16p14---|
D|----------------------------------------------------------------------------|
A|----------------------------------------------------------------------------|
E|----------------------------------------------------------------------------|
B|----------------------------------------------------------------------------|

 T .        .        .        .         .        .        .         .
e|---------------------------------------------------------------------------24\---|
B|-20p19p17-20p19p17-20p19p17-20p19p17--22p20p19-22p20p19-22p20p19-22p20p19--------|
G|---------------------------------------------------------------------------------|
D|---------------------------------------------------------------------------------|
A|---------------------------------------------------------------------------------|
E|---------------------------------------------------------------------------------|
B|---------------------------------------------------------------------------------|

Guitar II

e|-----------------------------------------------------------------------|
B|-----------------------------------------------------------------------|
G|-----------------------------------------------------------------------|
D|-----------------------------------------------------------------------|
A|-----------------------------------------------------------------------|
E|-----------------------------------------------------------------------|
B|---[5\0]--(dime squeal on the 5th fret, then lower the tremolo bar)----|


e|--------12-----12h14p12-14b15-12h14p12---------|
B|--------15b17--------------------------15b17---|
G|-----------------------------------------------|
D|-----------------------------------------------|
A|-----------------------------------------------|
E|-----------------------------------------------|
B|-----------------------------------------------|

e|--15-14-12h14p12-11h12p11------------------------------------------|
B|----------------------------13-12h13p12-10h12p10-------------------|
G|-------------------------------------------------11h12p11-9-8~-----|
D|-------------------------------------------------------------------|
A|-------------------------------------------------------------------|
E|-------------------------------------------------------------------|
B|-------------------------------------------------------------------|

e|---------------------------------------------20-------|
B|--------13-12h13h12--\20--19h20p19---20b21~-----------|
G|--11-12-----------------------------------------------|
D|------------------------------------------------------|
A|------------------------------------------------------|
E|------------------------------------------------------|
B|------------------------------------------------------|

e|-------------------------------------------------------------------------------|
B|-------------------------------------------------------16-17-20-16-17-20-20----|
G|------------------------16-17-20-16-17-20-20~-16-17-20-------------------------|
D|--16-17-21-21--16-17-21--------------------------------------------------------|
A|-------------------------------------------------------------------------------|
E|-------------------------------------------------------------------------------|
B|-------------------------------------------------------------------------------|

e|----------16-17-20-17-16--------------------------------------------------|
B|-16-17-20----------------20-17-16-20-17-16--------------------------------|
G|-------------------------------------------20-17-16-20-17-16--------------|
D|-------------------------------------------------------------21-17-16-----|
A|--------------------------------------------------------------------------|
E|--------------------------------------------------------------------------|
B|--------------------------------------------------------------------------|

e|--------------------17------------------|
B|--------------16-19----19-16-17---------|
G|-----------17---------------------------|
D|-----16-19------------------------------|
A|--18------------------------------------|
E|----------------------------------------|
B|----------------------------------------|


Guitar I
e|-------------------------------------|
B|-------------------------------------|
G|---12-11---9--8---5---8---6----------|
D|-------------------------------------|
A|---10--9---7--6---3---6---4----------|
E|-------------------------------------|
B|-------------------------------------|

e|------------------------------17--20-17----17---------------------------|
B|--20-19h20p19--17----17-19-20-----------19---19----19-------------------|
G|------------------20----------------------------20----20-17-20-17-------|
D|------------------------------------------------------------------19----|
A|------------------------------------------------------------------------|
E|------------------------------------------------------------------------|
B|------------------------------------------------------------------------|

e|----------------------------------------------------------|
B|--------------------------------------17--16h17p16--------|
G|--17-16----------16-17-16----------16---------------------|
D|--------19-18-19----------19-18-19------------------------|
A|----------------------------------------------------------|
E|----------------------------------------------------------|
B|----------------------------------------------------------|

e|------------------------------17---------------------------------------------------------------|
B|--20-19h20p19--17----17-19-20-----16-13---13---------------------------------------------------|
G|------------------20--------------------14---14---14-------------------------------------------|
D|------------------------------------------------16---16-13-16-13---13--------------------------|
A|-----------------------------------------------------------------15---15-12-15-12---12---------|
E|----------------------------------------------------------------------------------14---14-11---|
B|-----------------------------------------------------------------------------------------------|

e|----------------------------------------------------------------------------------|
B|----------------------------------------------------------------------------------|
G|--16-17p16h17p16h17p16--16p14h16p14h16p14--14p12h14p12h14p12--12p11h12p11h12p11---|
D|----------------------------------------------------------------------------------|
A|----------------------------------------------------------------------------------|
E|----------------------------------------------------------------------------------|
B|----------------------------------------------------------------------------------|


"Verse" (4:40 - 4:50)

Guitar I

e|--------------------------------------------------------------------------------|
B|--------------------------------------------------------------------------------|
G|--------------------------------------------------------------------------------|
D|------5-5---4-4---------------------------------5-5---4-4-----------------------|
A|------7-7---6-6---------------------------------7-7---6-6-----------------------|
E|---0------0------0--0-0-0---0--0-0-0--0-0-0---0-----0-------0-3p0-3p0-2p0-2p0---|
B|--------------------------------------------------------------------------------|
       PM   .      .  . . .   .  . . .  . . .
e|----------------------------------------------------------------------------------------------|
B|----------------------------------------------------------------------------------------------|
G|----------------------------------------------------------------------------------------------|
D|------5-5---4-4---------------------------------5-5---4-4-------------------------------------|
A|------7-7---6-6---------------------------------7-7---6-6---2p0-2p0---------3p0-3p0-----------|
E|---0------0------0--0-0-0---0--0-0-0--0-0-0---0-----0---------------3p0-3p0----------2p0-2p0--|
B|----------------------------------------------------------------------------------------------|
       PM   .      .  . . .   .  . . .  . . .

Guitar II

e|--------------------------------------------------------------------------------|
B|--------------------------------------------------------------------------------|
G|--------------------------------------------------------------------------------|
D|------5-5---4-4---------------------------------2-2---1-1-----------------------|
A|------7-7---6-6---------------------------------3-3---2-2-----------------------|
E|---0------0------0--0-0-0---0--0-0-0--0-0-0---0-----0-------0-3p0-3p0-2p0-2p0---|
B|--------------------------------------------------------------------------------|
       PM   .      .  . . .   .  . . .  . . .
e|----------------------------------------------------------------------------------------------|
B|----------------------------------------------------------------------------------------------|
G|----------------------------------------------------------------------------------------------|
D|------5-5---4-4---------------------------------2-2---1-1-------------------------------------|
A|------7-7---6-6---------------------------------3-3---2-2---2p0-2p0---------3p0-3p0-----------|
E|---0------0------0--0-0-0---0--0-0-0--0-0-0---0-----0---------------3p0-3p0----------2p0-2p0--|
B|----------------------------------------------------------------------------------------------|
       PM   .      .  . . .   .  . . .  . . .

Riff 2 (4:50 - 5:05)


e|-----------------------------------------------------------------------------------------------|
B|-----------------------------------------------------------------------------------------------|
G|-----------------------------------------------------------------------------------------------|
D|-----------------------------------------------------------------------------------------------|
A|-----------------------------------------------------------------------------2-2-2-3-3-3-6-6-6-|
E|-----------------------------------------------------5-5-5-7-7-7-8-8-8-------------------------|
B|-5-5-5-5-5-4-4-4-5-5-5-7-7-7-8-8-8-7-7-7-5-5-5-0-0-0-------------------1-1-1-------------------|
PM . . . . . . . . . . . . . . . . . . . . . . . . . .                   . . .


e|----------------------------------------------------------------------------|
B|----------------------------------------------------------------------------|
G|--------------------------------------------------------12-11--9--8~--------|
D|----------------------------------------------------------------------------|
A|--------------------------------------------------------10--9--7--6~--------|
E|----------------------------------------------------------------------------|
B|--5-5-5-5-5-4-4-4-5-5-5-7-7-7-8-8-8-7-7-7-5-5-5-0-0-0-----------------12\---|
 PM . . . . . . . . . . . . . . . . . . . . . . . . . .

"Chorus" (5:05 - 5:25)



e|-------------------------------------------------------------------------------|
B|-------------------------------------------------------------------------------|
G|-------------------------------------------------------------------------------|
D|----------------------------------------------7-7-9-9-----10-10-9-9-7-7--------|
A|--------7-7-9-9-5-5-------9-9-10-10-6-6---------------7-7---------------7-7----|
E|-------------------------------------------------------------------------------|
B|--5-5-5-------------7-7-7---------------8-8-8----------------------------------|
 PM . . . . . . . . . . . . . . .  .  . . . . . . . . . . . .  .  . . . . . .

    "i    can   see     in     their      eyes             they've already died"

e|--------------------------------------------------------------------------------------------|
B|--------------------------------------------------------------------------------------------|
G|--------------------------------------------------------------------------------------------|
D|---------------------------------------------------------7-7-7-9-9-9-7-7-7------------------|
A|--9-9---------------10-10----------------12-12-----------------------------10-10-10-9-9-9---|
E|------7-7-------7-7-------7-7--------7-7-------8-8------------------------------------------|
B|----------10-10----------------11-11---------------12-12------------------------------------|
 PM . . . . .  .  . . .  .  . .  .  .  . . .  .  . . .  .  . . . . . . . . . .  .  .  . . .

   "inside,   but    as    for   the     outside      i'll take their fucking heads"

"Bridge" (5:28 - 6:12)


e|--------------------------------------------|--------------------------------------------|
B|--------------------------------------------|--------------------------------------------|
G|-12-12-12--9-9-9-9-9--12-12-12--9-9-9-9-12--|--11-11-11--8-8-8-8-8---8---8-9---9-11------|
D|--------------------------------------------|--------------------------------------------|
A|-10-10-10--7-7-7-7-7--10-10-10--7-7-7-7-10--|---9--9--9--6-6-6-6-6---6-0-6-7-0-7-9--0----|
E|--------------------------------------------|--------------------------------------------|
B|--------------------------------------------|--------------------------------------------|
  "i      will             never         be       what    they       want me to"

e|--------------------------------------------|----------------------------------------------|
B|--------------------------------------------|----------------------------------------------|
G|-12-12-12--9-9-9-9-9--12-12-12--9-9-9-9-12--|--11-11-11--8-8-8-8-8-----16----14----11------|
D|--------------------------------------------|----------------------------------------------|
A|-10-10-10--7-7-7-7-7--10-10-10--7-7-7-7-10--|---9--9--9--6-6-6-6-6-----14----12-----9------|
E|--------------------------------------------|----------------------------------------------|
B|--------------------------------------------|----------------------------------------------|
  "i      live       by      my    own              path  in life       no turning"

e|--------------------------------------------|--------------------------------------------|
B|--------------------------------------------|--------------------------------------------|
G|-12-12-12--9-9-9-9-9--12-12-12--9-9-9-9-12--|--11-11-11--8-8-8-8-8---8---8-9---9-11------|
D|--------------------------------------------|--------------------------------------------|
A|-10-10-10--7-7-7-7-7--10-10-10--7-7-7-7-10--|---9--9--9--6-6-6-6-6---6-0-6-7-0-7-9--0----|
E|--------------------------------------------|--------------------------------------------|
B|--------------------------------------------|--------------------------------------------|
  "back    now,      i    won't      be          held      down         forced into a"

e|--------------------------------------------|-------------------------|
B|--------------------------------------------|-------------------------|
G|-12-12-12--9-9-9-9-9--12-12-12--9-9-9-9-12--|--11-11-11--8-8-8-8-8----|
D|--------------------------------------------|-------------------------|
A|-10-10-10--7-7-7-7-7--10-10-10--7-7-7-7-10--|---9--9--9--6-6-6-6-6----|
E|--------------------------------------------|-------------------------|
B|--------------------------------------------|-------------------------|
   "shallow grave     built      upon   their      empty    ways


e|--------------------|---------------------|
B|--------------------|---------------------|
G|--11-----11----11---|11----11----11---9---|
D|--------------------|---------------------|
A|---9-0-0--9-0-0-9-0-|-9-0-0-9-0-0-9-0-7---|
E|--------------------|---------------------|
B|--------------------|---------------------|
 there's no   turning    back~"

Hope you enjoyed reading my tab, any help or advice is welcome


===============================================================================
comments
print report bad tab
27 comments total. Showing first comments.
+3 reply
IRONMAIDENTLICA wrote on August 2 2008, 04:49 pm

wow you tabbed that quick and its well done...you have my respect.

+2 reply
Black Revolver wrote on August 3 2008, 08:35 pm

yay i was hoping someone did this! thankyou =]

+1 reply
madman wrote on August 5 2008, 04:24 am

Shit bro!! thats pretty ****in good tab there congratz bro

I want to post or [tab]
guest
You may want to rate the tab now too:
select rating
Please do not post tabs as comments. Select "correction" instead!